  0
SECTION
  2
HEADER
  9
$ACADVER
  1
AC1009
  9
$INSBASE
 10
0.0
 20
0.0
 30
0.0
  9
$EXTMIN
 10
-3.6169486853796249
 20
-0.0000001867862096
 30
0.0
  9
$EXTMAX
 10
193.616949257785
 20
189.99999973884979
 30
0.0000000195376815
  9
$LIMMIN
 10
0.0
 20
0.0
  9
$LIMMAX
 10
790.0
 20
790.0
  9
$ORTHOMODE
 70
     0
  9
$REGENMODE
 70
     1
  9
$FILLMODE
 70
     1
  9
$QTEXTMODE
 70
     0
  9
$MIRRTEXT
 70
     1
  9
$DRAGMODE
 70
     2
  9
$LTSCALE
 40
4.0
  9
$OSMODE
 70
   167
  9
$ATTMODE
 70
     1
  9
$TEXTSIZE
 40
3.5
  9
$TRACEWID
 40
0.05
  9
$TEXTSTYLE
  7
ISO
  9
$CLAYER
  8
0
  9
$CELTYPE
  6
BYLAYER
  9
$CECOLOR
 62
   256
  9
$DIMSCALE
 40
0.0
  9
$DIMASZ
 40
3.0
  9
$DIMEXO
 40
1.5
  9
$DIMDLI
 40
10.0
  9
$DIMRND
 40
0.0
  9
$DIMDLE
 40
0.0
  9
$DIMEXE
 40
1.5
  9
$DIMTP
 40
0.0
  9
$DIMTM
 40
0.0
  9
$DIMTXT
 40
3.0
  9
$DIMCEN
 40
-5.0
  9
$DIMTSZ
 40
0.0
  9
$DIMTOL
 70
     0
  9
$DIMLIM
 70
     0
  9
$DIMTIH
 70
     0
  9
$DIMTOH
 70
     0
  9
$DIMSE1
 70
     0
  9
$DIMSE2
 70
     0
  9
$DIMTAD
 70
     1
  9
$DIMZIN
 70
     8
  9
$DIMBLK
  1

  9
$DIMASO
 70
     1
  9
$DIMSHO
 70
     1
  9
$DIMPOST
  1

  9
$DIMAPOST
  1

  9
$DIMALT
 70
     0
  9
$DIMALTD
 70
     0
  9
$DIMALTF
 40
25.399999999999999
  9
$DIMLFAC
 40
-1.0
  9
$DIMTOFL
 70
     1
  9
$DIMTVP
 40
0.0
  9
$DIMTIX
 70
     0
  9
$DIMSOXD
 70
     0
  9
$DIMSAH
 70
     0
  9
$DIMBLK1
  1

  9
$DIMBLK2
  1

  9
$DIMSTYLE
  2
MASKIN
  9
$DIMCLRD
 70
   256
  9
$DIMCLRE
 70
   256
  9
$DIMCLRT
 70
     2
  9
$DIMTFAC
 40
1.0
  9
$DIMGAP
 40
1.0
  9
$LUNITS
 70
     2
  9
$LUPREC
 70
     8
  9
$SKETCHINC
 40
0.1
  9
$FILLETRAD
 40
0.0
  9
$AUNITS
 70
     0
  9
$AUPREC
 70
     8
  9
$MENU
  1
ACAD
  9
$ELEVATION
 40
0.0
  9
$PELEVATION
 40
0.0
  9
$THICKNESS
 40
0.0
  9
$LIMCHECK
 70
     0
  9
$BLIPMODE
 70
     0
  9
$CHAMFERA
 40
0.0
  9
$CHAMFERB
 40
0.0
  9
$SKPOLY
 70
     0
  9
$TDCREATE
 40
2457882.3731315741
  9
$TDUPDATE
 40
2458298.4390888079
  9
$TDINDWG
 40
0.0172615625
  9
$TDUSRTIMER
 40
0.0172614468
  9
$USRTIMER
 70
     1
  9
$ANGBASE
 50
0.0
  9
$ANGDIR
 70
     0
  9
$PDMODE
 70
     0
  9
$PDSIZE
 40
0.0
  9
$PLINEWID
 40
0.0
  9
$COORDS
 70
     1
  9
$SPLFRAME
 70
     0
  9
$SPLINETYPE
 70
     6
  9
$SPLINESEGS
 70
     8
  9
$ATTDIA
 70
     1
  9
$ATTREQ
 70
     1
  9
$HANDLING
 70
     1
  9
$HANDSEED
  5
223E
  9
$SURFTAB1
 70
     6
  9
$SURFTAB2
 70
     6
  9
$SURFTYPE
 70
     6
  9
$SURFU
 70
     6
  9
$SURFV
 70
     6
  9
$UCSNAME
  2

  9
$UCSORG
 10
0.0
 20
0.0
 30
0.0
  9
$UCSXDIR
 10
1.0
 20
0.0
 30
0.0
  9
$UCSYDIR
 10
0.0
 20
1.0
 30
0.0
  9
$PUCSNAME
  2

  9
$PUCSORG
 10
0.0
 20
0.0
 30
0.0
  9
$PUCSXDIR
 10
1.0
 20
0.0
 30
0.0
  9
$PUCSYDIR
 10
0.0
 20
1.0
 30
0.0
  9
$USERI1
 70
     0
  9
$USERI2
 70
     0
  9
$USERI3
 70
     0
  9
$USERI4
 70
     0
  9
$USERI5
 70
     0
  9
$USERR1
 40
0.0
  9
$USERR2
 40
0.0
  9
$USERR3
 40
0.0
  9
$USERR4
 40
0.0
  9
$USERR5
 40
0.0
  9
$WORLDVIEW
 70
     1
  9
$SHADEDGE
 70
     3
  9
$SHADEDIF
 70
    70
  9
$TILEMODE
 70
     1
  9
$MAXACTVP
 70
    32
  9
$PLIMCHECK
 70
     0
  9
$PEXTMIN
 10
1.0000000000000000E+020
 20
1.0000000000000000E+020
 30
1.0000000000000000E+020
  9
$PEXTMAX
 10
-1.0000000000000000E+020
 20
-1.0000000000000000E+020
 30
-1.0000000000000000E+020
  9
$PLIMMIN
 10
-5.069427490234375
 20
-5.8737497329711914
  9
$PLIMMAX
 10
291.89889526367187
 20
204.0995779037475
  9
$UNITMODE
 70
     0
  9
$VISRETAIN
 70
     1
  9
$PLINEGEN
 70
     0
  9
$PSLTSCALE
 70
     1
  0
ENDSEC
  0
SECTION
  2
TABLES
  0
TABLE
  2
VPORT
 70
     1
  0
VPORT
  2
*ACTIVE
 70
     0
 10
0.0
 20
0.0
 11
1.0
 21
1.0
 12
231.40558487562089
 22
345.9705126359259
 13
0.0
 23
0.0
 14
1.0
 24
1.0
 15
0.0
 25
0.0
 16
0.0
 26
0.0
 36
1.0
 17
0.0
 27
0.0
 37
0.0
 40
626.73788341842214
 41
1.7265193370165739
 42
50.0
 43
0.0
 44
0.0
 50
0.0
 51
0.0
 71
     0
 72
   100
 73
     1
 74
     1
 75
     0
 76
     0
 77
     0
 78
     0
  0
ENDTAB
  0
TABLE
  2
LTYPE
 70
    50
  0
LTYPE
  2
CONTINUOUS
 70
     0
  3
Solid line
 72
    65
 73
     0
 40
0.0
  0
LTYPE
  2
NEWDOT
 70
     0
  3
____ . ____ . ____ . ____ . ____ . ____ . ____
 72
    65
 73
     4
 40
2.0
 49
1.0
 49
-0.5
 49
0.0
 49
-0.5
  0
LTYPE
  2
DASHDOT
 70
     0
  3
__ . __ . __ . __ . __ . __ . __ . __ . __ . __
 72
    65
 73
     4
 40
1.0
 49
0.5
 49
-0.25
 49
0.0
 49
-0.25
  0
LTYPE
  2
DASHED
 70
     0
  3
__ __ __ __ __ __ __ __ __ __ __ __ __ __ __
 72
    65
 73
     2
 40
0.75
 49
0.5
 49
-0.25
  0
LTYPE
  2
PHANTOM
 70
     0
  3
Phantom ______  __  __  ______  __  __  ______
 72
    65
 73
     6
 40
63.5
 49
31.75
 49
-6.3499999999999988
 49
6.3499999999999988
 49
-6.3499999999999988
 49
6.3499999999999988
 49
-6.3499999999999988
  0
LTYPE
  2
BYGG-037195$0$NEWDOT
 70
     0
  3
____ . ____ . ____ . ____ . ____ . ____ . ____
 72
    65
 73
     4
 40
2.0
 49
1.0
 49
-0.5
 49
0.0
 49
-0.5
  0
LTYPE
  2
BYGG-037195$0$DASHDOT
 70
     0
  3
__ . __ . __ . __ . __ . __ . __ . __ . __ . __
 72
    65
 73
     4
 40
1.0
 49
0.5
 49
-0.25
 49
0.0
 49
-0.25
  0
LTYPE
  2
BYGG-037195$0$DASHED
 70
     0
  3
__ __ __ __ __ __ __ __ __ __ __ __ __ __ __
 72
    65
 73
     2
 40
0.75
 49
0.5
 49
-0.25
  0
LTYPE
  2
BYGG-037195$0$PHANTOM
 70
     0
  3
Phantom ______  __  __  ______  __  __  ______
 72
    65
 73
     6
 40
63.5
 49
31.75
 49
-6.3499999999999988
 49
6.3499999999999988
 49
-6.3499999999999988
 49
6.3499999999999988
 49
-6.3499999999999988
  0
LTYPE
  2
BYGG-037195$0$ZIGZAG
 70
     0
  3
Zig zag /\/\/\/\/\/\/\/\/\/\/\/\/\/\/\/\/\/\/\/\/\/\/\/
 72
    65
 73
     4
 40
20.32254
 49
0.00254
 49
-5.0800000000000001
 49
-10.16
 49
-5.0800000000000001
  0
LTYPE
  2
BYGG-037194$0$NEWDOT
 70
     0
  3
____ . ____ . ____ . ____ . ____ . ____ . ____
 72
    65
 73
     4
 40
2.0
 49
1.0
 49
-0.5
 49
0.0
 49
-0.5
  0
LTYPE
  2
BYGG-037194$0$DASHDOT
 70
     0
  3
__ . __ . __ . __ . __ . __ . __ . __ . __ . __
 72
    65
 73
     4
 40
1.0
 49
0.5
 49
-0.25
 49
0.0
 49
-0.25
  0
LTYPE
  2
BYGG-037194$0$DASHED
 70
     0
  3
__ __ __ __ __ __ __ __ __ __ __ __ __ __ __
 72
    65
 73
     2
 40
0.75
 49
0.5
 49
-0.25
  0
LTYPE
  2
BYGG-037194$0$PHANTOM
 70
     0
  3
Phantom ______  __  __  ______  __  __  ______
 72
    65
 73
     6
 40
63.5
 49
31.75
 49
-6.3499999999999988
 49
6.3499999999999988
 49
-6.3499999999999988
 49
6.3499999999999988
 49
-6.3499999999999988
  0
LTYPE
  2
BYGG-037194$0$ZIGZAG
 70
     0
  3
Zig zag /\/\/\/\/\/\/\/\/\/\/\/\/\/\/\/\/\/\/\/\/\/\/\/
 72
    65
 73
     4
 40
20.32254
 49
0.00254
 49
-5.0800000000000001
 49
-10.16
 49
-5.0800000000000001
  0
LTYPE
  2
BYGG-037214$0$NEWDOT
 70
     0
  3
____ . ____ . ____ . ____ . ____ . ____ . ____
 72
    65
 73
     4
 40
2.0
 49
1.0
 49
-0.5
 49
0.0
 49
-0.5
  0
LTYPE
  2
BYGG-037214$0$DASHDOT
 70
     0
  3
__ . __ . __ . __ . __ . __ . __ . __ . __ . __
 72
    65
 73
     4
 40
1.0
 49
0.5
 49
-0.25
 49
0.0
 49
-0.25
  0
LTYPE
  2
BYGG-037214$0$DASHED
 70
     0
  3
__ __ __ __ __ __ __ __ __ __ __ __ __ __ __
 72
    65
 73
     2
 40
0.75
 49
0.5
 49
-0.25
  0
LTYPE
  2
BYGG-037214$0$PHANTOM
 70
     0
  3
Phantom ______  __  __  ______  __  __  ______
 72
    65
 73
     6
 40
63.5
 49
31.75
 49
-6.3499999999999988
 49
6.3499999999999988
 49
-6.3499999999999988
 49
6.3499999999999988
 49
-6.3499999999999988
  0
LTYPE
  2
BYGG-037199$0$NEWDOT
 70
     0
  3
____ . ____ . ____ . ____ . ____ . ____ . ____
 72
    65
 73
     4
 40
2.0
 49
1.0
 49
-0.5
 49
0.0
 49
-0.5
  0
LTYPE
  2
BYGG-037199$0$DASHDOT
 70
     0
  3
__ . __ . __ . __ . __ . __ . __ . __ . __ . __
 72
    65
 73
     4
 40
1.0
 49
0.5
 49
-0.25
 49
0.0
 49
-0.25
  0
LTYPE
  2
BYGG-037199$0$DASHED
 70
     0
  3
__ __ __ __ __ __ __ __ __ __ __ __ __ __ __
 72
    65
 73
     2
 40
0.75
 49
0.5
 49
-0.25
  0
LTYPE
  2
BYGG-037199$0$PHANTOM
 70
     0
  3
Phantom ______  __  __  ______  __  __  ______
 72
    65
 73
     6
 40
63.5
 49
31.75
 49
-6.3499999999999988
 49
6.3499999999999988
 49
-6.3499999999999988
 49
6.3499999999999988
 49
-6.3499999999999988
  0
LTYPE
  2
BYGG-014128$0$NEWDOT
 70
     0
  3
____ . ____ . ____ . ____ . ____ . ____ . ____
 72
    65
 73
     4
 40
2.0
 49
1.0
 49
-0.5
 49
0.0
 49
-0.5
  0
LTYPE
  2
BYGG-014128$0$DASHDOT
 70
     0
  3
__ . __ . __ . __ . __ . __ . __ . __ . __ . __
 72
    65
 73
     4
 40
1.0
 49
0.5
 49
-0.25
 49
0.0
 49
-0.25
  0
LTYPE
  2
BYGG-014128$0$DASHED
 70
     0
  3
__ __ __ __ __ __ __ __ __ __ __ __ __ __ __
 72
    65
 73
     2
 40
0.75
 49
0.5
 49
-0.25
  0
LTYPE
  2
BYGG-025652$0$NEWDOT
 70
     0
  3
____ . ____ . ____ . ____ . ____ . ____ . ____
 72
    65
 73
     4
 40
2.0
 49
1.0
 49
-0.5
 49
0.0
 49
-0.5
  0
LTYPE
  2
BYGG-025652$0$DASHDOT
 70
     0
  3
__ . __ . __ . __ . __ . __ . __ . __ . __ . __
 72
    65
 73
     4
 40
1.0
 49
0.5
 49
-0.25
 49
0.0
 49
-0.25
  0
LTYPE
  2
BYGG-025652$0$DASHED
 70
     0
  3
__ __ __ __ __ __ __ __ __ __ __ __ __ __ __
 72
    65
 73
     2
 40
0.75
 49
0.5
 49
-0.25
  0
LTYPE
  2
BYGG-025652$0$PHANTOM
 70
     0
  3
Phantom ______  __  __  ______  __  __  ______
 72
    65
 73
     6
 40
63.5
 49
31.75
 49
-6.3499999999999988
 49
6.3499999999999988
 49
-6.3499999999999988
 49
6.3499999999999988
 49
-6.3499999999999988
  0
LTYPE
  2
BYGG-014411$0$NEWDOT
 70
     0
  3
____ . ____ . ____ . ____ . ____ . ____ . ____
 72
    65
 73
     4
 40
2.0
 49
1.0
 49
-0.5
 49
0.0
 49
-0.5
  0
LTYPE
  2
BYGG-014411$0$ZIGZAG
 70
     0
  3
Zig zag /\/\/\/\/\/\/\/\/\/\/\/\/\/\/\/\/\/\/\/\/\/\/\/
 72
    65
 73
     4
 40
20.32254
 49
0.00254
 49
-5.0800000000000001
 49
-10.16
 49
-5.0800000000000001
  0
LTYPE
  2
BYGG-00894401$0$DASHDOT
 70
     0
  3
__ . __ . __ . __ . __ . __ . __ . __ . __ . __
 72
    65
 73
     4
 40
1.0
 49
0.5
 49
-0.25
 49
0.0
 49
-0.25
  0
LTYPE
  2
BYGG-008943$0$DASHDOT
 70
     0
  3
__ . __ . __ . __ . __ . __ . __ . __ . __ . __
 72
    65
 73
     4
 40
1.0
 49
0.5
 49
-0.25
 49
0.0
 49
-0.25
  0
LTYPE
  2
BYGG-024791$0$NEWDOT
 70
     0
  3
____ . ____ . ____ . ____ . ____ . ____ . ____
 72
    65
 73
     4
 40
2.0
 49
1.0
 49
-0.5
 49
0.0
 49
-0.5
  0
LTYPE
  2
BYGG-024791$0$DASHDOT
 70
     0
  3
__ . __ . __ . __ . __ . __ . __ . __ . __ . __
 72
    65
 73
     4
 40
1.0
 49
0.5
 49
-0.25
 49
0.0
 49
-0.25
  0
LTYPE
  2
BYGG-024817$0$NEWDOT
 70
     0
  3
____ . ____ . ____ . ____ . ____ . ____ . ____
 72
    65
 73
     4
 40
2.0
 49
1.0
 49
-0.5
 49
0.0
 49
-0.5
  0
LTYPE
  2
BYGG-037257$0$NEWDOT
 70
     0
  3
____ . ____ . ____ . ____ . ____ . ____ . ____
 72
    65
 73
     4
 40
2.0
 49
1.0
 49
-0.5
 49
0.0
 49
-0.5
  0
LTYPE
  2
BYGG-037257$0$DASHDOT
 70
     0
  3
__ . __ . __ . __ . __ . __ . __ . __ . __ . __
 72
    65
 73
     4
 40
1.0
 49
0.5
 49
-0.25
 49
0.0
 49
-0.25
  0
LTYPE
  2
BYGG-037257$0$DASHED
 70
     0
  3
__ __ __ __ __ __ __ __ __ __ __ __ __ __ __
 72
    65
 73
     2
 40
0.75
 49
0.5
 49
-0.25
  0
LTYPE
  2
BYGG-037257$0$PHANTOM
 70
     0
  3
Phantom ______  __  __  ______  __  __  ______
 72
    65
 73
     6
 40
63.5
 49
31.75
 49
-6.3499999999999988
 49
6.3499999999999988
 49
-6.3499999999999988
 49
6.3499999999999988
 49
-6.3499999999999988
  0
LTYPE
  2
BYGG-037258$0$NEWDOT
 70
     0
  3
____ . ____ . ____ . ____ . ____ . ____ . ____
 72
    65
 73
     4
 40
2.0
 49
1.0
 49
-0.5
 49
0.0
 49
-0.5
  0
LTYPE
  2
BYGG-037258$0$DASHDOT
 70
     0
  3
__ . __ . __ . __ . __ . __ . __ . __ . __ . __
 72
    65
 73
     4
 40
1.0
 49
0.5
 49
-0.25
 49
0.0
 49
-0.25
  0
LTYPE
  2
BYGG-037258$0$DASHED
 70
     0
  3
__ __ __ __ __ __ __ __ __ __ __ __ __ __ __
 72
    65
 73
     2
 40
0.75
 49
0.5
 49
-0.25
  0
LTYPE
  2
BYGG-037258$0$PHANTOM
 70
     0
  3
Phantom ______  __  __  ______  __  __  ______
 72
    65
 73
     6
 40
63.5
 49
31.75
 49
-6.3499999999999988
 49
6.3499999999999988
 49
-6.3499999999999988
 49
6.3499999999999988
 49
-6.3499999999999988
  0
LTYPE
  2
BYGG-025652$0$PHANTOM2
 70
     0
  3
Phantom (.5x) ___ _ _ ___ _ _ ___ _ _ ___ _ _
 72
    65
 73
     6
 40
1.25
 49
0.625
 49
-0.125
 49
0.125
 49
-0.125
 49
0.125
 49
-0.125
  0
LTYPE
  2
BYGG-014411$0$PHANTOM2
 70
     0
  3
Phantom (.5x) ___ _ _ ___ _ _ ___ _ _ ___ _ _
 72
    65
 73
     6
 40
1.25
 49
0.625
 49
-0.125
 49
0.125
 49
-0.125
 49
0.125
 49
-0.125
  0
LTYPE
  2
BYGG-014090$0$PHANTOM2
 70
     0
  3
Phantom (.5x) ___ _ _ ___ _ _ ___ _ _ ___ _ _
 72
    65
 73
     6
 40
1.25
 49
0.625
 49
-0.125
 49
0.125
 49
-0.125
 49
0.125
 49
-0.125
  0
LTYPE
  2
BYGG-014088$0$PHANTOM2
 70
     0
  3
Phantom (.5x) ___ _ _ ___ _ _ ___ _ _ ___ _ _
 72
    65
 73
     6
 40
1.25
 49
0.625
 49
-0.125
 49
0.125
 49
-0.125
 49
0.125
 49
-0.125
  0
LTYPE
  2
BYGG-024817$0$DASHDOT
 70
     0
  3
__ . __ . __ . __ . __ . __ . __ . __ . __ . __
 72
    65
 73
     4
 40
1.0
 49
0.5
 49
-0.25
 49
0.0
 49
-0.25
  0
ENDTAB
  0
TABLE
  2
LAYER
 70
   305
  0
LAYER
  2
0
 70
     0
 62
     7
  6
CONTINUOUS
  0
LAYER
  2
SAPA_ISOLATOR
 70
     0
 62
     4
  6
CONTINUOUS
  0
LAYER
  2
SAPA_MATT
 70
     0
 62
     1
  6
CONTINUOUS
  0
LAYER
  2
SAPA_GLAS
 70
     0
 62
     4
  6
CONTINUOUS
  0
LAYER
  2
SAPA_FOGBAND
 70
     0
 62
     2
  6
CONTINUOUS
  0
LAYER
  2
SAPA_PROFIL
 70
     0
 62
     7
  6
CONTINUOUS
  0
ENDTAB
  0
TABLE
  2
STYLE
 70
    44
  0
STYLE
  2
STANDARD
 70
     0
 40
0.0
 41
1.0
 50
0.0
 71
     0
 42
0.2
  3
txt
  4

  0
STYLE
  2
ISO
 70
     0
 40
0.0
 41
1.0
 50
0.0
 71
     0
 42
3.5
  3
txt
  4

  0
STYLE
  2

 70
     1
 40
0.0
 41
1.0
 50
0.0
 71
     0
 42
0.2
  3
ltypeshp.shx
  4

  0
STYLE
  2
BYGG-014128$0$STANDARD
 70
     0
 40
0.0
 41
1.0
 50
0.0
 71
     0
 42
0.2
  3
txt
  4

  0
STYLE
  2
BYGG-014128$0$ISO
 70
     0
 40
0.0
 41
1.0
 50
0.0
 71
     0
 42
3.5
  3
isocp3.shx
  4

  0
STYLE
  2
BYGG-014128$0$SIMPLEX
 70
     0
 40
0.0
 41
1.0
 50
0.0
 71
     0
 42
0.4
  3
simplex
  4

  0
STYLE
  2
BYGG-025652$0$STANDARD
 70
     0
 40
0.0
 41
1.0
 50
0.0
 71
     0
 42
0.2
  3
txt
  4

  0
STYLE
  2
BYGG-025652$0$ISO
 70
     0
 40
0.0
 41
1.0
 50
0.0
 71
     0
 42
3.5
  3
txt
  4

  0
STYLE
  2
BYGG-025652$0$ANNOTATIVE
 70
     0
 40
0.0
 41
1.0
 50
0.0
 71
     0
 42
0.2
  3
txt
  4

  0
STYLE
  2
BYGG-014411$0$STANDARD
 70
     0
 40
0.0
 41
1.0
 50
0.0
 71
     0
 42
0.2
  3
txt
  4

  0
STYLE
  2
BYGG-014411$0$ISO
 70
     0
 40
0.0
 41
1.0
 50
0.0
 71
     0
 42
3.5
  3
isocp3.shx
  4

  0
STYLE
  2
BYGG-014090$0$STANDARD
 70
     0
 40
0.0
 41
1.0
 50
0.0
 71
     0
 42
0.2
  3
txt
  4

  0
STYLE
  2
BYGG-014090$0$SIMPLEX
 70
     0
 40
0.0
 41
1.0
 50
0.0
 71
     0
 42
0.2
  3
simplex
  4

  0
STYLE
  2
BYGG-014088$0$STANDARD
 70
     0
 40
0.0
 41
1.0
 50
0.0
 71
     0
 42
0.4
  3
txt
  4

  0
STYLE
  2
BYGG-037257$0$STANDARD
 70
     0
 40
0.0
 41
1.0
 50
0.0
 71
     0
 42
0.2
  3
txt
  4

  0
STYLE
  2
BYGG-037257$0$ISO
 70
     0
 40
0.0
 41
1.0
 50
0.0
 71
     0
 42
3.5
  3
txt
  4

  0
STYLE
  2
BYGG-037195$0$STANDARD
 70
     0
 40
0.0
 41
1.0
 50
0.0
 71
     0
 42
0.2
  3
txt
  4

  0
STYLE
  2
BYGG-037195$0$ISO
 70
     0
 40
0.0
 41
1.0
 50
0.0
 71
     0
 42
3.5
  3
txt
  4

  0
STYLE
  2
BYGG-037194$0$STANDARD
 70
     0
 40
0.0
 41
1.0
 50
0.0
 71
     0
 42
0.2
  3
txt
  4

  0
STYLE
  2
BYGG-037194$0$ISO
 70
     0
 40
0.0
 41
1.0
 50
0.0
 71
     0
 42
3.5
  3
txt
  4

  0
STYLE
  2
BYGG-028980$0$STANDARD
 70
     0
 40
0.0
 41
1.0
 50
0.0
 71
     0
 42
0.2
  3
txt
  4

  0
STYLE
  2
BYGG-028980$0$ISO
 70
     0
 40
0.0
 41
1.0
 50
0.0
 71
     0
 42
3.5
  3
txt
  4

  0
STYLE
  2
BYGG-024973$0$STANDARD
 70
     0
 40
0.0
 41
1.0
 50
0.0
 71
     0
 42
0.2
  3
txt
  4

  0
STYLE
  2
BYGG-024973$0$ISO
 70
     0
 40
0.0
 41
1.0
 50
0.0
 71
     0
 42
3.5
  3
txt
  4

  0
STYLE
  2
BYGG-037214$0$STANDARD
 70
     0
 40
0.0
 41
1.0
 50
0.0
 71
     0
 42
0.2
  3
txt
  4

  0
STYLE
  2
BYGG-037214$0$ISO
 70
     0
 40
0.0
 41
1.0
 50
0.0
 71
     0
 42
3.5
  3
txt
  4

  0
STYLE
  2
BYGG-037199$0$STANDARD
 70
     0
 40
0.0
 41
1.0
 50
0.0
 71
     0
 42
0.2
  3
txt
  4

  0
STYLE
  2
BYGG-037199$0$ISO
 70
     0
 40
0.0
 41
1.0
 50
0.0
 71
     0
 42
3.5
  3
txt
  4

  0
STYLE
  2
BYGG-019610$0$STANDARD
 70
     0
 40
0.0
 41
1.0
 50
0.0
 71
     0
 42
0.2
  3
txt
  4

  0
STYLE
  2
BYGG-019610$0$ISO
 70
     0
 40
0.0
 41
1.0
 50
0.0
 71
     0
 42
3.5
  3
txt
  4

  0
STYLE
  2
BYGG-037258$0$STANDARD
 70
     0
 40
0.0
 41
1.0
 50
0.0
 71
     0
 42
0.2
  3
txt
  4

  0
STYLE
  2
BYGG-037258$0$ISO
 70
     0
 40
0.0
 41
1.0
 50
0.0
 71
     0
 42
3.5
  3
txt
  4

  0
STYLE
  2
BYGG-00894401$0$STANDARD
 70
     0
 40
0.0
 41
1.0
 50
0.0
 71
     0
 42
0.2
  3
txt
  4

  0
STYLE
  2
BYGG-00894401$0$ISO
 70
     0
 40
0.0
 41
1.0
 50
0.0
 71
     0
 42
3.5
  3
txt
  4

  0
STYLE
  2
BYGG-00894401$0$CONVERTER_
 70
     0
 40
0.0
 41
0.72
 50
0.0
 71
     0
 42
0.2
  3
txt.shx
  4

  0
STYLE
  2
BYGG-00894401$0$ANNOTATIVE
 70
     0
 40
0.0
 41
1.0
 50
0.0
 71
     0
 42
0.2
  3
txt
  4

  0
STYLE
  2
BYGG-008943$0$STANDARD
 70
     0
 40
0.0
 41
1.0
 50
0.0
 71
     0
 42
0.2
  3
txt
  4

  0
STYLE
  2
BYGG-008943$0$ISO
 70
     0
 40
0.0
 41
1.0
 50
0.0
 71
     0
 42
3.5
  3
txt
  4

  0
STYLE
  2
BYGG-008943$0$CONVERTER_2
 70
     0
 40
0.0
 41
0.72
 50
0.0
 71
     0
 42
0.2
  3
txt.shx
  4

  0
STYLE
  2
BYGG-008943$0$ANNOTATIVE
 70
     0
 40
0.0
 41
1.0
 50
0.0
 71
     0
 42
0.2
  3
txt
  4

  0
STYLE
  2
BYGG-024791$0$STANDARD
 70
     0
 40
0.0
 41
1.0
 50
0.0
 71
     0
 42
0.2
  3
txt
  4

  0
STYLE
  2
BYGG-024791$0$ISO
 70
     0
 40
0.0
 41
1.0
 50
0.0
 71
     0
 42
3.5
  3
txt
  4

  0
STYLE
  2
BYGG-024817$0$STANDARD
 70
     0
 40
0.0
 41
1.0
 50
0.0
 71
     0
 42
0.2
  3
txt
  4

  0
STYLE
  2
BYGG-024817$0$ISO
 70
     0
 40
0.0
 41
1.0
 50
0.0
 71
     0
 42
3.5
  3
txt
  4

  0
ENDTAB
  0
TABLE
  2
VIEW
 70
     0
  0
ENDTAB
  0
TABLE
  2
UCS
 70
     0
  0
ENDTAB
  0
TABLE
  2
APPID
 70
    25
  0
APPID
  2
ACAD
 70
     0
  0
APPID
  2
ACAD_DSTYLE_DIMTEXT_FILL
 70
     0
  0
APPID
  2
ACAD_DSTYLE_DIMEXT_LENGTH
 70
     0
  0
APPID
  2
ACAD_DSTYLE_DIMEXT_ENABLED
 70
     0
  0
APPID
  2
ACAD_DSTYLE_DIM_LINETYPE
 70
     0
  0
APPID
  2
ACAD_DSTYLE_DIM_EXT1_LINETYPE
 70
     0
  0
APPID
  2
ACAD_DSTYLE_DIM_EXT2_LINETYPE
 70
     0
  0
APPID
  2
ACAD_DSTYLE_DIMJOGGED_JOGA
 70
     0
  0
APPID
  2
ACAD_DSTYLE_DIMARC_LENGTH_
 70
     0
  0
APPID
  2
ACAD_PSEXT
 70
     0
  0
APPID
  2
ACAD_MLEADERVER
 70
     0
  0
APPID
  2
ACAD_NAV_VCDISPLAY
 70
     0
  0
APPID
  2
ACAECLAYERSTANDARD
 70
     0
  0
APPID
  2
ACDBBLOCKREPETAG
 70
     0
  0
APPID
  2
ACAD_EXEMPT_FROM_CAD_STANDARDS
 70
     0
  0
APPID
  2
ACDBDYNAMICBLOCKGUID
 70
     0
  0
APPID
  2
ACADANNOTATIVE
 70
     0
  0
APPID
  2
ACAD_DSTYLE_DIMRADIAL_EXTENSION
 70
     0
  0
APPID
  2
ACAD_OBJECT_CHANGE_GUID
 70
     0
  0
APPID
  2
ACCMTRANSPARENCY
 70
     0
  0
APPID
  2
ACAUTHENVIRON
 70
     0
  0
APPID
  2
ACDBDYNAMICBLOCKTRUENAME
 70
     0
  0
APPID
  2
AMG_ARCHIVE11
 70
     0
  0
APPID
  2
GRADIENTCOLOR1ACI
 70
     0
  0
APPID
  2
GRADIENTCOLOR2ACI
 70
     0
  0
ENDTAB
  0
TABLE
  2
DIMSTYLE
 70
    42
  0
DIMSTYLE
  2
STANDARD
 70
     0
  3

  4

  5

  6

  7

 40
1.0
 41
0.18
 42
0.0625
 43
0.38
 44
0.18
 45
0.0
 46
0.0
 47
0.0
 48
0.0
140
0.18
141
0.09
142
0.0
143
25.399999999999999
144
1.0
145
0.0
146
1.0
147
0.09
 71
     0
 72
     0
 73
     1
 74
     1
 75
     0
 76
     0
 77
     0
 78
     0
170
     0
171
     2
172
     0
173
     0
174
     0
175
     0
176
     0
177
     0
178
     0
  0
DIMSTYLE
  2
MASKIN
 70
     0
  3

  4

  5

  6

  7

 40
0.0
 41
3.0
 42
1.5
 43
10.0
 44
1.5
 45
0.0
 46
0.0
 47
0.0
 48
0.0
140
3.0
141
-5.0
142
0.0
143
25.399999999999999
144
-1.0
145
0.0
146
1.0
147
1.0
 71
     0
 72
     0
 73
     0
 74
     0
 75
     0
 76
     0
 77
     1
 78
     8
170
     0
171
     0
172
     1
173
     0
174
     0
175
     0
176
   256
177
   256
178
     2
  0
DIMSTYLE
  2
BYGG-014128$0$MASKIN
 70
     0
  3

  4

  5

  6

  7

 40
0.0
 41
3.0
 42
1.5
 43
10.0
 44
1.5
 45
0.0
 46
0.0
 47
0.0
 48
0.0
140
3.0
141
-5.0
142
0.0
143
25.399999999999999
144
-1.0
145
0.0
146
1.0
147
1.0
 71
     0
 72
     0
 73
     0
 74
     0
 75
     0
 76
     0
 77
     1
 78
     8
170
     0
171
     0
172
     1
173
     0
174
     0
175
     0
176
   256
177
   256
178
   256
  0
DIMSTYLE
  2
BYGG-014128$0$MASKIN1
 70
     0
  3

  4

  5

  6

  7

 40
1.0
 41
3.0
 42
1.5
 43
10.0
 44
1.5
 45
0.0
 46
0.0
 47
0.0
 48
0.0
140
3.0
141
-5.0
142
0.0
143
25.399999999999999
144
1.0
145
0.0
146
1.0
147
0.9
 71
     0
 72
     0
 73
     0
 74
     0
 75
     0
 76
     0
 77
     1
 78
     8
170
     0
171
     0
172
     1
173
     0
174
     0
175
     0
176
   256
177
   256
178
   256
  0
DIMSTYLE
  2
BYGG-014128$0$MASKIN2
 70
     0
  3

  4

  5

  6

  7

 40
1.0
 41
3.0
 42
1.5
 43
10.0
 44
1.5
 45
0.0
 46
0.0
 47
0.0
 48
0.0
140
3.0
141
-5.0
142
0.0
143
25.399999999999999
144
1.0
145
0.0
146
1.0
147
0.9
 71
     0
 72
     0
 73
     0
 74
     0
 75
     0
 76
     0
 77
     1
 78
     8
170
     0
171
     0
172
     1
173
     0
174
     0
175
     0
176
   256
177
   256
178
   256
  0
DIMSTYLE
  2
BYGG-014128$0$MASKIN3
 70
     0
  3

  4

  5

  6

  7

 40
1.0
 41
3.0
 42
1.5
 43
10.0
 44
1.5
 45
0.0
 46
0.0
 47
0.0
 48
0.0
140
3.0
141
-5.0
142
0.0
143
25.399999999999999
144
1.0
145
0.0
146
1.0
147
0.9
 71
     0
 72
     0
 73
     0
 74
     0
 75
     0
 76
     0
 77
     1
 78
     8
170
     0
171
     0
172
     1
173
     0
174
     0
175
     0
176
   256
177
   256
178
   256
  0
DIMSTYLE
  2
BYGG-014128$0$STANDARD
 70
     0
  3

  4

  5

  6

  7

 40
1.0
 41
0.18
 42
0.0625
 43
0.38
 44
0.18
 45
0.0
 46
0.0
 47
0.0
 48
0.0
140
0.18
141
0.09
142
0.0
143
25.399999999999999
144
1.0
145
0.0
146
1.0
147
0.09
 71
     0
 72
     0
 73
     1
 74
     1
 75
     0
 76
     0
 77
     0
 78
     0
170
     0
171
     2
172
     0
173
     0
174
     0
175
     0
176
     0
177
     0
178
     0
  0
DIMSTYLE
  2
BYGG-025652$0$STANDARD
 70
     0
  3

  4

  5

  6

  7

 40
1.0
 41
0.18
 42
0.0625
 43
0.38
 44
0.18
 45
0.0
 46
0.0
 47
0.0
 48
0.0
140
0.18
141
0.09
142
0.0
143
25.399999999999999
144
1.0
145
0.0
146
1.0
147
0.09
 71
     0
 72
     0
 73
     1
 74
     1
 75
     0
 76
     0
 77
     0
 78
     0
170
     0
171
     2
172
     0
173
     0
174
     0
175
     0
176
     0
177
     0
178
     0
  0
DIMSTYLE
  2
BYGG-025652$0$MASKIN
 70
     0
  3

  4

  5

  6

  7

 40
0.0
 41
3.0
 42
1.5
 43
10.0
 44
1.5
 45
0.0
 46
0.0
 47
0.0
 48
0.0
140
3.0
141
-5.0
142
0.0
143
25.399999999999999
144
-1.0
145
0.0
146
1.0
147
1.0
 71
     0
 72
     0
 73
     0
 74
     0
 75
     0
 76
     0
 77
     1
 78
     8
170
     0
171
     0
172
     1
173
     0
174
     0
175
     0
176
   256
177
   256
178
     2
  0
DIMSTYLE
  2
BYGG-025652$0$ANNOTATIVE
 70
     0
  3

  4

  5

  6

  7

 40
1.0
 41
0.18
 42
0.0625
 43
0.38
 44
0.18
 45
0.0
 46
0.0
 47
0.0
 48
0.0
140
0.18
141
0.09
142
0.0
143
25.399999999999999
144
1.0
145
0.0
146
1.0
147
0.09
 71
     0
 72
     0
 73
     1
 74
     1
 75
     0
 76
     0
 77
     0
 78
     0
170
     0
171
     2
172
     0
173
     0
174
     0
175
     0
176
     0
177
     0
178
     0
  0
DIMSTYLE
  2
BYGG-014411$0$MASKIN
 70
     0
  3

  4

  5

  6

  7

 40
0.0
 41
3.0
 42
1.5
 43
10.0
 44
1.5
 45
0.0
 46
0.0
 47
0.0
 48
0.0
140
3.0
141
-5.0
142
0.0
143
25.399999999999999
144
-1.0
145
0.0
146
1.0
147
1.0
 71
     0
 72
     0
 73
     0
 74
     0
 75
     0
 76
     0
 77
     1
 78
     8
170
     0
171
     0
172
     1
173
     0
174
     0
175
     0
176
   256
177
   256
178
   256
  0
DIMSTYLE
  2
BYGG-014411$0$STANDARD
 70
     0
  3

  4

  5

  6

  7

 40
1.0
 41
0.18
 42
0.0625
 43
0.38
 44
0.18
 45
0.0
 46
0.0
 47
0.0
 48
0.0
140
0.18
141
0.09
142
0.0
143
25.399999999999999
144
1.0
145
0.0
146
1.0
147
0.09
 71
     0
 72
     0
 73
     1
 74
     1
 75
     0
 76
     0
 77
     0
 78
     0
170
     0
171
     2
172
     0
173
     0
174
     0
175
     0
176
     0
177
     0
178
     0
  0
DIMSTYLE
  2
BYGG-014090$0$STANDARD
 70
     0
  3

  4

  5

  6

  7

 40
1.0
 41
0.18
 42
0.0625
 43
0.38
 44
0.18
 45
0.0
 46
0.0
 47
0.0
 48
0.0
140
0.18
141
0.09
142
0.0
143
25.399999999999999
144
1.0
145
0.0
146
1.0
147
0.09
 71
     0
 72
     0
 73
     1
 74
     1
 75
     0
 76
     0
 77
     0
 78
     0
170
     0
171
     2
172
     0
173
     0
174
     0
175
     0
176
     0
177
     0
178
     0
  0
DIMSTYLE
  2
BYGG-014088$0$STANDARD
 70
     0
  3

  4

  5

  6

  7

 40
1.0
 41
0.18
 42
0.0625
 43
0.38
 44
0.18
 45
0.0
 46
0.0
 47
0.0
 48
0.0
140
0.18
141
0.09
142
0.0
143
25.399999999999999
144
1.0
145
0.0
146
1.0
147
0.09
 71
     0
 72
     0
 73
     1
 74
     1
 75
     0
 76
     0
 77
     0
 78
     0
170
     0
171
     2
172
     0
173
     0
174
     0
175
     0
176
     0
177
     0
178
     0
  0
DIMSTYLE
  2
BYGG-037257$0$STANDARD
 70
     0
  3

  4

  5

  6

  7

 40
1.0
 41
0.18
 42
0.0625
 43
0.38
 44
0.18
 45
0.0
 46
0.0
 47
0.0
 48
0.0
140
0.18
141
0.09
142
0.0
143
25.399999999999999
144
1.0
145
0.0
146
1.0
147
0.09
 71
     0
 72
     0
 73
     1
 74
     1
 75
     0
 76
     0
 77
     0
 78
     0
170
     0
171
     2
172
     0
173
     0
174
     0
175
     0
176
     0
177
     0
178
     0
  0
DIMSTYLE
  2
BYGG-037257$0$MASKIN
 70
     0
  3

  4

  5

  6

  7

 40
0.0
 41
3.0
 42
1.5
 43
10.0
 44
1.5
 45
0.0
 46
0.0
 47
0.0
 48
0.0
140
3.0
141
-5.0
142
0.0
143
25.399999999999999
144
-1.0
145
0.0
146
1.0
147
1.0
 71
     0
 72
     0
 73
     0
 74
     0
 75
     0
 76
     0
 77
     1
 78
     8
170
     0
171
     0
172
     1
173
     0
174
     0
175
     0
176
   256
177
   256
178
     2
  0
DIMSTYLE
  2
BYGG-037195$0$STANDARD
 70
     0
  3

  4

  5

  6

  7

 40
1.0
 41
0.18
 42
0.0625
 43
0.38
 44
0.18
 45
0.0
 46
0.0
 47
0.0
 48
0.0
140
0.18
141
0.09
142
0.0
143
25.399999999999999
144
1.0
145
0.0
146
1.0
147
0.09
 71
     0
 72
     0
 73
     1
 74
     1
 75
     0
 76
     0
 77
     0
 78
     0
170
     0
171
     2
172
     0
173
     0
174
     0
175
     0
176
     0
177
     0
178
     0
  0
DIMSTYLE
  2
BYGG-037195$0$MASKIN
 70
     0
  3

  4

  5

  6

  7

 40
0.0
 41
3.0
 42
1.5
 43
10.0
 44
1.5
 45
0.0
 46
0.0
 47
0.0
 48
0.0
140
3.0
141
-5.0
142
0.0
143
25.399999999999999
144
-1.0
145
0.0
146
1.0
147
1.0
 71
     0
 72
     0
 73
     0
 74
     0
 75
     0
 76
     0
 77
     1
 78
     8
170
     0
171
     0
172
     1
173
     0
174
     0
175
     0
176
   256
177
   256
178
     2
  0
DIMSTYLE
  2
BYGG-037194$0$STANDARD
 70
     0
  3

  4

  5

  6

  7

 40
1.0
 41
0.18
 42
0.0625
 43
0.38
 44
0.18
 45
0.0
 46
0.0
 47
0.0
 48
0.0
140
0.18
141
0.09
142
0.0
143
25.399999999999999
144
1.0
145
0.0
146
1.0
147
0.09
 71
     0
 72
     0
 73
     1
 74
     1
 75
     0
 76
     0
 77
     0
 78
     0
170
     0
171
     2
172
     0
173
     0
174
     0
175
     0
176
     0
177
     0
178
     0
  0
DIMSTYLE
  2
BYGG-037194$0$MASKIN
 70
     0
  3

  4

  5

  6

  7

 40
0.0
 41
3.0
 42
1.5
 43
10.0
 44
1.5
 45
0.0
 46
0.0
 47
0.0
 48
0.0
140
3.0
141
-5.0
142
0.0
143
25.399999999999999
144
-1.0
145
0.0
146
1.0
147
1.0
 71
     0
 72
     0
 73
     0
 74
     0
 75
     0
 76
     0
 77
     1
 78
     8
170
     0
171
     0
172
     1
173
     0
174
     0
175
     0
176
   256
177
   256
178
     2
  0
DIMSTYLE
  2
BYGG-028980$0$STANDARD
 70
     0
  3

  4

  5

  6

  7

 40
1.0
 41
0.18
 42
0.0625
 43
0.38
 44
0.18
 45
0.0
 46
0.0
 47
0.0
 48
0.0
140
0.18
141
0.09
142
0.0
143
25.399999999999999
144
1.0
145
0.0
146
1.0
147
0.09
 71
     0
 72
     0
 73
     1
 74
     1
 75
     0
 76
     0
 77
     0
 78
     0
170
     0
171
     2
172
     0
173
     0
174
     0
175
     0
176
     0
177
     0
178
     0
  0
DIMSTYLE
  2
BYGG-028980$0$MASKIN
 70
     0
  3

  4

  5

  6

  7

 40
0.0
 41
3.0
 42
1.5
 43
10.0
 44
1.5
 45
0.0
 46
0.0
 47
0.0
 48
0.0
140
3.0
141
-5.0
142
0.0
143
25.399999999999999
144
-1.0
145
0.0
146
1.0
147
1.0
 71
     0
 72
     0
 73
     0
 74
     0
 75
     0
 76
     0
 77
     1
 78
     8
170
     0
171
     0
172
     1
173
     0
174
     0
175
     0
176
   256
177
   256
178
     2
  0
DIMSTYLE
  2
BYGG-024973$0$STANDARD
 70
     0
  3

  4

  5

  6

  7

 40
1.0
 41
0.18
 42
0.0625
 43
0.38
 44
0.18
 45
0.0
 46
0.0
 47
0.0
 48
0.0
140
0.18
141
0.09
142
0.0
143
25.399999999999999
144
1.0
145
0.0
146
1.0
147
0.09
 71
     0
 72
     0
 73
     1
 74
     1
 75
     0
 76
     0
 77
     0
 78
     0
170
     0
171
     2
172
     0
173
     0
174
     0
175
     0
176
     0
177
     0
178
     0
  0
DIMSTYLE
  2
BYGG-024973$0$MASKIN
 70
     0
  3

  4

  5

  6

  7

 40
0.0
 41
3.0
 42
1.5
 43
10.0
 44
1.5
 45
0.0
 46
0.0
 47
0.0
 48
0.0
140
3.0
141
-5.0
142
0.0
143
25.399999999999999
144
-1.0
145
0.0
146
1.0
147
1.0
 71
     0
 72
     0
 73
     0
 74
     0
 75
     0
 76
     0
 77
     1
 78
     8
170
     0
171
     0
172
     1
173
     0
174
     0
175
     0
176
   256
177
   256
178
     2
  0
DIMSTYLE
  2
BYGG-037214$0$STANDARD
 70
     0
  3

  4

  5

  6

  7

 40
1.0
 41
0.18
 42
0.0625
 43
0.38
 44
0.18
 45
0.0
 46
0.0
 47
0.0
 48
0.0
140
0.18
141
0.09
142
0.0
143
25.399999999999999
144
1.0
145
0.0
146
1.0
147
0.09
 71
     0
 72
     0
 73
     1
 74
     1
 75
     0
 76
     0
 77
     0
 78
     0
170
     0
171
     2
172
     0
173
     0
174
     0
175
     0
176
     0
177
     0
178
     0
  0
DIMSTYLE
  2
BYGG-037214$0$MASKIN
 70
     0
  3

  4

  5

  6

  7

 40
0.0
 41
3.0
 42
1.5
 43
10.0
 44
1.5
 45
0.0
 46
0.0
 47
0.0
 48
0.0
140
3.0
141
-5.0
142
0.0
143
25.399999999999999
144
-1.0
145
0.0
146
1.0
147
1.0
 71
     0
 72
     0
 73
     0
 74
     0
 75
     0
 76
     0
 77
     1
 78
     8
170
     0
171
     0
172
     1
173
     0
174
     0
175
     0
176
   256
177
   256
178
     2
  0
DIMSTYLE
  2
BYGG-037199$0$STANDARD
 70
     0
  3

  4

  5

  6

  7

 40
1.0
 41
0.18
 42
0.0625
 43
0.38
 44
0.18
 45
0.0
 46
0.0
 47
0.0
 48
0.0
140
0.18
141
0.09
142
0.0
143
25.399999999999999
144
1.0
145
0.0
146
1.0
147
0.09
 71
     0
 72
     0
 73
     1
 74
     1
 75
     0
 76
     0
 77
     0
 78
     0
170
     0
171
     2
172
     0
173
     0
174
     0
175
     0
176
     0
177
     0
178
     0
  0
DIMSTYLE
  2
BYGG-037199$0$MASKIN
 70
     0
  3

  4

  5

  6

  7

 40
0.0
 41
3.0
 42
1.5
 43
10.0
 44
1.5
 45
0.0
 46
0.0
 47
0.0
 48
0.0
140
3.0
141
-5.0
142
0.0
143
25.399999999999999
144
-1.0
145
0.0
146
1.0
147
1.0
 71
     0
 72
     0
 73
     0
 74
     0
 75
     0
 76
     0
 77
     1
 78
     8
170
     0
171
     0
172
     1
173
     0
174
     0
175
     0
176
   256
177
   256
178
     2
  0
DIMSTYLE
  2
BYGG-019610$0$STANDARD
 70
     0
  3

  4

  5

  6

  7

 40
1.0
 41
0.18
 42
0.0625
 43
0.38
 44
0.18
 45
0.0
 46
0.0
 47
0.0
 48
0.0
140
0.18
141
0.09
142
0.0
143
25.399999999999999
144
1.0
145
0.0
146
1.0
147
0.09
 71
     0
 72
     0
 73
     1
 74
     1
 75
     0
 76
     0
 77
     0
 78
     0
170
     0
171
     2
172
     0
173
     0
174
     0
175
     0
176
     0
177
     0
178
     0
  0
DIMSTYLE
  2
BYGG-019610$0$MASKIN
 70
     0
  3

  4

  5

  6

  7

 40
0.0
 41
3.0
 42
1.5
 43
10.0
 44
1.5
 45
0.0
 46
0.0
 47
0.0
 48
0.0
140
3.0
141
-5.0
142
0.0
143
25.399999999999999
144
-1.0
145
0.0
146
1.0
147
1.0
 71
     0
 72
     0
 73
     0
 74
     0
 75
     0
 76
     0
 77
     1
 78
     8
170
     0
171
     0
172
     1
173
     0
174
     0
175
     0
176
   256
177
   256
178
     2
  0
DIMSTYLE
  2
BYGG-037258$0$STANDARD
 70
     0
  3

  4

  5

  6

  7

 40
1.0
 41
0.18
 42
0.0625
 43
0.38
 44
0.18
 45
0.0
 46
0.0
 47
0.0
 48
0.0
140
0.18
141
0.09
142
0.0
143
25.399999999999999
144
1.0
145
0.0
146
1.0
147
0.09
 71
     0
 72
     0
 73
     1
 74
     1
 75
     0
 76
     0
 77
     0
 78
     0
170
     0
171
     2
172
     0
173
     0
174
     0
175
     0
176
     0
177
     0
178
     0
  0
DIMSTYLE
  2
BYGG-037258$0$MASKIN
 70
     0
  3

  4

  5

  6

  7

 40
0.0
 41
3.0
 42
1.5
 43
10.0
 44
1.5
 45
0.0
 46
0.0
 47
0.0
 48
0.0
140
3.0
141
-5.0
142
0.0
143
25.399999999999999
144
-1.0
145
0.0
146
1.0
147
1.0
 71
     0
 72
     0
 73
     0
 74
     0
 75
     0
 76
     0
 77
     1
 78
     8
170
     0
171
     0
172
     1
173
     0
174
     0
175
     0
176
   256
177
   256
178
     2
  0
DIMSTYLE
  2
BYGG-00894401$0$MASKIN
 70
     0
  3

  4

  5

  6

  7

 40
0.0
 41
3.0
 42
1.5
 43
10.0
 44
1.5
 45
0.0
 46
0.0
 47
0.0
 48
0.0
140
3.0
141
-5.0
142
0.0
143
25.399999999999999
144
-1.0
145
0.0
146
1.0
147
1.0
 71
     0
 72
     0
 73
     0
 74
     0
 75
     0
 76
     0
 77
     1
 78
     8
170
     0
171
     0
172
     1
173
     0
174
     0
175
     0
176
   256
177
   256
178
     2
  0
DIMSTYLE
  2
BYGG-00894401$0$STANDARD
 70
     0
  3

  4

  5

  6

  7

 40
1.0
 41
0.18
 42
0.0625
 43
0.38
 44
0.18
 45
0.0
 46
0.0
 47
0.0
 48
0.0
140
0.18
141
0.09
142
0.0
143
25.399999999999999
144
1.0
145
0.0
146
1.0
147
0.09
 71
     0
 72
     0
 73
     1
 74
     1
 75
     0
 76
     0
 77
     0
 78
     0
170
     0
171
     2
172
     0
173
     0
174
     0
175
     0
176
     0
177
     0
178
     0
  0
DIMSTYLE
  2
BYGG-00894401$0$ANNOTATIVE
 70
     0
  3

  4

  5

  6

  7

 40
1.0
 41
0.18
 42
0.0625
 43
0.38
 44
0.18
 45
0.0
 46
0.0
 47
0.0
 48
0.0
140
0.18
141
0.09
142
0.0
143
25.399999999999999
144
1.0
145
0.0
146
1.0
147
0.09
 71
     0
 72
     0
 73
     1
 74
     1
 75
     0
 76
     0
 77
     0
 78
     0
170
     0
171
     2
172
     0
173
     0
174
     0
175
     0
176
     0
177
     0
178
     0
  0
DIMSTYLE
  2
BYGG-008943$0$MASKIN
 70
     0
  3

  4

  5

  6

  7

 40
0.0
 41
3.0
 42
1.5
 43
10.0
 44
1.5
 45
0.0
 46
0.0
 47
0.0
 48
0.0
140
3.0
141
-5.0
142
0.0
143
25.399999999999999
144
-1.0
145
0.0
146
1.0
147
1.0
 71
     0
 72
     0
 73
     0
 74
     0
 75
     0
 76
     0
 77
     1
 78
     8
170
     0
171
     0
172
     1
173
     0
174
     0
175
     0
176
   256
177
   256
178
     2
  0
DIMSTYLE
  2
BYGG-008943$0$STANDARD
 70
     0
  3

  4

  5

  6

  7

 40
1.0
 41
0.18
 42
0.0625
 43
0.38
 44
0.18
 45
0.0
 46
0.0
 47
0.0
 48
0.0
140
0.18
141
0.09
142
0.0
143
25.399999999999999
144
1.0
145
0.0
146
1.0
147
0.09
 71
     0
 72
     0
 73
     1
 74
     1
 75
     0
 76
     0
 77
     0
 78
     0
170
     0
171
     2
172
     0
173
     0
174
     0
175
     0
176
     0
177
     0
178
     0
  0
DIMSTYLE
  2
BYGG-008943$0$ANNOTATIVE
 70
     0
  3

  4

  5

  6

  7

 40
1.0
 41
0.18
 42
0.0625
 43
0.38
 44
0.18
 45
0.0
 46
0.0
 47
0.0
 48
0.0
140
0.18
141
0.09
142
0.0
143
25.399999999999999
144
1.0
145
0.0
146
1.0
147
0.09
 71
     0
 72
     0
 73
     1
 74
     1
 75
     0
 76
     0
 77
     0
 78
     0
170
     0
171
     2
172
     0
173
     0
174
     0
175
     0
176
     0
177
     0
178
     0
  0
DIMSTYLE
  2
BYGG-024791$0$MASKIN
 70
     0
  3

  4

  5

  6

  7

 40
0.0
 41
3.0
 42
1.5
 43
10.0
 44
1.5
 45
0.0
 46
0.0
 47
0.0
 48
0.0
140
3.0
141
-5.0
142
0.0
143
25.399999999999999
144
-1.0
145
0.0
146
1.0
147
1.0
 71
     0
 72
     0
 73
     0
 74
     0
 75
     0
 76
     0
 77
     1
 78
     8
170
     0
171
     0
172
     1
173
     0
174
     0
175
     0
176
   256
177
   256
178
     2
  0
DIMSTYLE
  2
BYGG-024791$0$STANDARD
 70
     0
  3

  4

  5

  6

  7

 40
1.0
 41
0.18
 42
0.0625
 43
0.38
 44
0.18
 45
0.0
 46
0.0
 47
0.0
 48
0.0
140
0.18
141
0.09
142
0.0
143
25.399999999999999
144
1.0
145
0.0
146
1.0
147
0.09
 71
     0
 72
     0
 73
     1
 74
     1
 75
     0
 76
     0
 77
     0
 78
     0
170
     0
171
     2
172
     0
173
     0
174
     0
175
     0
176
     0
177
     0
178
     0
  0
DIMSTYLE
  2
BYGG-024817$0$MASKIN
 70
     0
  3

  4

  5

  6

  7

 40
0.0
 41
3.0
 42
1.5
 43
10.0
 44
1.5
 45
0.0
 46
0.0
 47
0.0
 48
0.0
140
3.0
141
-5.0
142
0.0
143
25.399999999999999
144
-1.0
145
0.0
146
1.0
147
1.0
 71
     0
 72
     0
 73
     0
 74
     0
 75
     0
 76
     0
 77
     1
 78
     8
170
     0
171
     0
172
     1
173
     0
174
     0
175
     0
176
   256
177
   256
178
     2
  0
DIMSTYLE
  2
BYGG-024817$0$STANDARD
 70
     0
  3

  4

  5

  6

  7

 40
1.0
 41
0.18
 42
0.0625
 43
0.38
 44
0.18
 45
0.0
 46
0.0
 47
0.0
 48
0.0
140
0.18
141
0.09
142
0.0
143
25.399999999999999
144
1.0
145
0.0
146
1.0
147
0.09
 71
     0
 72
     0
 73
     1
 74
     1
 75
     0
 76
     0
 77
     0
 78
     0
170
     0
171
     2
172
     0
173
     0
174
     0
175
     0
176
     0
177
     0
178
     0
  0
ENDTAB
  0
ENDSEC
  0
SECTION
  2
BLOCKS
  0
BLOCK
  8
0
  2
$MODEL_SPACE
 70
     0
 10
0.0
 20
0.0
 30
0.0
  3
$MODEL_SPACE
  1

  0
ENDBLK
  5
37
  8
0
  0
BLOCK
 67
     1
  8
0
  2
$PAPER_SPACE
 70
     0
 10
0.0
 20
0.0
 30
0.0
  3
$PAPER_SPACE
  1

  0
ENDBLK
  5
35
 67
     1
  8
0
  0
BLOCK
  8
0
  2
*X109
 70
     1
 10
0.0
 20
0.0
 30
0.0
  3
*X109
  1

  0
LINE
  5
1EDD
  8
0
 62
     0
 10
126.6847435974466
 20
80.009999999999991
 30
0.0
 11
130.26250975107661
 21
80.009999999999991
 31
0.0
  0
LINE
  5
1EDE
  8
0
 62
     0
 10
126.5775816049631
 20
81.121249999999975
 30
0.0
 11
130.369648208874
 21
81.121249999999975
 31
0.0
  0
LINE
  5
1EDF
  8
0
 62
     0
 10
127.61245877901619
 20
82.232499999999973
 30
0.0
 11
129.728067722237
 21
82.232499999999973
 31
0.0
  0
LINE
  5
1EE0
  8
0
 62
     0
 10
127.2061615284034
 20
83.343749999999986
 30
0.0
 11
129.47362667426199
 21
83.343749999999986
 31
0.0
  0
LINE
  5
1EE1
  8
0
 62
     0
 10
124.598947086517
 20
84.454999999999984
 30
0.0
 11
129.3347525442031
 21
84.454999999999984
 31
0.0
  0
LINE
  5
1EE2
  8
0
 62
     0
 10
124.5788869552641
 20
85.566249999999982
 30
0.0
 11
126.9475017639915
 21
85.566249999999982
 31
0.0
  0
LINE
  5
1EE3
  8
0
 62
     0
 10
124.5788869552641
 20
86.677499999999995
 30
0.0
 11
126.37888695526399
 21
86.677499999999995
 31
0.0
  0
LINE
  5
1EE4
  8
0
 62
     0
 10
124.5788869552641
 20
87.788749999999993
 30
0.0
 11
126.37888695526399
 21
87.788749999999993
 31
0.0
  0
LINE
  5
1EE5
  8
0
 62
     0
 10
124.578886955264
 20
88.899999999999977
 30
0.0
 11
126.37888695526399
 21
88.899999999999977
 31
0.0
  0
LINE
  5
1EE6
  8
0
 62
     0
 10
124.578886955264
 20
90.011250000000004
 30
0.0
 11
126.37888695526399
 21
90.011250000000004
 31
0.0
  0
LINE
  5
1EE7
  8
0
 62
     0
 10
124.578886955264
 20
91.122499999999988
 30
0.0
 11
126.37888695526399
 21
91.122499999999988
 31
0.0
  0
LINE
  5
1EE8
  8
0
 62
     0
 10
124.578886955264
 20
92.233749999999986
 30
0.0
 11
126.37888695526399
 21
92.233749999999986
 31
0.0
  0
LINE
  5
1EE9
  8
0
 62
     0
 10
124.578886955264
 20
93.344999999999985
 30
0.0
 11
126.37888695526399
 21
93.344999999999985
 31
0.0
  0
LINE
  5
1EEA
  8
0
 62
     0
 10
124.578886955264
 20
94.456249999999969
 30
0.0
 11
126.37888695526399
 21
94.456249999999969
 31
0.0
  0
LINE
  5
1EEB
  8
0
 62
     0
 10
124.578886955264
 20
95.567499999999995
 30
0.0
 11
126.37888695526399
 21
95.567499999999995
 31
0.0
  0
LINE
  5
1EEC
  8
0
 62
     0
 10
124.578886955264
 20
96.678749999999994
 30
0.0
 11
126.37888695526399
 21
96.678749999999994
 31
0.0
  0
LINE
  5
1EED
  8
0
 62
     0
 10
124.578886955264
 20
97.789999999999992
 30
0.0
 11
126.37888695526399
 21
97.789999999999992
 31
0.0
  0
LINE
  5
1EEE
  8
0
 62
     0
 10
124.578886955264
 20
98.90124999999999
 30
0.0
 11
126.37888695526399
 21
98.90124999999999
 31
0.0
  0
LINE
  5
1EEF
  8
0
 62
     0
 10
124.578886955264
 20
100.0125
 30
0.0
 11
126.37888695526399
 21
100.0125
 31
0.0
  0
LINE
  5
1EF0
  8
0
 62
     0
 10
124.578886955264
 20
101.12375
 30
0.0
 11
126.37888695526399
 21
101.12375
 31
0.0
  0
LINE
  5
1EF1
  8
0
 62
     0
 10
124.578886955264
 20
102.235
 30
0.0
 11
126.37888695526399
 21
102.235
 31
0.0
  0
LINE
  5
1EF2
  8
0
 62
     0
 10
124.578886955264
 20
103.34625
 30
0.0
 11
126.37888695526389
 21
103.34625
 31
0.0
  0
LINE
  5
1EF3
  8
0
 62
     0
 10
124.578886955264
 20
104.4575
 30
0.0
 11
127.01275577113191
 21
104.4575
 31
0.0
  0
LINE
  5
1EF4
  8
0
 62
     0
 10
124.60760719992621
 20
105.56874999999999
 30
0.0
 11
129.3483396631477
 21
105.56874999999999
 31
0.0
  0
LINE
  5
1EF5
  8
0
 62
     0
 10
127.2714155355437
 20
106.67999999999989
 30
0.0
 11
129.47362667426191
 21
106.67999999999989
 31
0.0
  0
LINE
  5
1EF6
  8
0
 62
     0
 10
127.5957563521259
 20
107.79125000000001
 30
0.0
 11
129.7417800891964
 21
107.79125000000001
 31
0.0
  0
LINE
  5
1EF7
  8
0
 62
     0
 10
126.5649533045582
 20
108.9025
 30
0.0
 11
130.38336057583339
 21
108.9025
 31
0.0
  0
ENDBLK
  5
1EF9
  8
0
  0
BLOCK
  8
0
  2
*X110
 70
     1
 10
0.0
 20
0.0
 30
0.0
  3
*X110
  1

  0
LINE
  5
1EFB
  8
0
 62
     0
 10
126.6847435974466
 20
80.009999999999991
 30
0.0
 11
130.26250975107661
 21
80.009999999999991
 31
0.0
  0
LINE
  5
1EFC
  8
0
 62
     0
 10
126.5775816049631
 20
81.121249999999975
 30
0.0
 11
130.369648208874
 21
81.121249999999975
 31
0.0
  0
LINE
  5
1EFD
  8
0
 62
     0
 10
127.61245877901619
 20
82.232499999999973
 30
0.0
 11
129.728067722237
 21
82.232499999999973
 31
0.0
  0
LINE
  5
1EFE
  8
0
 62
     0
 10
127.2061615284034
 20
83.343749999999986
 30
0.0
 11
129.47362667426199
 21
83.343749999999986
 31
0.0
  0
LINE
  5
1EFF
  8
0
 62
     0
 10
124.598947086517
 20
84.454999999999984
 30
0.0
 11
129.3347525442031
 21
84.454999999999984
 31
0.0
  0
LINE
  5
1F00
  8
0
 62
     0
 10
124.5788869552641
 20
85.566249999999982
 30
0.0
 11
126.9475017639915
 21
85.566249999999982
 31
0.0
  0
LINE
  5
1F01
  8
0
 62
     0
 10
124.5788869552641
 20
86.677499999999995
 30
0.0
 11
126.37888695526399
 21
86.677499999999995
 31
0.0
  0
LINE
  5
1F02
  8
0
 62
     0
 10
124.5788869552641
 20
87.788749999999993
 30
0.0
 11
126.37888695526399
 21
87.788749999999993
 31
0.0
  0
LINE
  5
1F03
  8
0
 62
     0
 10
124.578886955264
 20
88.899999999999977
 30
0.0
 11
126.37888695526399
 21
88.899999999999977
 31
0.0
  0
LINE
  5
1F04
  8
0
 62
     0
 10
124.578886955264
 20
90.011250000000004
 30
0.0
 11
126.37888695526399
 21
90.011250000000004
 31
0.0
  0
LINE
  5
1F05
  8
0
 62
     0
 10
124.578886955264
 20
91.122499999999988
 30
0.0
 11
126.37888695526399
 21
91.122499999999988
 31
0.0
  0
LINE
  5
1F06
  8
0
 62
     0
 10
124.578886955264
 20
92.233749999999986
 30
0.0
 11
126.37888695526399
 21
92.233749999999986
 31
0.0
  0
LINE
  5
1F07
  8
0
 62
     0
 10
124.578886955264
 20
93.344999999999985
 30
0.0
 11
126.37888695526399
 21
93.344999999999985
 31
0.0
  0
LINE
  5
1F08
  8
0
 62
     0
 10
124.578886955264
 20
94.456249999999969
 30
0.0
 11
126.37888695526399
 21
94.456249999999969
 31
0.0
  0
LINE
  5
1F09
  8
0
 62
     0
 10
124.578886955264
 20
95.567499999999995
 30
0.0
 11
126.37888695526399
 21
95.567499999999995
 31
0.0
  0
LINE
  5
1F0A
  8
0
 62
     0
 10
124.578886955264
 20
96.678749999999994
 30
0.0
 11
126.37888695526399
 21
96.678749999999994
 31
0.0
  0
LINE
  5
1F0B
  8
0
 62
     0
 10
124.578886955264
 20
97.789999999999992
 30
0.0
 11
126.37888695526399
 21
97.789999999999992
 31
0.0
  0
LINE
  5
1F0C
  8
0
 62
     0
 10
124.578886955264
 20
98.90124999999999
 30
0.0
 11
126.37888695526399
 21
98.90124999999999
 31
0.0
  0
LINE
  5
1F0D
  8
0
 62
     0
 10
124.578886955264
 20
100.0125
 30
0.0
 11
126.37888695526399
 21
100.0125
 31
0.0
  0
LINE
  5
1F0E
  8
0
 62
     0
 10
124.578886955264
 20
101.12375
 30
0.0
 11
126.37888695526399
 21
101.12375
 31
0.0
  0
LINE
  5
1F0F
  8
0
 62
     0
 10
124.578886955264
 20
102.235
 30
0.0
 11
126.37888695526399
 21
102.235
 31
0.0
  0
LINE
  5
1F10
  8
0
 62
     0
 10
124.578886955264
 20
103.34625
 30
0.0
 11
126.37888695526389
 21
103.34625
 31
0.0
  0
LINE
  5
1F11
  8
0
 62
     0
 10
124.578886955264
 20
104.4575
 30
0.0
 11
127.01275577113191
 21
104.4575
 31
0.0
  0
LINE
  5
1F12
  8
0
 62
     0
 10
124.60760719992621
 20
105.56874999999999
 30
0.0
 11
129.3483396631477
 21
105.56874999999999
 31
0.0
  0
LINE
  5
1F13
  8
0
 62
     0
 10
127.2714155355437
 20
106.67999999999989
 30
0.0
 11
129.47362667426191
 21
106.67999999999989
 31
0.0
  0
LINE
  5
1F14
  8
0
 62
     0
 10
127.5957563521259
 20
107.79125000000001
 30
0.0
 11
129.7417800891964
 21
107.79125000000001
 31
0.0
  0
LINE
  5
1F15
  8
0
 62
     0
 10
126.5649533045582
 20
108.9025
 30
0.0
 11
130.38336057583339
 21
108.9025
 31
0.0
  0
ENDBLK
  5
1F17
  8
0
  0
ENDSEC
  0
SECTION
  2
ENTITIES
  0
POLYLINE
  5
12B1
  8
SAPA_PROFIL
 66
     1
 10
0.0
 20
0.0
 30
0.0
  0
VERTEX
  5
1959
  8
SAPA_PROFIL
 10
88.452787023056771
 20
115.9999999187739
 30
0.0
 42
0.2134217652834216
  0
VERTEX
  5
195A
  8
SAPA_PROFIL
 10
88.676393820806865
 20
116.099999918774
 30
0.0
 42
-0.7625858545242717
  0
VERTEX
  5
195B
  8
SAPA_PROFIL
 10
89.006719901823899
 20
115.91542071657661
 30
0.0
  0
VERTEX
  5
195C
  8
SAPA_PROFIL
 10
88.948646264834807
 20
115.7240377165829
 30
0.0
  0
VERTEX
  5
195D
  8
SAPA_PROFIL
 10
87.864081817863067
 20
113.8381940247218
 30
0.0
  0
VERTEX
  5
195E
  8
SAPA_PROFIL
 10
87.542324089644808
 20
113.8487553909488
 30
0.0
 42
0.5773502691897205
  0
VERTEX
  5
195F
  8
SAPA_PROFIL
 10
87.359370349534629
 20
113.5545990906939
 30
0.0
  0
VERTEX
  5
1960
  8
SAPA_PROFIL
 10
87.511504260643363
 20
113.26991680746229
 30
0.0
 42
0.2216946626430408
  0
VERTEX
  5
1961
  8
SAPA_PROFIL
 10
88.052384092120192
 20
112.8641079023075
 30
0.0
  0
VERTEX
  5
1962
  8
SAPA_PROFIL
 10
89.865614562778433
 20
112.48266130617981
 30
0.0
 42
0.476975532698107
  0
VERTEX
  5
1963
  8
SAPA_PROFIL
 10
90.237271437724317
 20
112.7849141306862
 30
0.0
  0
VERTEX
  5
1964
  8
SAPA_PROFIL
 10
90.237187829840664
 20
114.2880152114483
 30
0.0
  0
VERTEX
  5
1965
  8
SAPA_PROFIL
 10
90.189342079842191
 20
114.3025336206954
 30
0.0
 42
-0.4142135623731266
  0
VERTEX
  5
1966
  8
SAPA_PROFIL
 10
89.989378035334767
 20
114.6767185761712
 30
0.0
  0
VERTEX
  5
1967
  8
SAPA_PROFIL
 10
90.500000287237285
 20
115.9978346771108
 30
0.0
  0
VERTEX
  5
1968
  8
SAPA_PROFIL
 10
90.500000287237285
 20
122.07940791877451
 30
0.0
  0
VERTEX
  5
1969
  8
SAPA_PROFIL
 10
90.199436287237276
 20
122.5999999187746
 30
0.0
  0
VERTEX
  5
196A
  8
SAPA_PROFIL
 10
90.500000287237285
 20
123.1205929187747
 30
0.0
  0
VERTEX
  5
196B
  8
SAPA_PROFIL
 10
90.500000287237285
 20
127.299999918775
 30
0.0
 42
-0.4142140000000108
  0
VERTEX
  5
196C
  8
SAPA_PROFIL
 10
90.800000287237367
 20
127.5999999187751
 30
0.0
  0
VERTEX
  5
196D
  8
SAPA_PROFIL
 10
92.300000287237495
 20
127.5999999187749
 30
0.0
 42
0.4142139999998548
  0
VERTEX
  5
196E
  8
SAPA_PROFIL
 10
92.500000287237526
 20
127.799999918775
 30
0.0
  0
VERTEX
  5
196F
  8
SAPA_PROFIL
 10
92.500000287237526
 20
128.299999918775
 30
0.0
 42
0.4142140000000309
  0
VERTEX
  5
1970
  8
SAPA_PROFIL
 10
91.500000287237413
 20
129.2999999187752
 30
0.0
  0
VERTEX
  5
1971
  8
SAPA_PROFIL
 10
85.00000028723764
 20
129.2999999187752
 30
0.0
 42
-0.4142135623731031
  0
VERTEX
  5
1972
  8
SAPA_PROFIL
 10
83.000000287237526
 20
131.2999999187752
 30
0.0
  0
VERTEX
  5
1973
  8
SAPA_PROFIL
 10
83.000000287237526
 20
136.9999999187757
 30
0.0
 42
0.4142140000000262
  0
VERTEX
  5
1974
  8
SAPA_PROFIL
 10
82.000000287237398
 20
137.99999991877601
 30
0.0
  0
VERTEX
  5
1975
  8
SAPA_PROFIL
 10
80.300000287237594
 20
137.9999999187757
 30
0.0
 42
0.4142139999999169
  0
VERTEX
  5
1976
  8
SAPA_PROFIL
 10
80.000000287237526
 20
137.6999999187758
 30
0.0
  0
VERTEX
  5
1977
  8
SAPA_PROFIL
 10
80.000000287237526
 20
137.2438672125825
 30
0.0
 42
0.2308681911255748
  0
VERTEX
  5
1978
  8
SAPA_PROFIL
 10
80.192169549574714
 20
136.84986183577911
 30
0.0
  0
VERTEX
  5
1979
  8
SAPA_PROFIL
 10
80.807831024900338
 20
136.36580189137041
 30
0.0
 42
-0.2308681911255704
  0
VERTEX
  5
197A
  8
SAPA_PROFIL
 10
81.000000287237526
 20
135.9717965145671
 30
0.0
  0
VERTEX
  5
197B
  8
SAPA_PROFIL
 10
81.000000287237526
 20
133.9999999187755
 30
0.0
 42
-0.4142140000000419
  0
VERTEX
  5
197C
  8
SAPA_PROFIL
 10
80.500000287237526
 20
133.4999999187755
 30
0.0
  0
VERTEX
  5
197D
  8
SAPA_PROFIL
 10
76.500000287237526
 20
133.4999999187755
 30
0.0
 42
0.9999999999999998
  0
VERTEX
  5
197E
  8
SAPA_PROFIL
 10
76.500000287237526
 20
132.09999991877541
 30
0.0
  0
VERTEX
  5
197F
  8
SAPA_PROFIL
 10
79.500000287237185
 20
132.09999991877541
 30
0.0
 42
-0.4142135623731304
  0
VERTEX
  5
1980
  8
SAPA_PROFIL
 10
80.000000287237299
 20
131.59999991877541
 30
0.0
  0
VERTEX
  5
1981
  8
SAPA_PROFIL
 10
80.000000287237299
 20
131.2999999187752
 30
0.0
 42
0.4142135623730951
  0
VERTEX
  5
1982
  8
SAPA_PROFIL
 10
85.00000028723764
 20
126.2999999187749
 30
0.0
  0
VERTEX
  5
1983
  8
SAPA_PROFIL
 10
87.000000287237299
 20
126.2999999187749
 30
0.0
 42
-0.414214000000047
  0
VERTEX
  5
1984
  8
SAPA_PROFIL
 10
87.500000287237299
 20
125.7999999187749
 30
0.0
  0
VERTEX
  5
1985
  8
SAPA_PROFIL
 10
87.500000287237299
 20
119.76522491877429
 30
0.0
 42
-0.363970000000007
  0
VERTEX
  5
1986
  8
SAPA_PROFIL
 10
86.673648287237256
 20
118.7804179187743
 30
0.0
  0
VERTEX
  5
1987
  8
SAPA_PROFIL
 10
80.826352287236773
 20
117.7493819187743
 30
0.0
 42
0.3639700000000089
  0
VERTEX
  5
1988
  8
SAPA_PROFIL
 10
80.000000287236745
 20
116.7645739187742
 30
0.0
  0
VERTEX
  5
1989
  8
SAPA_PROFIL
 10
80.000000287236745
 20
112.90367291877379
 30
0.0
 42
0.4142140000000481
  0
VERTEX
  5
198A
  8
SAPA_PROFIL
 10
80.50000028723673
 20
112.40367291877379
 30
0.0
  0
VERTEX
  5
198B
  8
SAPA_PROFIL
 10
80.700000287236776
 20
112.40367291877379
 30
0.0
 42
0.4142139999999776
  0
VERTEX
  5
198C
  8
SAPA_PROFIL
 10
81.200000287236776
 20
112.90367291877379
 30
0.0
  0
VERTEX
  5
198D
  8
SAPA_PROFIL
 10
81.200000287236776
 20
112.9999999187738
 30
0.0
 42
-0.4142140000000459
  0
VERTEX
  5
198E
  8
SAPA_PROFIL
 10
81.700000287236904
 20
113.4999999187739
 30
0.0
  0
VERTEX
  5
198F
  8
SAPA_PROFIL
 10
85.051575287237142
 20
113.4999999187739
 30
0.0
 42
0.5773499999998256
  0
VERTEX
  5
1990
  8
SAPA_PROFIL
 10
85.224780287237195
 20
113.79999991877391
 30
0.0
  0
VERTEX
  5
1991
  8
SAPA_PROFIL
 10
84.301019287237054
 20
115.399999918774
 30
0.0
  0
VERTEX
  5
1992
  8
SAPA_PROFIL
 10
84.301019287237054
 20
115.6999999187741
 30
0.0
 42
-0.4142139999999518
  0
VERTEX
  5
1993
  8
SAPA_PROFIL
 10
84.601019287237136
 20
115.99999991877399
 30
0.0
  0
VERTEX
  5
1994
  8
SAPA_PROFIL
 10
88.452787287237115
 20
115.99999991877399
 30
0.0
  0
SEQEND
  5
1995
  8
SAPA_PROFIL
  0
POLYLINE
  5
12B2
  8
SAPA_PROFIL
 66
     1
 10
0.0
 20
0.0
 30
0.0
 70
     1
  0
VERTEX
  5
1996
  8
SAPA_PROFIL
 10
97.900050793577435
 20
53.708868708632252
 30
0.0
  0
VERTEX
  5
1997
  8
SAPA_PROFIL
 10
97.900050793577435
 20
55.699999922587409
 30
0.0
 42
-0.4142135623730795
  0
VERTEX
  5
1998
  8
SAPA_PROFIL
 10
98.900050793577435
 20
56.699999922587409
 30
0.0
  0
VERTEX
  5
1999
  8
SAPA_PROFIL
 10
99.167595261539674
 20
56.699999922587409
 30
0.0
 42
-0.2896898633034337
  0
VERTEX
  5
199A
  8
SAPA_PROFIL
 10
100.0711031644458
 20
56.12857135115658
 30
0.0
 42
-0.5507604245854725
  0
VERTEX
  5
199B
  8
SAPA_PROFIL
 10
99.800050793577412
 20
55.699999922587409
 30
0.0
  0
VERTEX
  5
199C
  8
SAPA_PROFIL
 10
99.500050793577515
 20
55.699999922587473
 30
0.0
 42
0.4142135623730951
  0
VERTEX
  5
199D
  8
SAPA_PROFIL
 10
99.300050793577412
 20
55.499999922587421
 30
0.0
  0
VERTEX
  5
199E
  8
SAPA_PROFIL
 10
99.300050793577412
 20
54.399999919770522
 30
0.0
 42
0.4142135623730863
  0
VERTEX
  5
199F
  8
SAPA_PROFIL
 10
100.3000507935774
 20
53.399999919770458
 30
0.0
  0
VERTEX
  5
19A0
  8
SAPA_PROFIL
 10
102.6000002872386
 20
53.399999919770522
 30
0.0
 42
0.4142135623730847
  0
VERTEX
  5
19A1
  8
SAPA_PROFIL
 10
103.6000002872386
 20
54.399999919770522
 30
0.0
  0
VERTEX
  5
19A2
  8
SAPA_PROFIL
 10
103.6000002872386
 20
55.499999922587421
 30
0.0
 42
0.4142135623730925
  0
VERTEX
  5
19A3
  8
SAPA_PROFIL
 10
103.4000002872387
 20
55.699999922587409
 30
0.0
  0
VERTEX
  5
19A4
  8
SAPA_PROFIL
 10
103.10005079357749
 20
55.699999922589107
 30
0.0
 42
-0.5507604245854657
  0
VERTEX
  5
19A5
  8
SAPA_PROFIL
 10
102.82899842270891
 20
56.128571351156637
 30
0.0
 42
-0.2896898633034307
  0
VERTEX
  5
19A6
  8
SAPA_PROFIL
 10
103.7325063256152
 20
56.699999922587409
 30
0.0
  0
VERTEX
  5
19A7
  8
SAPA_PROFIL
 10
104.00000028723871
 20
56.699999922587459
 30
0.0
 42
-0.4142135623730951
  0
VERTEX
  5
19A8
  8
SAPA_PROFIL
 10
105.00000028723871
 20
55.699999922587409
 30
0.0
  0
VERTEX
  5
19A9
  8
SAPA_PROFIL
 10
105.00000028723871
 20
53.999999919770488
 30
0.0
 42
-0.4142135623730871
  0
VERTEX
  5
19AA
  8
SAPA_PROFIL
 10
103.00000028723861
 20
51.999999919770431
 30
0.0
  0
VERTEX
  5
19AB
  8
SAPA_PROFIL
 10
80.300000287264055
 20
51.99999991778153
 30
0.0
 42
-0.4142135623987623
  0
VERTEX
  5
19AC
  8
SAPA_PROFIL
 10
80.000000287237725
 20
52.299999917781541
 30
0.0
  0
VERTEX
  5
19AD
  8
SAPA_PROFIL
 10
80.000000287237725
 20
52.792893136568722
 30
0.0
 42
-0.198912367379658
  0
VERTEX
  5
19AE
  8
SAPA_PROFIL
 10
80.146446896644463
 20
53.146446527161999
 30
0.0
  0
VERTEX
  5
19AF
  8
SAPA_PROFIL
 10
80.853553677831059
 20
53.853553308348609
 30
0.0
 42
0.1989123673796528
  0
VERTEX
  5
19B0
  8
SAPA_PROFIL
 10
81.000000287237782
 20
54.207106698941878
 30
0.0
  0
VERTEX
  5
19B1
  8
SAPA_PROFIL
 10
81.000000287237782
 20
55.499999917755332
 30
0.0
 42
0.4142135623730659
  0
VERTEX
  5
19B2
  8
SAPA_PROFIL
 10
80.500000287237768
 20
55.999999917755332
 30
0.0
  0
VERTEX
  5
19B3
  8
SAPA_PROFIL
 10
78.115938243881288
 20
55.999999917755559
 30
0.0
 42
0.1989123673796822
  0
VERTEX
  5
19B4
  8
SAPA_PROFIL
 10
77.762384853287955
 20
55.853553308348829
 30
0.0
  0
VERTEX
  5
19B5
  8
SAPA_PROFIL
 10
76.994975034068176
 20
55.086143489129107
 30
0.0
 42
-0.9999999999999998
  0
VERTEX
  5
19B6
  8
SAPA_PROFIL
 10
76.00502554040699
 20
56.076092982790293
 30
0.0
  0
VERTEX
  5
19B7
  8
SAPA_PROFIL
 10
77.78248586596564
 20
57.85355330834895
 30
0.0
 42
-0.1989123673796822
  0
VERTEX
  5
19B8
  8
SAPA_PROFIL
 10
78.136039256558973
 20
57.99999991775568
 30
0.0
  0
VERTEX
  5
19B9
  8
SAPA_PROFIL
 10
82.500000287237839
 20
57.999999917755211
 30
0.0
 42
-0.4142135623730639
  0
VERTEX
  5
19BA
  8
SAPA_PROFIL
 10
83.000000287237839
 20
57.499999917755218
 30
0.0
  0
VERTEX
  5
19BB
  8
SAPA_PROFIL
 10
83.000000287237839
 20
55.499999917755041
 30
0.0
 42
0.414213562373064
  0
VERTEX
  5
19BC
  8
SAPA_PROFIL
 10
83.500000287237825
 20
54.999999917755048
 30
0.0
  0
VERTEX
  5
19BD
  8
SAPA_PROFIL
 10
87.000000287237953
 20
54.999999917754707
 30
0.0
 42
0.4142135623731263
  0
VERTEX
  5
19BE
  8
SAPA_PROFIL
 10
87.500000287238024
 20
55.499999917754707
 30
0.0
  0
VERTEX
  5
19BF
  8
SAPA_PROFIL
 10
87.500000287238024
 20
70.218447931265217
 30
0.0
 42
0.3639702342662015
  0
VERTEX
  5
19C0
  8
SAPA_PROFIL
 10
86.673648464904915
 20
71.203255684277423
 30
0.0
  0
VERTEX
  5
19C1
  8
SAPA_PROFIL
 10
80.826352109570877
 20
72.234291795921109
 30
0.0
 42
-0.3639702342662066
  0
VERTEX
  5
19C2
  8
SAPA_PROFIL
 10
80.000000287237725
 20
73.219099548933372
 30
0.0
  0
VERTEX
  5
19C3
  8
SAPA_PROFIL
 10
80.000000287237725
 20
77.079999917756226
 30
0.0
 42
-0.4142135623730951
  0
VERTEX
  5
19C4
  8
SAPA_PROFIL
 10
80.500000287237768
 20
77.579999917756226
 30
0.0
  0
VERTEX
  5
19C5
  8
SAPA_PROFIL
 10
80.700000287237771
 20
77.579999917756226
 30
0.0
 42
-0.4142135623730951
  0
VERTEX
  5
19C6
  8
SAPA_PROFIL
 10
81.200000287237785
 20
77.079999917756226
 30
0.0
  0
VERTEX
  5
19C7
  8
SAPA_PROFIL
 10
81.200000287237785
 20
76.999999917756071
 30
0.0
 42
0.4142135623730619
  0
VERTEX
  5
19C8
  8
SAPA_PROFIL
 10
81.700000287237771
 20
76.499999917756071
 30
0.0
  0
VERTEX
  5
19C9
  8
SAPA_PROFIL
 10
85.000000287237839
 20
76.499999917755716
 30
0.0
 42
-0.5693809839207964
  0
VERTEX
  5
19CA
  8
SAPA_PROFIL
 10
85.175554332801397
 20
76.204183546053088
 30
0.0
  0
VERTEX
  5
19CB
  8
SAPA_PROFIL
 10
84.200000287237657
 20
74.599999917756037
 30
0.0
  0
VERTEX
  5
19CC
  8
SAPA_PROFIL
 10
84.20000028723743
 20
74.299999917756296
 30
0.0
 42
0.414213562372873
  0
VERTEX
  5
19CD
  8
SAPA_PROFIL
 10
84.500000287237555
 20
73.999999917756114
 30
0.0
  0
VERTEX
  5
19CE
  8
SAPA_PROFIL
 10
88.500000286400251
 20
73.999999917756114
 30
0.0
 42
-0.2134217652834381
  0
VERTEX
  5
19CF
  8
SAPA_PROFIL
 10
88.723607084150345
 20
73.899999917756006
 30
0.0
 42
0.7625858545243276
  0
VERTEX
  5
19D0
  8
SAPA_PROFIL
 10
89.053933165167379
 20
74.084579119953474
 30
0.0
  0
VERTEX
  5
19D1
  8
SAPA_PROFIL
 10
88.995859528178286
 20
74.275962119947209
 30
0.0
  0
VERTEX
  5
19D2
  8
SAPA_PROFIL
 10
87.911295081206546
 20
76.161805811808264
 30
0.0
  0
VERTEX
  5
19D3
  8
SAPA_PROFIL
 10
87.589537352988287
 20
76.151244445581256
 30
0.0
 42
-0.577350269189744
  0
VERTEX
  5
19D4
  8
SAPA_PROFIL
 10
87.406583612878109
 20
76.445400745836125
 30
0.0
  0
VERTEX
  5
19D5
  8
SAPA_PROFIL
 10
87.558717523986886
 20
76.730083029067757
 30
0.0
 42
-0.2216946626430207
  0
VERTEX
  5
19D6
  8
SAPA_PROFIL
 10
88.099597355463672
 20
77.135891934222556
 30
0.0
  0
VERTEX
  5
19D7
  8
SAPA_PROFIL
 10
89.912827826121912
 20
77.517338530350273
 30
0.0
 42
-0.4769755326981632
  0
VERTEX
  5
19D8
  8
SAPA_PROFIL
 10
90.284484701067797
 20
77.215085705843805
 30
0.0
  0
VERTEX
  5
19D9
  8
SAPA_PROFIL
 10
90.284401093184144
 20
75.711984625081797
 30
0.0
  0
VERTEX
  5
19DA
  8
SAPA_PROFIL
 10
90.236555343185657
 20
75.697466215834694
 30
0.0
 42
0.4142135623730951
  0
VERTEX
  5
19DB
  8
SAPA_PROFIL
 10
90.036591298678246
 20
75.323281260358883
 30
0.0
  0
VERTEX
  5
19DC
  8
SAPA_PROFIL
 10
90.500000287237839
 20
74.124318477547874
 30
0.0
  0
VERTEX
  5
19DD
  8
SAPA_PROFIL
 10
90.500000287237953
 20
66.669615160920131
 30
0.0
  0
VERTEX
  5
19DE
  8
SAPA_PROFIL
 10
90.200000287237941
 20
66.149999918649513
 30
0.0
  0
VERTEX
  5
19DF
  8
SAPA_PROFIL
 10
90.500000287237995
 20
65.630384676378839
 30
0.0
  0
VERTEX
  5
19E0
  8
SAPA_PROFIL
 10
90.50000028723818
 20
54.281384887339563
 30
0.0
 42
0.3955859011959327
  0
VERTEX
  5
19E1
  8
SAPA_PROFIL
 10
90.78080890749689
 20
53.98199936507163
 30
0.0
  0
VERTEX
  5
19E2
  8
SAPA_PROFIL
 10
97.687256540416485
 20
53.509278360453642
 30
0.0
 42
0.433089857303855
  0
SEQEND
  5
19E3
  8
SAPA_PROFIL
  0
POLYLINE
  5
12B3
  8
SAPA_PROFIL
 62
     4
 66
     1
 10
0.0
 20
0.0
 30
0.0
  0
VERTEX
  5
19E4
  8
SAPA_PROFIL
 62
     4
 10
87.767719201390918
 20
104.0493290411285
 30
0.0
 42
0.5571646428658034
  0
VERTEX
  5
19E5
  8
SAPA_PROFIL
 62
     4
 10
86.900000287235358
 20
103.5123685369916
 30
0.0
  0
VERTEX
  5
19E6
  8
SAPA_PROFIL
 62
     4
 10
86.900000287235827
 20
86.487631300470454
 30
0.0
 42
0.5571645048035741
  0
VERTEX
  5
19E7
  8
SAPA_PROFIL
 62
     4
 10
87.767718975101985
 20
85.950670683509415
 30
0.0
  0
VERTEX
  5
19E8
  8
SAPA_PROFIL
 62
     4
 10
89.433859631170023
 20
86.781377771056086
 30
0.0
 42
0.284385813979063
  0
VERTEX
  5
19E9
  8
SAPA_PROFIL
 62
     4
 10
89.600000287237464
 20
87.049858079536449
 30
0.0
  0
VERTEX
  5
19EA
  8
SAPA_PROFIL
 62
     4
 10
89.600000287237464
 20
102.95014175792571
 30
0.0
 42
0.2843858139786238
  0
VERTEX
  5
19EB
  8
SAPA_PROFIL
 62
     4
 10
89.433859631170534
 20
103.218622066406
 30
0.0
  0
VERTEX
  5
19EC
  8
SAPA_PROFIL
 62
     4
 10
87.767718975101189
 20
104.0493291539532
 30
0.0
  0
SEQEND
  5
19ED
  8
SAPA_PROFIL
 62
     4
  0
POLYLINE
  5
12B4
  8
SAPA_PROFIL
 62
     4
 66
     1
 10
0.0
 20
0.0
 30
0.0
 70
     1
  0
VERTEX
  5
19EE
  8
SAPA_PROFIL
 62
     4
 10
89.956831801735035
 20
80.582388734063812
 30
0.0
  0
VERTEX
  5
19EF
  8
SAPA_PROFIL
 62
     4
 10
90.363391997739186
 20
80.318365455687797
 30
0.0
 42
-0.2539676464751066
  0
VERTEX
  5
19F0
  8
SAPA_PROFIL
 62
     4
 10
90.500000287235295
 20
80.066764285303094
 30
0.0
  0
VERTEX
  5
19F1
  8
SAPA_PROFIL
 62
     4
 10
90.500000287235295
 20
78.685264700097747
 30
0.0
 42
-0.3152987888790479
  0
VERTEX
  5
19F2
  8
SAPA_PROFIL
 62
     4
 10
90.171010358897121
 20
78.215418389705434
 30
0.0
  0
VERTEX
  5
19F3
  8
SAPA_PROFIL
 62
     4
 10
87.710180168445845
 20
77.319749448796827
 30
0.0
 42
0.2694959974287434
  0
VERTEX
  5
19F4
  8
SAPA_PROFIL
 62
     4
 10
87.517048194101946
 20
77.088230402395467
 30
0.0
 42
0.0612686379508233
  0
VERTEX
  5
19F5
  8
SAPA_PROFIL
 62
     4
 10
87.503464823471433
 20
76.795554969542195
 30
0.0
  0
VERTEX
  5
19F6
  8
SAPA_PROFIL
 62
     4
 10
87.301728144742611
 20
76.446136792233929
 30
0.0
 42
0.5773502691891679
  0
VERTEX
  5
19F7
  8
SAPA_PROFIL
 62
     4
 10
87.483593479537177
 20
76.131136792234344
 30
0.0
  0
VERTEX
  5
19F8
  8
SAPA_PROFIL
 62
     4
 10
87.750708007663476
 20
76.131136792234102
 30
0.0
  0
VERTEX
  5
19F9
  8
SAPA_PROFIL
 62
     4
 10
88.55939146897181
 20
74.732609091599855
 30
0.0
 42
-0.1318219888653519
  0
VERTEX
  5
19FA
  8
SAPA_PROFIL
 62
     4
 10
88.599683865509206
 20
74.582435989127504
 30
0.0
  0
VERTEX
  5
19FB
  8
SAPA_PROFIL
 62
     4
 10
88.599683865502826
 20
74.399999918690725
 30
0.0
 42
-0.4142135623724291
  0
VERTEX
  5
19FC
  8
SAPA_PROFIL
 62
     4
 10
88.199683865503204
 20
73.999999918690179
 30
0.0
  0
VERTEX
  5
19FD
  8
SAPA_PROFIL
 62
     4
 10
84.799683865502203
 20
73.999999918691543
 30
0.0
 42
-0.4142135623744271
  0
VERTEX
  5
19FE
  8
SAPA_PROFIL
 62
     4
 10
84.399683865501203
 20
74.399999918690725
 30
0.0
  0
VERTEX
  5
19FF
  8
SAPA_PROFIL
 62
     4
 10
84.399683865500563
 20
74.579615160962021
 30
0.0
 42
-0.1316524975874005
  0
VERTEX
  5
1A00
  8
SAPA_PROFIL
 62
     4
 10
84.439876244366161
 20
74.729615160958843
 30
0.0
  0
VERTEX
  5
1A01
  8
SAPA_PROFIL
 62
     4
 10
85.366025691018692
 20
76.333753057961104
 30
0.0
 42
0.1316524975875904
  0
VERTEX
  5
1A02
  8
SAPA_PROFIL
 62
     4
 10
85.500000287233462
 20
76.833753057962809
 30
0.0
  0
VERTEX
  5
1A03
  8
SAPA_PROFIL
 62
     4
 10
85.500000287233462
 20
77.249999918690179
 30
0.0
 42
0.4142135623730951
  0
VERTEX
  5
1A04
  8
SAPA_PROFIL
 62
     4
 10
84.500000287233462
 20
78.249999918690179
 30
0.0
  0
VERTEX
  5
1A05
  8
SAPA_PROFIL
 62
     4
 10
81.50000028723619
 20
78.249999918690179
 30
0.0
 42
-0.9999996830128083
  0
VERTEX
  5
1A06
  8
SAPA_PROFIL
 62
     4
 10
81.500000287234386
 20
79.249999918690179
 30
0.0
  0
VERTEX
  5
1A07
  8
SAPA_PROFIL
 62
     4
 10
84.500000287234371
 20
79.249999918690179
 30
0.0
 42
0.4142135623730951
  0
VERTEX
  5
1A08
  8
SAPA_PROFIL
 62
     4
 10
85.500000287234357
 20
80.249999918690179
 30
0.0
  0
VERTEX
  5
1A09
  8
SAPA_PROFIL
 62
     4
 10
85.500000287234357
 20
109.74999991877471
 30
0.0
 42
0.4142135623730951
  0
VERTEX
  5
1A0A
  8
SAPA_PROFIL
 62
     4
 10
84.500000287234371
 20
110.74999991877471
 30
0.0
  0
VERTEX
  5
1A0B
  8
SAPA_PROFIL
 62
     4
 10
81.50000028723619
 20
110.74999991877471
 30
0.0
 42
-0.9999999999999998
  0
VERTEX
  5
1A0C
  8
SAPA_PROFIL
 62
     4
 10
81.50000028723619
 20
111.74999991877471
 30
0.0
  0
VERTEX
  5
1A0D
  8
SAPA_PROFIL
 62
     4
 10
84.500000287234371
 20
111.74999991877471
 30
0.0
 42
0.4142135623736278
  0
VERTEX
  5
1A0E
  8
SAPA_PROFIL
 62
     4
 10
85.500000287234357
 20
112.74999991877471
 30
0.0
  0
VERTEX
  5
1A0F
  8
SAPA_PROFIL
 62
     4
 10
85.500000287234357
 20
113.16624677950119
 30
0.0
 42
0.1316524975874375
  0
VERTEX
  5
1A10
  8
SAPA_PROFIL
 62
     4
 10
85.366025691018336
 20
113.66624677950141
 30
0.0
  0
VERTEX
  5
1A11
  8
SAPA_PROFIL
 62
     4
 10
84.439876244366161
 20
115.2703846765033
 30
0.0
 42
-0.1316524975874
  0
VERTEX
  5
1A12
  8
SAPA_PROFIL
 62
     4
 10
84.399683865500563
 20
115.42038467650291
 30
0.0
  0
VERTEX
  5
1A13
  8
SAPA_PROFIL
 62
     4
 10
84.399683865501203
 20
115.5999999187742
 30
0.0
 42
-0.4142135623744271
  0
VERTEX
  5
1A14
  8
SAPA_PROFIL
 62
     4
 10
84.799683865502203
 20
115.9999999187734
 30
0.0
  0
VERTEX
  5
1A15
  8
SAPA_PROFIL
 62
     4
 10
88.199683865503204
 20
115.99999991877471
 30
0.0
 42
-0.4142135623724291
  0
VERTEX
  5
1A16
  8
SAPA_PROFIL
 62
     4
 10
88.599683865502826
 20
115.5999999187742
 30
0.0
  0
VERTEX
  5
1A17
  8
SAPA_PROFIL
 62
     4
 10
88.599683865509206
 20
115.41756384833739
 30
0.0
 42
-0.1318219888653524
  0
VERTEX
  5
1A18
  8
SAPA_PROFIL
 62
     4
 10
88.55939146897181
 20
115.2673907458651
 30
0.0
  0
VERTEX
  5
1A19
  8
SAPA_PROFIL
 62
     4
 10
87.750708007747477
 20
113.8688630453854
 30
0.0
  0
VERTEX
  5
1A1A
  8
SAPA_PROFIL
 62
     4
 10
87.483593479534434
 20
113.8688630453854
 30
0.0
 42
0.577350269189159
  0
VERTEX
  5
1A1B
  8
SAPA_PROFIL
 62
     4
 10
87.301728144739855
 20
113.5538630453858
 30
0.0
  0
VERTEX
  5
1A1C
  8
SAPA_PROFIL
 62
     4
 10
87.503464823416977
 20
113.2044448681671
 30
0.0
 42
0.0612687673629489
  0
VERTEX
  5
1A1D
  8
SAPA_PROFIL
 62
     4
 10
87.517048194103197
 20
112.9117694350669
 30
0.0
 42
0.2694959974285039
  0
VERTEX
  5
1A1E
  8
SAPA_PROFIL
 62
     4
 10
87.710180168447124
 20
112.68025038866639
 30
0.0
  0
VERTEX
  5
1A1F
  8
SAPA_PROFIL
 62
     4
 10
90.171010358900304
 20
111.78458144775681
 30
0.0
 42
-0.3152987888784035
  0
VERTEX
  5
1A20
  8
SAPA_PROFIL
 62
     4
 10
90.500000287236873
 20
111.3147351373635
 30
0.0
  0
VERTEX
  5
1A21
  8
SAPA_PROFIL
 62
     4
 10
90.500000287235295
 20
109.9332355521591
 30
0.0
 42
-0.2539676464741841
  0
VERTEX
  5
1A22
  8
SAPA_PROFIL
 62
     4
 10
90.36339199774001
 20
109.681634381775
 30
0.0
  0
VERTEX
  5
1A23
  8
SAPA_PROFIL
 62
     4
 10
89.956831801735035
 20
109.4176111033984
 30
0.0
 42
-0.5862177598324623
  0
VERTEX
  5
1A24
  8
SAPA_PROFIL
 62
     4
 10
89.500000287238521
 20
109.6733529186367
 30
0.0
  0
VERTEX
  5
1A25
  8
SAPA_PROFIL
 62
     4
 10
89.500000287246195
 20
110.6145275991465
 30
0.0
 42
0.3152987888813165
  0
VERTEX
  5
1A26
  8
SAPA_PROFIL
 62
     4
 10
89.171010358909442
 20
111.0843739095443
 30
0.0
  0
VERTEX
  5
1A27
  8
SAPA_PROFIL
 62
     4
 10
87.971010358898226
 20
111.5211381906682
 30
0.0
 42
0.5205670505515651
  0
VERTEX
  5
1A28
  8
SAPA_PROFIL
 62
     4
 10
87.300000287235463
 20
111.051291880275
 30
0.0
  0
VERTEX
  5
1A29
  8
SAPA_PROFIL
 62
     4
 10
87.300000287235434
 20
106.0348509396062
 30
0.0
 42
0.3702522326300203
  0
VERTEX
  5
1A2A
  8
SAPA_PROFIL
 62
     4
 10
87.554460239901147
 20
105.7383275778128
 30
0.0
 42
0.0982365330332397
  0
VERTEX
  5
1A2B
  8
SAPA_PROFIL
 62
     4
 10
89.242147014896148
 20
105.6478748196019
 30
0.0
 42
0.3735060174783164
  0
VERTEX
  5
1A2C
  8
SAPA_PROFIL
 62
     4
 10
89.500000287236205
 20
105.9448994875129
 30
0.0
  0
VERTEX
  5
1A2D
  8
SAPA_PROFIL
 62
     4
 10
89.5000002872371
 20
106.3733529186355
 30
0.0
 42
-0.5920056181162531
  0
VERTEX
  5
1A2E
  8
SAPA_PROFIL
 62
     4
 10
89.961203789765023
 20
106.6263616749529
 30
0.0
  0
VERTEX
  5
1A2F
  8
SAPA_PROFIL
 62
     4
 10
90.363391997743321
 20
106.3651775987972
 30
0.0
 42
-0.2539676464746725
  0
VERTEX
  5
1A30
  8
SAPA_PROFIL
 62
     4
 10
90.500000287238677
 20
106.1135764284135
 30
0.0
  0
VERTEX
  5
1A31
  8
SAPA_PROFIL
 62
     4
 10
90.5000002872371
 20
83.886423409047794
 30
0.0
 42
-0.2539676464741819
  0
VERTEX
  5
1A32
  8
SAPA_PROFIL
 62
     4
 10
90.363391997743321
 20
83.634822238664967
 30
0.0
  0
VERTEX
  5
1A33
  8
SAPA_PROFIL
 62
     4
 10
89.961203789764966
 20
83.373638162511142
 30
0.0
 42
-0.5920055144124249
  0
VERTEX
  5
1A34
  8
SAPA_PROFIL
 62
     4
 10
89.5000002872371
 20
83.626646918826651
 30
0.0
  0
VERTEX
  5
1A35
  8
SAPA_PROFIL
 62
     4
 10
89.5000003125121
 20
84.05510039611687
 30
0.0
 42
0.3735060174775405
  0
VERTEX
  5
1A36
  8
SAPA_PROFIL
 62
     4
 10
89.242147040172014
 20
84.352125064026538
 30
0.0
 42
0.0355900683670349
  0
VERTEX
  5
1A37
  8
SAPA_PROFIL
 62
     4
 10
88.626273453372235
 20
84.396018628058812
 30
0.0
 42
0.0624282003873116
  0
VERTEX
  5
1A38
  8
SAPA_PROFIL
 62
     4
 10
87.554460265177084
 20
84.261672305815878
 30
0.0
 42
0.3702522326309292
  0
VERTEX
  5
1A39
  8
SAPA_PROFIL
 62
     4
 10
87.300000312511372
 20
83.965148944022488
 30
0.0
  0
VERTEX
  5
1A3A
  8
SAPA_PROFIL
 62
     4
 10
87.300000287235235
 20
78.948707957188986
 30
0.0
 42
0.5205670505515692
  0
VERTEX
  5
1A3B
  8
SAPA_PROFIL
 62
     4
 10
87.971010358898226
 20
78.478861646795764
 30
0.0
  0
VERTEX
  5
1A3C
  8
SAPA_PROFIL
 62
     4
 10
89.171010358907637
 20
78.915625927920715
 30
0.0
 42
0.3152987888807539
  0
VERTEX
  5
1A3D
  8
SAPA_PROFIL
 62
     4
 10
89.500000287245285
 20
79.385472238316567
 30
0.0
  0
VERTEX
  5
1A3E
  8
SAPA_PROFIL
 62
     4
 10
89.500000287238464
 20
80.326646918825645
 30
0.0
 42
-0.5862175119221242
  0
VERTEX
  5
1A3F
  8
SAPA_PROFIL
 62
     4
 10
89.956831612993597
 20
80.582388849807614
 30
0.0
 42
0.0000002084758573
  0
SEQEND
  5
1A40
  8
SAPA_PROFIL
 62
     4
  0
POLYLINE
  5
12B5
  8
SAPA_PROFIL
 66
     1
 10
0.0
 20
0.0
 30
0.0
 70
     1
  0
VERTEX
  5
1A41
  8
SAPA_PROFIL
 10
76.843799946116164
 20
76.151244362829061
 30
0.0
 42
-0.5773502691897452
  0
VERTEX
  5
1A42
  8
SAPA_PROFIL
 10
76.660846206006028
 20
76.445400663083902
 30
0.0
  0
VERTEX
  5
1A43
  8
SAPA_PROFIL
 10
76.81298011711479
 20
76.730082946315534
 30
0.0
 42
-0.2216946626430179
  0
VERTEX
  5
1A44
  8
SAPA_PROFIL
 10
77.353859948591577
 20
77.135891851470333
 30
0.0
  0
VERTEX
  5
1A45
  8
SAPA_PROFIL
 10
79.167090419249803
 20
77.517338447598036
 30
0.0
 42
-0.476975532698164
  0
VERTEX
  5
1A46
  8
SAPA_PROFIL
 10
79.538747294195701
 20
77.215085623091582
 30
0.0
  0
VERTEX
  5
1A47
  8
SAPA_PROFIL
 10
79.538663686312049
 20
75.711984542329574
 30
0.0
  0
VERTEX
  5
1A48
  8
SAPA_PROFIL
 10
79.490817936313562
 20
75.697466133082472
 30
0.0
 42
0.4142135623730957
  0
VERTEX
  5
1A49
  8
SAPA_PROFIL
 10
79.290853891806165
 20
75.32328117760666
 30
0.0
  0
VERTEX
  5
1A4A
  8
SAPA_PROFIL
 10
79.800000291117385
 20
74.005983501370793
 30
0.0
  0
VERTEX
  5
1A4B
  8
SAPA_PROFIL
 10
79.800000291117357
 20
71.009716592089688
 30
0.0
 42
-0.2562769743570943
  0
VERTEX
  5
1A4C
  8
SAPA_PROFIL
 10
79.707469292368927
 20
70.841044087602455
 30
0.0
  0
VERTEX
  5
1A4D
  8
SAPA_PROFIL
 10
78.461203792994752
 20
70.046991085785521
 30
0.0
 42
-0.5920056172513193
  0
VERTEX
  5
1A4E
  8
SAPA_PROFIL
 10
78.000000291117317
 20
70.299999842516371
 30
0.0
  0
VERTEX
  5
1A4F
  8
SAPA_PROFIL
 10
78.000000291117374
 20
71.699999842516362
 30
0.0
 42
0.4142135623731021
  0
VERTEX
  5
1A50
  8
SAPA_PROFIL
 10
77.700000291117362
 20
71.999999842516388
 30
0.0
  0
VERTEX
  5
1A51
  8
SAPA_PROFIL
 10
75.300000291117271
 20
71.999999842516388
 30
0.0
 42
0.4142135623731402
  0
VERTEX
  5
1A52
  8
SAPA_PROFIL
 10
75.000000291117288
 20
71.699999842516362
 30
0.0
  0
VERTEX
  5
1A53
  8
SAPA_PROFIL
 10
75.00000029111726
 20
54.299999842516122
 30
0.0
 42
0.4142135623730796
  0
VERTEX
  5
1A54
  8
SAPA_PROFIL
 10
75.300000291117243
 20
53.99999984251609
 30
0.0
  0
VERTEX
  5
1A55
  8
SAPA_PROFIL
 10
77.700000291117263
 20
53.999999842516033
 30
0.0
 42
0.4142135623731315
  0
VERTEX
  5
1A56
  8
SAPA_PROFIL
 10
78.000000291117374
 20
54.299999842516058
 30
0.0
  0
VERTEX
  5
1A57
  8
SAPA_PROFIL
 10
78.000000291117274
 20
55.699999842516121
 30
0.0
 42
-0.5877032589249549
  0
VERTEX
  5
1A58
  8
SAPA_PROFIL
 10
78.457960498244972
 20
55.955046059826223
 30
0.0
  0
VERTEX
  5
1A59
  8
SAPA_PROFIL
 10
79.905307095869148
 20
55.058647082584002
 30
0.0
 42
-0.2596812337301922
  0
VERTEX
  5
1A5A
  8
SAPA_PROFIL
 10
80.000000291117374
 20
54.888616271043901
 30
0.0
  0
VERTEX
  5
1A5B
  8
SAPA_PROFIL
 10
80.000000291117374
 20
52.299999837684382
 30
0.0
 42
-0.4142135623730864
  0
VERTEX
  5
1A5C
  8
SAPA_PROFIL
 10
79.700000291117362
 20
51.999999837684392
 30
0.0
  0
VERTEX
  5
1A5D
  8
SAPA_PROFIL
 10
13.500000291104071
 20
51.999999837684577
 30
0.0
 42
-0.4142135623560339
  0
VERTEX
  5
1A5E
  8
SAPA_PROFIL
 10
13.000000291104071
 20
52.499999837655473
 30
0.0
  0
VERTEX
  5
1A5F
  8
SAPA_PROFIL
 10
13.000000290892199
 20
56.197430687508501
 30
0.0
 42
-0.4142135623902403
  0
VERTEX
  5
1A60
  8
SAPA_PROFIL
 10
13.30000029089225
 20
56.497430687525991
 30
0.0
  0
VERTEX
  5
1A61
  8
SAPA_PROFIL
 10
14.06754475891861
 20
56.497430687526077
 30
0.0
 42
-0.2896898632854853
  0
VERTEX
  5
1A62
  8
SAPA_PROFIL
 10
14.97105266179646
 20
55.92600211615521
 30
0.0
 42
-0.5507604245881251
  0
VERTEX
  5
1A63
  8
SAPA_PROFIL
 10
14.70000029095092
 20
55.497430687566677
 30
0.0
  0
VERTEX
  5
1A64
  8
SAPA_PROFIL
 10
14.500000290928179
 20
55.49743068755501
 30
0.0
 42
0.4142135623681871
  0
VERTEX
  5
1A65
  8
SAPA_PROFIL
 10
14.200000290945679
 20
55.197430687542578
 30
0.0
  0
VERTEX
  5
1A66
  8
SAPA_PROFIL
 10
14.20000029100529
 20
53.699999836531497
 30
0.0
 42
0.4142135623609537
  0
VERTEX
  5
1A67
  8
SAPA_PROFIL
 10
14.70000029100532
 20
53.199999836531433
 30
0.0
  0
VERTEX
  5
1A68
  8
SAPA_PROFIL
 10
18.00000029100617
 20
53.199999836531511
 30
0.0
 42
0.4142135623852031
  0
VERTEX
  5
1A69
  8
SAPA_PROFIL
 10
18.50000029100616
 20
53.699999836552117
 30
0.0
  0
VERTEX
  5
1A6A
  8
SAPA_PROFIL
 10
18.500000290946531
 20
55.19743068778287
 30
0.0
 42
0.4142135623779909
  0
VERTEX
  5
1A6B
  8
SAPA_PROFIL
 10
18.200000290929069
 20
55.497430687770418
 30
0.0
  0
VERTEX
  5
1A6C
  8
SAPA_PROFIL
 10
18.000000290951458
 20
55.497430687758751
 30
0.0
 42
-0.5507604245841421
  0
VERTEX
  5
1A6D
  8
SAPA_PROFIL
 10
17.728947920053841
 20
55.926002116312809
 30
0.0
 42
-0.2896898633203124
  0
VERTEX
  5
1A6E
  8
SAPA_PROFIL
 10
18.632455822986909
 20
56.497430687799728
 30
0.0
  0
VERTEX
  5
1A6F
  8
SAPA_PROFIL
 10
19.629927635051668
 20
56.497430687799721
 30
0.0
 42
-0.0436609429084968
  0
VERTEX
  5
1A70
  8
SAPA_PROFIL
 10
19.71675172388511
 20
56.489834564305824
 30
0.0
  0
VERTEX
  5
1A71
  8
SAPA_PROFIL
 10
21.286824379869088
 20
56.212988393383291
 30
0.0
 42
-0.8390996311773407
  0
VERTEX
  5
1A72
  8
SAPA_PROFIL
 10
21.286824379869039
 20
55.228180640371072
 30
0.0
  0
VERTEX
  5
1A73
  8
SAPA_PROFIL
 10
20.113176202202141
 20
55.02123480078906
 30
0.0
 42
0.363970234266182
  0
VERTEX
  5
1A74
  8
SAPA_PROFIL
 10
19.700000291035622
 20
54.528830924282929
 30
0.0
  0
VERTEX
  5
1A75
  8
SAPA_PROFIL
 10
19.70000029103559
 20
53.699999836531489
 30
0.0
 42
0.4373282586283472
  0
VERTEX
  5
1A76
  8
SAPA_PROFIL
 10
20.239094748359509
 20
53.201530556227581
 30
0.0
  0
VERTEX
  5
1A77
  8
SAPA_PROFIL
 10
34.712153569823187
 20
53.788329319234442
 30
0.0
 42
0.402394130432476
  0
VERTEX
  5
1A78
  8
SAPA_PROFIL
 10
35.000000291146819
 20
54.088083047847462
 30
0.0
  0
VERTEX
  5
1A79
  8
SAPA_PROFIL
 10
35.00000029114679
 20
54.888616266212381
 30
0.0
 42
-0.2596812337302367
  0
VERTEX
  5
1A7A
  8
SAPA_PROFIL
 10
35.094693486395023
 20
55.058647077752489
 30
0.0
  0
VERTEX
  5
1A7B
  8
SAPA_PROFIL
 10
36.542040084019114
 20
55.955046054994632
 30
0.0
 42
-0.5877032589250683
  0
VERTEX
  5
1A7C
  8
SAPA_PROFIL
 10
37.000000291146833
 20
55.699999837684508
 30
0.0
  0
VERTEX
  5
1A7D
  8
SAPA_PROFIL
 10
37.000000291146833
 20
54.299999837684517
 30
0.0
 42
0.4142135623730898
  0
VERTEX
  5
1A7E
  8
SAPA_PROFIL
 10
37.300000291146802
 20
53.999999837684491
 30
0.0
  0
VERTEX
  5
1A7F
  8
SAPA_PROFIL
 10
39.700000291147042
 20
53.999999837684662
 30
0.0
 42
0.4142135623730049
  0
VERTEX
  5
1A80
  8
SAPA_PROFIL
 10
40.000000291146748
 20
54.299999837684517
 30
0.0
  0
VERTEX
  5
1A81
  8
SAPA_PROFIL
 10
40.000000291146819
 20
63.899999837684703
 30
0.0
 42
0.4142135623730258
  0
VERTEX
  5
1A82
  8
SAPA_PROFIL
 10
39.700000291146893
 20
64.199999837684686
 30
0.0
  0
VERTEX
  5
1A83
  8
SAPA_PROFIL
 10
35.300000291146738
 20
64.199999837684942
 30
0.0
 42
-0.4142135623730983
  0
VERTEX
  5
1A84
  8
SAPA_PROFIL
 10
35.000000291146733
 20
64.499999837684811
 30
0.0
  0
VERTEX
  5
1A85
  8
SAPA_PROFIL
 10
35.000000291146712
 20
65.98408790303813
 30
0.0
 42
-0.2596812337301949
  0
VERTEX
  5
1A86
  8
SAPA_PROFIL
 10
35.094693486394959
 20
66.154118714578132
 30
0.0
  0
VERTEX
  5
1A87
  8
SAPA_PROFIL
 10
35.742040084019152
 20
66.555046059129978
 30
0.0
 42
-0.5877032589249359
  0
VERTEX
  5
1A88
  8
SAPA_PROFIL
 10
36.200000291146807
 20
66.29999984181984
 30
0.0
  0
VERTEX
  5
1A89
  8
SAPA_PROFIL
 10
36.200000291146729
 20
65.899999837684774
 30
0.0
 42
0.4142135623731295
  0
VERTEX
  5
1A8A
  8
SAPA_PROFIL
 10
36.500000291146762
 20
65.599999837684763
 30
0.0
  0
VERTEX
  5
1A8B
  8
SAPA_PROFIL
 10
39.700000291146921
 20
65.599999837684734
 30
0.0
 42
0.4142135623730636
  0
VERTEX
  5
1A8C
  8
SAPA_PROFIL
 10
40.000000291146968
 20
65.899999837684703
 30
0.0
  0
VERTEX
  5
1A8D
  8
SAPA_PROFIL
 10
40.000000291146819
 20
71.699999837684842
 30
0.0
 42
0.4142135623730984
  0
VERTEX
  5
1A8E
  8
SAPA_PROFIL
 10
39.700000291146907
 20
71.999999837684754
 30
0.0
  0
VERTEX
  5
1A8F
  8
SAPA_PROFIL
 10
37.300000291146873
 20
71.999999837684825
 30
0.0
 42
0.414213562373088
  0
VERTEX
  5
1A90
  8
SAPA_PROFIL
 10
37.000000291146897
 20
71.699999837684828
 30
0.0
  0
VERTEX
  5
1A91
  8
SAPA_PROFIL
 10
37.000000291146883
 20
70.299999837684794
 30
0.0
 42
-0.592005618117907
  0
VERTEX
  5
1A92
  8
SAPA_PROFIL
 10
36.538796788619983
 20
70.046991081367764
 30
0.0
  0
VERTEX
  5
1A93
  8
SAPA_PROFIL
 10
35.292531289462403
 20
70.841044087544333
 30
0.0
 42
-0.2562769736732238
  0
VERTEX
  5
1A94
  8
SAPA_PROFIL
 10
35.200000291146949
 20
71.009716591755677
 30
0.0
  0
VERTEX
  5
1A95
  8
SAPA_PROFIL
 10
35.20000029114685
 20
74.005983501370849
 30
0.0
  0
VERTEX
  5
1A96
  8
SAPA_PROFIL
 10
35.709146690458041
 20
75.323281177606731
 30
0.0
 42
0.4142135623730951
  0
VERTEX
  5
1A97
  8
SAPA_PROFIL
 10
35.509182645950652
 20
75.697466133082543
 30
0.0
  0
VERTEX
  5
1A98
  8
SAPA_PROFIL
 10
35.461336895952158
 20
75.711984542329645
 30
0.0
  0
VERTEX
  5
1A99
  8
SAPA_PROFIL
 10
35.461253288068519
 20
77.215085623091653
 30
0.0
 42
-0.4769755326981641
  0
VERTEX
  5
1A9A
  8
SAPA_PROFIL
 10
35.832910163014368
 20
77.517338447598121
 30
0.0
  0
VERTEX
  5
1A9B
  8
SAPA_PROFIL
 10
37.64614063367263
 20
77.135891851470404
 30
0.0
 42
-0.2216946626430177
  0
VERTEX
  5
1A9C
  8
SAPA_PROFIL
 10
38.187020465149423
 20
76.730082946315605
 30
0.0
  0
VERTEX
  5
1A9D
  8
SAPA_PROFIL
 10
38.339154376258193
 20
76.445400663083973
 30
0.0
 42
-0.5773502691897449
  0
VERTEX
  5
1A9E
  8
SAPA_PROFIL
 10
38.156200636148
 20
76.151244362829146
 30
0.0
  0
VERTEX
  5
1A9F
  8
SAPA_PROFIL
 10
37.834442907929763
 20
76.161805729056113
 30
0.0
  0
VERTEX
  5
1AA0
  8
SAPA_PROFIL
 10
36.749878460958023
 20
74.275962037195058
 30
0.0
  0
VERTEX
  5
1AA1
  8
SAPA_PROFIL
 10
36.691804823968937
 20
74.084579037201337
 30
0.0
 42
0.7625858545243262
  0
VERTEX
  5
1AA2
  8
SAPA_PROFIL
 10
37.022130904985929
 20
73.899999835003854
 30
0.0
 42
-0.2134217652834387
  0
VERTEX
  5
1AA3
  8
SAPA_PROFIL
 10
37.245737702736072
 20
73.99999983500399
 30
0.0
  0
VERTEX
  5
1AA4
  8
SAPA_PROFIL
 10
41.09852410723601
 20
73.999999835003862
 30
0.0
 42
0.4142135623731644
  0
VERTEX
  5
1AA5
  8
SAPA_PROFIL
 10
41.398524107236071
 20
74.299999835003902
 30
0.0
  0
VERTEX
  5
1AA6
  8
SAPA_PROFIL
 10
41.398524107236049
 20
74.59999983500397
 30
0.0
  0
VERTEX
  5
1AA7
  8
SAPA_PROFIL
 10
40.47476367653271
 20
76.199999835003922
 30
0.0
 42
-0.5773502691898534
  0
VERTEX
  5
1AA8
  8
SAPA_PROFIL
 10
40.647968757289561
 20
76.499999835004033
 30
0.0
  0
VERTEX
  5
1AA9
  8
SAPA_PROFIL
 10
42.033609403344677
 20
76.499999835004061
 30
0.0
 42
-0.2679491924311248
  0
VERTEX
  5
1AAA
  8
SAPA_PROFIL
 10
42.899634807129189
 20
75.999999835004004
 30
0.0
  0
VERTEX
  5
1AAB
  8
SAPA_PROFIL
 10
43.909997776702397
 20
74.249999837616784
 30
0.0
 42
0.267949192431141
  0
VERTEX
  5
1AAC
  8
SAPA_PROFIL
 10
44.343010478594628
 20
73.99999983761677
 30
0.0
  0
VERTEX
  5
1AAD
  8
SAPA_PROFIL
 10
70.656990103669557
 20
73.99999983761677
 30
0.0
 42
0.2679491924311169
  0
VERTEX
  5
1AAE
  8
SAPA_PROFIL
 10
71.090002805561767
 20
74.24999983761677
 30
0.0
  0
VERTEX
  5
1AAF
  8
SAPA_PROFIL
 10
72.100365775135174
 20
75.999999835003962
 30
0.0
 42
-0.2679491924311169
  0
VERTEX
  5
1AB0
  8
SAPA_PROFIL
 10
72.966391178919594
 20
76.499999835003933
 30
0.0
  0
VERTEX
  5
1AB1
  8
SAPA_PROFIL
 10
74.352031824974659
 20
76.49999983500399
 30
0.0
 42
-0.5773502691897872
  0
VERTEX
  5
1AB2
  8
SAPA_PROFIL
 10
74.525236905731504
 20
76.199999835003894
 30
0.0
  0
VERTEX
  5
1AB3
  8
SAPA_PROFIL
 10
73.601476475028093
 20
74.599999835003914
 30
0.0
  0
VERTEX
  5
1AB4
  8
SAPA_PROFIL
 10
73.601476475028193
 20
74.299999835003803
 30
0.0
 42
0.4142135623730259
  0
VERTEX
  5
1AB5
  8
SAPA_PROFIL
 10
73.901476475028176
 20
73.999999835003834
 30
0.0
  0
VERTEX
  5
1AB6
  8
SAPA_PROFIL
 10
77.75426287952817
 20
73.999999835003905
 30
0.0
 42
-0.2134217652834384
  0
VERTEX
  5
1AB7
  8
SAPA_PROFIL
 10
77.97786967727825
 20
73.899999835003797
 30
0.0
 42
0.7625858545243262
  0
VERTEX
  5
1AB8
  8
SAPA_PROFIL
 10
78.308195758295284
 20
74.084579037201266
 30
0.0
  0
VERTEX
  5
1AB9
  8
SAPA_PROFIL
 10
78.250122121306191
 20
74.275962037194986
 30
0.0
  0
VERTEX
  5
1ABA
  8
SAPA_PROFIL
 10
77.165557674334451
 20
76.161805729056042
 30
0.0
  0
SEQEND
  5
1ABB
  8
SAPA_PROFIL
  0
POLYLINE
  5
12B6
  8
SAPA_PROFIL
 66
     1
 10
0.0
 20
0.0
 30
0.0
 70
     1
  0
VERTEX
  5
1ABC
  8
SAPA_PROFIL
 10
69.300000291117101
 20
53.899999839490363
 30
0.0
  0
VERTEX
  5
1ABD
  8
SAPA_PROFIL
 10
69.300000291117101
 20
53.999999838118349
 30
0.0
 42
-0.4142135622516611
  0
VERTEX
  5
1ABE
  8
SAPA_PROFIL
 10
69.600000290992753
 20
54.299999838118339
 30
0.0
  0
VERTEX
  5
1ABF
  8
SAPA_PROFIL
 10
71.000000290992773
 20
54.299999838698739
 30
0.0
 42
-0.4142135624945125
  0
VERTEX
  5
1AC0
  8
SAPA_PROFIL
 10
71.300000291117158
 20
53.999999838698741
 30
0.0
  0
VERTEX
  5
1AC1
  8
SAPA_PROFIL
 10
71.300000291117158
 20
53.89999983965231
 30
0.0
 42
0.4142135623731471
  0
VERTEX
  5
1AC2
  8
SAPA_PROFIL
 10
71.500000291117203
 20
53.699999839652278
 30
0.0
  0
VERTEX
  5
1AC3
  8
SAPA_PROFIL
 10
73.000000291117146
 20
53.699999839652229
 30
0.0
 42
0.4142135623731054
  0
VERTEX
  5
1AC4
  8
SAPA_PROFIL
 10
73.300000291117144
 20
53.999999839652219
 30
0.0
  0
VERTEX
  5
1AC5
  8
SAPA_PROFIL
 10
73.300000291117243
 20
71.999999843419431
 30
0.0
 42
0.4142135623731054
  0
VERTEX
  5
1AC6
  8
SAPA_PROFIL
 10
73.000000291117232
 20
72.299999843419414
 30
0.0
  0
VERTEX
  5
1AC7
  8
SAPA_PROFIL
 10
71.500000291117232
 20
72.299999843419371
 30
0.0
 42
0.4142135623730992
  0
VERTEX
  5
1AC8
  8
SAPA_PROFIL
 10
71.300000291117243
 20
72.099999843419383
 30
0.0
  0
VERTEX
  5
1AC9
  8
SAPA_PROFIL
 10
71.300000291117243
 20
71.999999843419275
 30
0.0
 42
-0.4142135623730847
  0
VERTEX
  5
1ACA
  8
SAPA_PROFIL
 10
71.000000291117232
 20
71.699999843419263
 30
0.0
  0
VERTEX
  5
1ACB
  8
SAPA_PROFIL
 10
69.600000291117169
 20
71.699999843419306
 30
0.0
 42
-0.4142135623730514
  0
VERTEX
  5
1ACC
  8
SAPA_PROFIL
 10
69.300000291117186
 20
71.999999843419275
 30
0.0
  0
VERTEX
  5
1ACD
  8
SAPA_PROFIL
 10
69.300000291117186
 20
72.099999843419369
 30
0.0
 42
0.4142135623730784
  0
VERTEX
  5
1ACE
  8
SAPA_PROFIL
 10
69.100000291117169
 20
72.299999843419357
 30
0.0
  0
VERTEX
  5
1ACF
  8
SAPA_PROFIL
 10
45.900000291147052
 20
72.299999843419329
 30
0.0
 42
0.4142135623731138
  0
VERTEX
  5
1AD0
  8
SAPA_PROFIL
 10
45.700000291147028
 20
72.099999843419312
 30
0.0
  0
VERTEX
  5
1AD1
  8
SAPA_PROFIL
 10
45.700000291147028
 20
71.999999843419332
 30
0.0
 42
-0.4142135623731054
  0
VERTEX
  5
1AD2
  8
SAPA_PROFIL
 10
45.400000291147023
 20
71.69999984341932
 30
0.0
  0
VERTEX
  5
1AD3
  8
SAPA_PROFIL
 10
44.000000291146989
 20
71.69999984341932
 30
0.0
 42
-0.4142135623730826
  0
VERTEX
  5
1AD4
  8
SAPA_PROFIL
 10
43.700000291146978
 20
71.999999843419317
 30
0.0
  0
VERTEX
  5
1AD5
  8
SAPA_PROFIL
 10
43.700000291146978
 20
72.099999843419312
 30
0.0
 42
0.4142135623731179
  0
VERTEX
  5
1AD6
  8
SAPA_PROFIL
 10
43.500000291146982
 20
72.299999843419272
 30
0.0
  0
VERTEX
  5
1AD7
  8
SAPA_PROFIL
 10
42.000000291147131
 20
72.299999843419371
 30
0.0
 42
0.4142135623731138
  0
VERTEX
  5
1AD8
  8
SAPA_PROFIL
 10
41.700000291147099
 20
71.999999843419374
 30
0.0
  0
VERTEX
  5
1AD9
  8
SAPA_PROFIL
 10
41.700000291146857
 20
53.999999832977238
 30
0.0
 42
0.4142135624877945
  0
VERTEX
  5
1ADA
  8
SAPA_PROFIL
 10
42.000000291264342
 20
53.699999832977241
 30
0.0
  0
VERTEX
  5
1ADB
  8
SAPA_PROFIL
 10
43.500000291225263
 20
53.699999833603833
 30
0.0
 42
0.4142135622583851
  0
VERTEX
  5
1ADC
  8
SAPA_PROFIL
 10
43.700000291146921
 20
53.899999833603843
 30
0.0
  0
VERTEX
  5
1ADD
  8
SAPA_PROFIL
 10
43.700000291146942
 20
53.999999833806591
 30
0.0
 42
-0.4142135622515569
  0
VERTEX
  5
1ADE
  8
SAPA_PROFIL
 10
44.000000291022559
 20
54.29999983380651
 30
0.0
  0
VERTEX
  5
1ADF
  8
SAPA_PROFIL
 10
45.40000029102265
 20
54.299999834386988
 30
0.0
 42
-0.4142135624945311
  0
VERTEX
  5
1AE0
  8
SAPA_PROFIL
 10
45.700000291147028
 20
53.999999834386998
 30
0.0
  0
VERTEX
  5
1AE1
  8
SAPA_PROFIL
 10
45.700000291147028
 20
53.899999833014803
 30
0.0
 42
0.4142135626101151
  0
VERTEX
  5
1AE2
  8
SAPA_PROFIL
 10
45.900000291308857
 20
53.699999833014822
 30
0.0
  0
VERTEX
  5
1AE3
  8
SAPA_PROFIL
 10
69.100000291279059
 20
53.699999839490282
 30
0.0
 42
0.414213562136048
  0
SEQEND
  5
1AE4
  8
SAPA_PROFIL
  0
POLYLINE
  5
12B7
  8
SAPA_PROFIL
 66
     1
 10
0.0
 20
0.0
 30
0.0
 70
     1
  0
VERTEX
  5
1AE5
  8
SAPA_PROFIL
 10
35.000000291117559
 20
137.6999998376844
 30
0.0
 42
-0.4142879064819451
  0
VERTEX
  5
1AE6
  8
SAPA_PROFIL
 10
35.300076437114598
 20
137.999999828021
 30
0.0
  0
VERTEX
  5
1AE7
  8
SAPA_PROFIL
 10
79.699924159535456
 20
137.99999982802439
 30
0.0
 42
-0.4142878924076678
  0
VERTEX
  5
1AE8
  8
SAPA_PROFIL
 10
80.000000291117473
 20
137.6999998376844
 30
0.0
  0
VERTEX
  5
1AE9
  8
SAPA_PROFIL
 10
80.000000291117445
 20
135.11138340432501
 30
0.0
 42
-0.2596812337300058
  0
VERTEX
  5
1AEA
  8
SAPA_PROFIL
 10
79.905307095869333
 20
134.94135259278499
 30
0.0
  0
VERTEX
  5
1AEB
  8
SAPA_PROFIL
 10
78.457960498245271
 20
134.04495361554271
 30
0.0
 42
-0.5877032589249577
  0
VERTEX
  5
1AEC
  8
SAPA_PROFIL
 10
78.000000291117544
 20
134.29999983285279
 30
0.0
  0
VERTEX
  5
1AED
  8
SAPA_PROFIL
 10
78.000000291117559
 20
135.6999998328528
 30
0.0
 42
0.414213562373088
  0
VERTEX
  5
1AEE
  8
SAPA_PROFIL
 10
77.700000291117576
 20
135.99999983285281
 30
0.0
  0
VERTEX
  5
1AEF
  8
SAPA_PROFIL
 10
75.30000029111757
 20
135.99999983285281
 30
0.0
 42
0.4142135623730882
  0
VERTEX
  5
1AF0
  8
SAPA_PROFIL
 10
75.000000291117559
 20
135.6999998328528
 30
0.0
  0
VERTEX
  5
1AF1
  8
SAPA_PROFIL
 10
75.000000291117559
 20
118.29999983285281
 30
0.0
 42
0.4142135623730951
  0
VERTEX
  5
1AF2
  8
SAPA_PROFIL
 10
75.300000291117584
 20
117.99999983285279
 30
0.0
  0
VERTEX
  5
1AF3
  8
SAPA_PROFIL
 10
77.70000029111759
 20
117.99999983285269
 30
0.0
 42
0.4142135623729892
  0
VERTEX
  5
1AF4
  8
SAPA_PROFIL
 10
78.000000291117559
 20
118.29999983285281
 30
0.0
  0
VERTEX
  5
1AF5
  8
SAPA_PROFIL
 10
78.000000291117559
 20
119.6999998328528
 30
0.0
 42
-0.5920056181179401
  0
VERTEX
  5
1AF6
  8
SAPA_PROFIL
 10
78.461203793644216
 20
119.9530085891697
 30
0.0
  0
VERTEX
  5
1AF7
  8
SAPA_PROFIL
 10
79.707469292801946
 20
119.1589555829933
 30
0.0
 42
-0.2562769736732679
  0
VERTEX
  5
1AF8
  8
SAPA_PROFIL
 10
79.800000291117414
 20
118.9902830787819
 30
0.0
  0
VERTEX
  5
1AF9
  8
SAPA_PROFIL
 10
79.800000291117442
 20
115.99401616433479
 30
0.0
  0
VERTEX
  5
1AFA
  8
SAPA_PROFIL
 10
79.290853891806478
 20
114.6767184880995
 30
0.0
 42
0.4142135623730951
  0
VERTEX
  5
1AFB
  8
SAPA_PROFIL
 10
79.490817936313874
 20
114.3025335326237
 30
0.0
  0
VERTEX
  5
1AFC
  8
SAPA_PROFIL
 10
79.538663686312361
 20
114.2880151233766
 30
0.0
  0
VERTEX
  5
1AFD
  8
SAPA_PROFIL
 10
79.538747294196014
 20
112.7849140426146
 30
0.0
 42
-0.476975532698163
  0
VERTEX
  5
1AFE
  8
SAPA_PROFIL
 10
79.167090419250144
 20
112.48266121810811
 30
0.0
  0
VERTEX
  5
1AFF
  8
SAPA_PROFIL
 10
77.353859948591889
 20
112.86410781423589
 30
0.0
 42
-0.221694662643018
  0
VERTEX
  5
1B00
  8
SAPA_PROFIL
 10
76.812980117115103
 20
113.26991671939069
 30
0.0
  0
VERTEX
  5
1B01
  8
SAPA_PROFIL
 10
76.66084620600634
 20
113.5545990026223
 30
0.0
 42
-0.5773502691897493
  0
VERTEX
  5
1B02
  8
SAPA_PROFIL
 10
76.843799946116519
 20
113.84875530287709
 30
0.0
  0
VERTEX
  5
1B03
  8
SAPA_PROFIL
 10
77.165557674334764
 20
113.8381939366502
 30
0.0
  0
VERTEX
  5
1B04
  8
SAPA_PROFIL
 10
78.250122121306504
 20
115.7240376285112
 30
0.0
  0
VERTEX
  5
1B05
  8
SAPA_PROFIL
 10
78.308195758295597
 20
115.9154206285049
 30
0.0
 42
0.7625858545243216
  0
VERTEX
  5
1B06
  8
SAPA_PROFIL
 10
77.977869677278591
 20
116.0999998307024
 30
0.0
 42
-0.2134217652834399
  0
VERTEX
  5
1B07
  8
SAPA_PROFIL
 10
77.754262879528483
 20
115.99999983070229
 30
0.0
  0
VERTEX
  5
1B08
  8
SAPA_PROFIL
 10
73.90147647502846
 20
115.99999983070219
 30
0.0
 42
0.4142135623730898
  0
VERTEX
  5
1B09
  8
SAPA_PROFIL
 10
73.601476475028448
 20
115.6999998307022
 30
0.0
  0
VERTEX
  5
1B0A
  8
SAPA_PROFIL
 10
73.601476475028448
 20
115.3999998307021
 30
0.0
  0
VERTEX
  5
1B0B
  8
SAPA_PROFIL
 10
74.525236905731759
 20
113.79999983070221
 30
0.0
 42
-0.5773502691898973
  0
VERTEX
  5
1B0C
  8
SAPA_PROFIL
 10
74.352031824974858
 20
113.49999983070219
 30
0.0
  0
VERTEX
  5
1B0D
  8
SAPA_PROFIL
 10
72.966391178919835
 20
113.49999983070219
 30
0.0
 42
-0.2679491924311269
  0
VERTEX
  5
1B0E
  8
SAPA_PROFIL
 10
72.100365775135373
 20
113.99999983070219
 30
0.0
  0
VERTEX
  5
1B0F
  8
SAPA_PROFIL
 10
71.09000280556215
 20
115.7499998280893
 30
0.0
 42
0.2679491924311212
  0
VERTEX
  5
1B10
  8
SAPA_PROFIL
 10
70.656990103669926
 20
115.9999998280893
 30
0.0
  0
VERTEX
  5
1B11
  8
SAPA_PROFIL
 10
44.343010478565283
 20
115.9999998280893
 30
0.0
 42
0.2679491924311136
  0
VERTEX
  5
1B12
  8
SAPA_PROFIL
 10
43.909997776673073
 20
115.7499998280893
 30
0.0
  0
VERTEX
  5
1B13
  8
SAPA_PROFIL
 10
42.899634807099673
 20
113.99999983070219
 30
0.0
 42
-0.2679491924311166
  0
VERTEX
  5
1B14
  8
SAPA_PROFIL
 10
42.033609403315268
 20
113.49999983070219
 30
0.0
  0
VERTEX
  5
1B15
  8
SAPA_PROFIL
 10
40.64796875726018
 20
113.49999983070219
 30
0.0
 42
-0.577350269189614
  0
VERTEX
  5
1B16
  8
SAPA_PROFIL
 10
40.474763676503279
 20
113.79999983070221
 30
0.0
  0
VERTEX
  5
1B17
  8
SAPA_PROFIL
 10
41.398524107206669
 20
115.3999998307021
 30
0.0
  0
VERTEX
  5
1B18
  8
SAPA_PROFIL
 10
41.39852410720659
 20
115.6999998307022
 30
0.0
 42
0.4142135623730083
  0
VERTEX
  5
1B19
  8
SAPA_PROFIL
 10
41.098524107206678
 20
115.99999983070219
 30
0.0
  0
VERTEX
  5
1B1A
  8
SAPA_PROFIL
 10
37.24573770270667
 20
115.99999983070219
 30
0.0
 42
-0.2134217652834394
  0
VERTEX
  5
1B1B
  8
SAPA_PROFIL
 10
37.022130904956548
 20
116.0999998307024
 30
0.0
 42
0.7625858545243364
  0
VERTEX
  5
1B1C
  8
SAPA_PROFIL
 10
36.691804823939563
 20
115.9154206285049
 30
0.0
  0
VERTEX
  5
1B1D
  8
SAPA_PROFIL
 10
36.749878460928628
 20
115.7240376285112
 30
0.0
  0
VERTEX
  5
1B1E
  8
SAPA_PROFIL
 10
37.834442907900382
 20
113.8381939366501
 30
0.0
  0
VERTEX
  5
1B1F
  8
SAPA_PROFIL
 10
38.156200636118619
 20
113.84875530287709
 30
0.0
 42
-0.5773502691897365
  0
VERTEX
  5
1B20
  8
SAPA_PROFIL
 10
38.339154376228812
 20
113.5545990026223
 30
0.0
  0
VERTEX
  5
1B21
  8
SAPA_PROFIL
 10
38.187020465120042
 20
113.26991671939059
 30
0.0
 42
-0.2216946626430184
  0
VERTEX
  5
1B22
  8
SAPA_PROFIL
 10
37.646140633643263
 20
112.86410781423579
 30
0.0
  0
VERTEX
  5
1B23
  8
SAPA_PROFIL
 10
35.832910162984987
 20
112.48266121810811
 30
0.0
 42
-0.4769755326981641
  0
VERTEX
  5
1B24
  8
SAPA_PROFIL
 10
35.461253288039138
 20
112.7849140426145
 30
0.0
  0
VERTEX
  5
1B25
  8
SAPA_PROFIL
 10
35.461336895922777
 20
114.2880151233766
 30
0.0
  0
VERTEX
  5
1B26
  8
SAPA_PROFIL
 10
35.509182645921271
 20
114.3025335326237
 30
0.0
 42
0.4142135623730951
  0
VERTEX
  5
1B27
  8
SAPA_PROFIL
 10
35.709146690428661
 20
114.6767184880995
 30
0.0
  0
VERTEX
  5
1B28
  8
SAPA_PROFIL
 10
35.200000291117561
 20
115.99401616433499
 30
0.0
  0
VERTEX
  5
1B29
  8
SAPA_PROFIL
 10
35.200000291117568
 20
118.9902830784478
 30
0.0
 42
-0.2562769743570819
  0
VERTEX
  5
1B2A
  8
SAPA_PROFIL
 10
35.29253128986597
 20
119.15895558293499
 30
0.0
  0
VERTEX
  5
1B2B
  8
SAPA_PROFIL
 10
36.538796789240088
 20
119.953008584752
 30
0.0
 42
-0.5920056172513317
  0
VERTEX
  5
1B2C
  8
SAPA_PROFIL
 10
37.000000291117473
 20
119.69999982802121
 30
0.0
  0
VERTEX
  5
1B2D
  8
SAPA_PROFIL
 10
37.000000291117573
 20
118.2999998280212
 30
0.0
 42
0.4142135623730916
  0
VERTEX
  5
1B2E
  8
SAPA_PROFIL
 10
37.300000291117577
 20
117.9999998280212
 30
0.0
  0
VERTEX
  5
1B2F
  8
SAPA_PROFIL
 10
39.700000291117568
 20
117.9999998280213
 30
0.0
 42
0.4142135623730118
  0
VERTEX
  5
1B30
  8
SAPA_PROFIL
 10
40.000000291117559
 20
118.2999998280212
 30
0.0
  0
VERTEX
  5
1B31
  8
SAPA_PROFIL
 10
40.000000291117452
 20
135.69999982802119
 30
0.0
 42
0.4142135623730948
  0
VERTEX
  5
1B32
  8
SAPA_PROFIL
 10
39.700000291117561
 20
135.99999982802129
 30
0.0
  0
VERTEX
  5
1B33
  8
SAPA_PROFIL
 10
37.30000029111757
 20
135.99999982802109
 30
0.0
 42
0.4142135623732061
  0
VERTEX
  5
1B34
  8
SAPA_PROFIL
 10
37.000000291117559
 20
135.69999982802119
 30
0.0
  0
VERTEX
  5
1B35
  8
SAPA_PROFIL
 10
37.000000291117459
 20
134.29999982802121
 30
0.0
 42
-0.5877032589248845
  0
VERTEX
  5
1B36
  8
SAPA_PROFIL
 10
36.54204008398986
 20
134.0449536107111
 30
0.0
  0
VERTEX
  5
1B37
  8
SAPA_PROFIL
 10
35.094693486365671
 20
134.9413525879533
 30
0.0
 42
-0.2596812337301443
  0
VERTEX
  5
1B38
  8
SAPA_PROFIL
 10
35.000000291117559
 20
135.11138339949341
 30
0.0
  0
SEQEND
  5
1B39
  8
SAPA_PROFIL
  0
POLYLINE
  5
12B8
  8
SAPA_PROFIL
 66
     1
 10
0.0
 20
0.0
 30
0.0
 70
     1
  0
VERTEX
  5
1B3A
  8
SAPA_PROFIL
 10
44.000000291117559
 20
135.69999983768429
 30
0.0
  0
VERTEX
  5
1B3B
  8
SAPA_PROFIL
 10
45.400000291117557
 20
135.69999983768429
 30
0.0
 42
0.4142135623731021
  0
VERTEX
  5
1B3C
  8
SAPA_PROFIL
 10
45.700000291117547
 20
135.9999998376843
 30
0.0
  0
VERTEX
  5
1B3D
  8
SAPA_PROFIL
 10
45.700000291117547
 20
136.09999983768429
 30
0.0
 42
-0.4142135623730847
  0
VERTEX
  5
1B3E
  8
SAPA_PROFIL
 10
45.900000291117557
 20
136.29999983768431
 30
0.0
  0
VERTEX
  5
1B3F
  8
SAPA_PROFIL
 10
69.100000291117453
 20
136.29999983768431
 30
0.0
 42
-0.41421356237309
  0
VERTEX
  5
1B40
  8
SAPA_PROFIL
 10
69.300000291117485
 20
136.09999983768429
 30
0.0
  0
VERTEX
  5
1B41
  8
SAPA_PROFIL
 10
69.300000291117584
 20
135.9999998376843
 30
0.0
 42
0.4142135623731055
  0
VERTEX
  5
1B42
  8
SAPA_PROFIL
 10
69.600000291117581
 20
135.69999983768429
 30
0.0
  0
VERTEX
  5
1B43
  8
SAPA_PROFIL
 10
71.000000291117459
 20
135.69999983768429
 30
0.0
 42
0.4142135623731991
  0
VERTEX
  5
1B44
  8
SAPA_PROFIL
 10
71.300000291117598
 20
135.9999998376843
 30
0.0
  0
VERTEX
  5
1B45
  8
SAPA_PROFIL
 10
71.300000291117598
 20
136.09999983768429
 30
0.0
 42
-0.4142135623730898
  0
VERTEX
  5
1B46
  8
SAPA_PROFIL
 10
71.500000291117473
 20
136.2999998376842
 30
0.0
  0
VERTEX
  5
1B47
  8
SAPA_PROFIL
 10
73.000000291117445
 20
136.2999998376844
 30
0.0
 42
-0.4142135623731019
  0
VERTEX
  5
1B48
  8
SAPA_PROFIL
 10
73.300000291117456
 20
135.99999983768441
 30
0.0
  0
VERTEX
  5
1B49
  8
SAPA_PROFIL
 10
73.30000029111747
 20
117.9999998339176
 30
0.0
 42
-0.4142135623730951
  0
VERTEX
  5
1B4A
  8
SAPA_PROFIL
 10
73.000000291117459
 20
117.6999998339176
 30
0.0
  0
VERTEX
  5
1B4B
  8
SAPA_PROFIL
 10
71.500000291117573
 20
117.6999998339176
 30
0.0
 42
-0.4142135623730795
  0
VERTEX
  5
1B4C
  8
SAPA_PROFIL
 10
71.300000291117499
 20
117.89999983391751
 30
0.0
  0
VERTEX
  5
1B4D
  8
SAPA_PROFIL
 10
71.300000291117598
 20
117.99999983296389
 30
0.0
 42
0.4142135624945151
  0
VERTEX
  5
1B4E
  8
SAPA_PROFIL
 10
71.000000290993185
 20
118.29999983296391
 30
0.0
  0
VERTEX
  5
1B4F
  8
SAPA_PROFIL
 10
69.600000290993208
 20
118.29999983238351
 30
0.0
 42
0.414213562251668
  0
VERTEX
  5
1B50
  8
SAPA_PROFIL
 10
69.300000291117584
 20
117.99999983238359
 30
0.0
  0
VERTEX
  5
1B51
  8
SAPA_PROFIL
 10
69.300000291117584
 20
117.8999998337556
 30
0.0
 42
-0.4142135621360074
  0
VERTEX
  5
1B52
  8
SAPA_PROFIL
 10
69.100000291279372
 20
117.6999998337555
 30
0.0
  0
VERTEX
  5
1B53
  8
SAPA_PROFIL
 10
45.900000291279461
 20
117.6999998272801
 30
0.0
 42
-0.4142135626101672
  0
VERTEX
  5
1B54
  8
SAPA_PROFIL
 10
45.700000291117561
 20
117.8999998272801
 30
0.0
  0
VERTEX
  5
1B55
  8
SAPA_PROFIL
 10
45.700000291117568
 20
117.99999982865219
 30
0.0
 42
0.4142135624945428
  0
VERTEX
  5
1B56
  8
SAPA_PROFIL
 10
45.400000290993177
 20
118.2999998286522
 30
0.0
  0
VERTEX
  5
1B57
  8
SAPA_PROFIL
 10
44.000000290993171
 20
118.2999998280718
 30
0.0
 42
0.4142135622516402
  0
VERTEX
  5
1B58
  8
SAPA_PROFIL
 10
43.700000291117561
 20
117.99999982807169
 30
0.0
  0
VERTEX
  5
1B59
  8
SAPA_PROFIL
 10
43.700000291117561
 20
117.8999998278691
 30
0.0
 42
-0.414213562258404
  0
VERTEX
  5
1B5A
  8
SAPA_PROFIL
 10
43.500000291195882
 20
117.69999982786911
 30
0.0
  0
VERTEX
  5
1B5B
  8
SAPA_PROFIL
 10
42.000000291242358
 20
117.69999982724509
 30
0.0
 42
-0.4142135624949383
  0
VERTEX
  5
1B5C
  8
SAPA_PROFIL
 10
41.700000291117568
 20
117.99999982724511
 30
0.0
  0
VERTEX
  5
1B5D
  8
SAPA_PROFIL
 10
41.700000291117561
 20
135.9999998376843
 30
0.0
 42
-0.4142135623730882
  0
VERTEX
  5
1B5E
  8
SAPA_PROFIL
 10
42.000000291117537
 20
136.29999983768431
 30
0.0
  0
VERTEX
  5
1B5F
  8
SAPA_PROFIL
 10
43.500000291117573
 20
136.2999998376844
 30
0.0
 42
-0.4142135623730847
  0
VERTEX
  5
1B60
  8
SAPA_PROFIL
 10
43.700000291117561
 20
136.09999983768441
 30
0.0
  0
VERTEX
  5
1B61
  8
SAPA_PROFIL
 10
43.700000291117561
 20
135.9999998376843
 30
0.0
 42
0.4142135623730881
  0
SEQEND
  5
1B62
  8
SAPA_PROFIL
  0
POLYLINE
  5
12B9
  8
SAPA_PROFIL
 62
     4
 66
     1
 10
0.0
 20
0.0
 30
0.0
  0
VERTEX
  5
1B63
  8
SAPA_PROFIL
 62
     4
 10
77.067719205277598
 20
104.0493289552509
 30
0.0
 42
0.5571646428658034
  0
VERTEX
  5
1B64
  8
SAPA_PROFIL
 62
     4
 10
76.200000291122052
 20
103.5123684511141
 30
0.0
  0
VERTEX
  5
1B65
  8
SAPA_PROFIL
 62
     4
 10
76.200000291122507
 20
86.487631214592895
 30
0.0
 42
0.5571645048035741
  0
VERTEX
  5
1B66
  8
SAPA_PROFIL
 62
     4
 10
77.067718978988665
 20
85.950670597631841
 30
0.0
  0
VERTEX
  5
1B67
  8
SAPA_PROFIL
 62
     4
 10
78.733859635056703
 20
86.781377685178555
 30
0.0
 42
0.284385813979063
  0
VERTEX
  5
1B68
  8
SAPA_PROFIL
 62
     4
 10
78.900000291124144
 20
87.04985799365889
 30
0.0
  0
VERTEX
  5
1B69
  8
SAPA_PROFIL
 62
     4
 10
78.900000291124144
 20
102.9501416720482
 30
0.0
 42
0.2843858139786238
  0
VERTEX
  5
1B6A
  8
SAPA_PROFIL
 62
     4
 10
78.733859635057215
 20
103.2186219805285
 30
0.0
  0
VERTEX
  5
1B6B
  8
SAPA_PROFIL
 62
     4
 10
77.06771897898787
 20
104.04932906807559
 30
0.0
  0
SEQEND
  5
1B6C
  8
SAPA_PROFIL
 62
     4
  0
POLYLINE
  5
12BA
  8
SAPA_PROFIL
 62
     4
 66
     1
 10
0.0
 20
0.0
 30
0.0
 70
     1
  0
VERTEX
  5
1B6D
  8
SAPA_PROFIL
 62
     4
 10
79.256831805621715
 20
80.582388648186239
 30
0.0
  0
VERTEX
  5
1B6E
  8
SAPA_PROFIL
 62
     4
 10
79.663392001625851
 20
80.318365369810223
 30
0.0
 42
-0.2539676464751066
  0
VERTEX
  5
1B6F
  8
SAPA_PROFIL
 62
     4
 10
79.800000291121961
 20
80.066764199425535
 30
0.0
  0
VERTEX
  5
1B70
  8
SAPA_PROFIL
 62
     4
 10
79.800000291121961
 20
78.685264614220173
 30
0.0
 42
-0.3152987888790479
  0
VERTEX
  5
1B71
  8
SAPA_PROFIL
 62
     4
 10
79.471010362783801
 20
78.215418303827875
 30
0.0
  0
VERTEX
  5
1B72
  8
SAPA_PROFIL
 62
     4
 10
77.010180172332525
 20
77.319749362919254
 30
0.0
 42
0.2694959974287434
  0
VERTEX
  5
1B73
  8
SAPA_PROFIL
 62
     4
 10
76.817048197988626
 20
77.088230316517908
 30
0.0
 42
0.0612686379508233
  0
VERTEX
  5
1B74
  8
SAPA_PROFIL
 62
     4
 10
76.803464827358113
 20
76.795554883664636
 30
0.0
  0
VERTEX
  5
1B75
  8
SAPA_PROFIL
 62
     4
 10
76.601728148629292
 20
76.44613670635637
 30
0.0
 42
0.5773502691891679
  0
VERTEX
  5
1B76
  8
SAPA_PROFIL
 62
     4
 10
76.783593483423857
 20
76.131136706356784
 30
0.0
  0
VERTEX
  5
1B77
  8
SAPA_PROFIL
 62
     4
 10
77.050708011550171
 20
76.131136706356543
 30
0.0
  0
VERTEX
  5
1B78
  8
SAPA_PROFIL
 62
     4
 10
77.859391472858491
 20
74.732609005722296
 30
0.0
 42
-0.1318219888653519
  0
VERTEX
  5
1B79
  8
SAPA_PROFIL
 62
     4
 10
77.899683869395886
 20
74.582435903249944
 30
0.0
  0
VERTEX
  5
1B7A
  8
SAPA_PROFIL
 62
     4
 10
77.899683869389506
 20
74.399999832813165
 30
0.0
 42
-0.4142135623724291
  0
VERTEX
  5
1B7B
  8
SAPA_PROFIL
 62
     4
 10
77.499683869389884
 20
73.999999832812605
 30
0.0
  0
VERTEX
  5
1B7C
  8
SAPA_PROFIL
 62
     4
 10
74.099683869388883
 20
73.999999832813984
 30
0.0
 42
-0.4142135623744271
  0
VERTEX
  5
1B7D
  8
SAPA_PROFIL
 62
     4
 10
73.699683869387883
 20
74.399999832813165
 30
0.0
  0
VERTEX
  5
1B7E
  8
SAPA_PROFIL
 62
     4
 10
73.699683869387243
 20
74.579615075084462
 30
0.0
 42
-0.1316524975874005
  0
VERTEX
  5
1B7F
  8
SAPA_PROFIL
 62
     4
 10
73.739876248252841
 20
74.729615075081284
 30
0.0
  0
VERTEX
  5
1B80
  8
SAPA_PROFIL
 62
     4
 10
74.666025694905372
 20
76.333752972083545
 30
0.0
 42
0.1316524975875904
  0
VERTEX
  5
1B81
  8
SAPA_PROFIL
 62
     4
 10
74.800000291120142
 20
76.83375297208525
 30
0.0
  0
VERTEX
  5
1B82
  8
SAPA_PROFIL
 62
     4
 10
74.800000291120142
 20
77.24999983281262
 30
0.0
 42
0.4142135623730951
  0
VERTEX
  5
1B83
  8
SAPA_PROFIL
 62
     4
 10
73.800000291120142
 20
78.24999983281262
 30
0.0
  0
VERTEX
  5
1B84
  8
SAPA_PROFIL
 62
     4
 10
70.800000291122871
 20
78.24999983281262
 30
0.0
 42
-0.9999996830128083
  0
VERTEX
  5
1B85
  8
SAPA_PROFIL
 62
     4
 10
70.800000291121052
 20
79.24999983281262
 30
0.0
  0
VERTEX
  5
1B86
  8
SAPA_PROFIL
 62
     4
 10
73.800000291121052
 20
79.24999983281262
 30
0.0
 42
0.4142135623730951
  0
VERTEX
  5
1B87
  8
SAPA_PROFIL
 62
     4
 10
74.800000291121052
 20
80.249999832812605
 30
0.0
  0
VERTEX
  5
1B88
  8
SAPA_PROFIL
 62
     4
 10
74.800000291121052
 20
109.7499998328972
 30
0.0
 42
0.4142135623730951
  0
VERTEX
  5
1B89
  8
SAPA_PROFIL
 62
     4
 10
73.800000291121052
 20
110.7499998328972
 30
0.0
  0
VERTEX
  5
1B8A
  8
SAPA_PROFIL
 62
     4
 10
70.800000291122871
 20
110.7499998328972
 30
0.0
 42
-0.9999999999999998
  0
VERTEX
  5
1B8B
  8
SAPA_PROFIL
 62
     4
 10
70.800000291122871
 20
111.7499998328972
 30
0.0
  0
VERTEX
  5
1B8C
  8
SAPA_PROFIL
 62
     4
 10
73.800000291121052
 20
111.7499998328972
 30
0.0
 42
0.4142135623736278
  0
VERTEX
  5
1B8D
  8
SAPA_PROFIL
 62
     4
 10
74.800000291121052
 20
112.7499998328972
 30
0.0
  0
VERTEX
  5
1B8E
  8
SAPA_PROFIL
 62
     4
 10
74.800000291121052
 20
113.16624669362361
 30
0.0
 42
0.1316524975874375
  0
VERTEX
  5
1B8F
  8
SAPA_PROFIL
 62
     4
 10
74.666025694905017
 20
113.6662466936238
 30
0.0
  0
VERTEX
  5
1B90
  8
SAPA_PROFIL
 62
     4
 10
73.739876248252841
 20
115.2703845906258
 30
0.0
 42
-0.1316524975874
  0
VERTEX
  5
1B91
  8
SAPA_PROFIL
 62
     4
 10
73.699683869387243
 20
115.4203845906253
 30
0.0
  0
VERTEX
  5
1B92
  8
SAPA_PROFIL
 62
     4
 10
73.699683869387883
 20
115.5999998328966
 30
0.0
 42
-0.4142135623744271
  0
VERTEX
  5
1B93
  8
SAPA_PROFIL
 62
     4
 10
74.099683869388883
 20
115.9999998328958
 30
0.0
  0
VERTEX
  5
1B94
  8
SAPA_PROFIL
 62
     4
 10
77.499683869389884
 20
115.9999998328972
 30
0.0
 42
-0.4142135623724291
  0
VERTEX
  5
1B95
  8
SAPA_PROFIL
 62
     4
 10
77.899683869389506
 20
115.5999998328966
 30
0.0
  0
VERTEX
  5
1B96
  8
SAPA_PROFIL
 62
     4
 10
77.899683869395886
 20
115.41756376245991
 30
0.0
 42
-0.1318219888653524
  0
VERTEX
  5
1B97
  8
SAPA_PROFIL
 62
     4
 10
77.859391472858491
 20
115.2673906599875
 30
0.0
  0
VERTEX
  5
1B98
  8
SAPA_PROFIL
 62
     4
 10
77.050708011634157
 20
113.86886295950789
 30
0.0
  0
VERTEX
  5
1B99
  8
SAPA_PROFIL
 62
     4
 10
76.783593483421114
 20
113.86886295950789
 30
0.0
 42
0.577350269189159
  0
VERTEX
  5
1B9A
  8
SAPA_PROFIL
 62
     4
 10
76.601728148626535
 20
113.55386295950829
 30
0.0
  0
VERTEX
  5
1B9B
  8
SAPA_PROFIL
 62
     4
 10
76.803464827303657
 20
113.2044447822896
 30
0.0
 42
0.0612687673629489
  0
VERTEX
  5
1B9C
  8
SAPA_PROFIL
 62
     4
 10
76.817048197989863
 20
112.9117693491894
 30
0.0
 42
0.2694959974285039
  0
VERTEX
  5
1B9D
  8
SAPA_PROFIL
 62
     4
 10
77.010180172333818
 20
112.68025030278891
 30
0.0
  0
VERTEX
  5
1B9E
  8
SAPA_PROFIL
 62
     4
 10
79.471010362786984
 20
111.78458136187921
 30
0.0
 42
-0.3152987888784035
  0
VERTEX
  5
1B9F
  8
SAPA_PROFIL
 62
     4
 10
79.800000291123553
 20
111.314735051486
 30
0.0
  0
VERTEX
  5
1BA0
  8
SAPA_PROFIL
 62
     4
 10
79.800000291121961
 20
109.9332354662815
 30
0.0
 42
-0.2539676464741841
  0
VERTEX
  5
1BA1
  8
SAPA_PROFIL
 62
     4
 10
79.66339200162669
 20
109.6816342958975
 30
0.0
  0
VERTEX
  5
1BA2
  8
SAPA_PROFIL
 62
     4
 10
79.256831805621715
 20
109.4176110175208
 30
0.0
 42
-0.5862177598324623
  0
VERTEX
  5
1BA3
  8
SAPA_PROFIL
 62
     4
 10
78.800000291125201
 20
109.67335283275921
 30
0.0
  0
VERTEX
  5
1BA4
  8
SAPA_PROFIL
 62
     4
 10
78.800000291132875
 20
110.614527513269
 30
0.0
 42
0.3152987888813165
  0
VERTEX
  5
1BA5
  8
SAPA_PROFIL
 62
     4
 10
78.471010362796122
 20
111.0843738236667
 30
0.0
  0
VERTEX
  5
1BA6
  8
SAPA_PROFIL
 62
     4
 10
77.271010362784892
 20
111.52113810479069
 30
0.0
 42
0.5205670505515651
  0
VERTEX
  5
1BA7
  8
SAPA_PROFIL
 62
     4
 10
76.600000291122143
 20
111.0512917943974
 30
0.0
  0
VERTEX
  5
1BA8
  8
SAPA_PROFIL
 62
     4
 10
76.600000291122115
 20
106.0348508537286
 30
0.0
 42
0.3702522326300203
  0
VERTEX
  5
1BA9
  8
SAPA_PROFIL
 62
     4
 10
76.854460243787827
 20
105.73832749193529
 30
0.0
 42
0.0982365330332397
  0
VERTEX
  5
1BAA
  8
SAPA_PROFIL
 62
     4
 10
78.542147018782828
 20
105.64787473372429
 30
0.0
 42
0.3735060174783164
  0
VERTEX
  5
1BAB
  8
SAPA_PROFIL
 62
     4
 10
78.800000291122871
 20
105.9448994016353
 30
0.0
  0
VERTEX
  5
1BAC
  8
SAPA_PROFIL
 62
     4
 10
78.80000029112378
 20
106.373352832758
 30
0.0
 42
-0.5920056181162531
  0
VERTEX
  5
1BAD
  8
SAPA_PROFIL
 62
     4
 10
79.261203793651703
 20
106.6263615890754
 30
0.0
  0
VERTEX
  5
1BAE
  8
SAPA_PROFIL
 62
     4
 10
79.663392001630001
 20
106.3651775129197
 30
0.0
 42
-0.2539676464746725
  0
VERTEX
  5
1BAF
  8
SAPA_PROFIL
 62
     4
 10
79.800000291125343
 20
106.11357634253589
 30
0.0
  0
VERTEX
  5
1BB0
  8
SAPA_PROFIL
 62
     4
 10
79.80000029112378
 20
83.886423323170234
 30
0.0
 42
-0.2539676464741819
  0
VERTEX
  5
1BB1
  8
SAPA_PROFIL
 62
     4
 10
79.663392001630001
 20
83.634822152787393
 30
0.0
  0
VERTEX
  5
1BB2
  8
SAPA_PROFIL
 62
     4
 10
79.26120379365166
 20
83.373638076633583
 30
0.0
 42
-0.5920055144124249
  0
VERTEX
  5
1BB3
  8
SAPA_PROFIL
 62
     4
 10
78.80000029112378
 20
83.626646832949092
 30
0.0
  0
VERTEX
  5
1BB4
  8
SAPA_PROFIL
 62
     4
 10
78.80000031639878
 20
84.055100310239311
 30
0.0
 42
0.3735060174775405
  0
VERTEX
  5
1BB5
  8
SAPA_PROFIL
 62
     4
 10
78.542147044058694
 20
84.352124978149007
 30
0.0
 42
0.0355900683670349
  0
VERTEX
  5
1BB6
  8
SAPA_PROFIL
 62
     4
 10
77.926273457258915
 20
84.396018542181253
 30
0.0
 42
0.0624282003873116
  0
VERTEX
  5
1BB7
  8
SAPA_PROFIL
 62
     4
 10
76.854460269063779
 20
84.261672219938319
 30
0.0
 42
0.3702522326309292
  0
VERTEX
  5
1BB8
  8
SAPA_PROFIL
 62
     4
 10
76.600000316398052
 20
83.965148858144957
 30
0.0
  0
VERTEX
  5
1BB9
  8
SAPA_PROFIL
 62
     4
 10
76.600000291121916
 20
78.948707871311427
 30
0.0
 42
0.5205670505515692
  0
VERTEX
  5
1BBA
  8
SAPA_PROFIL
 62
     4
 10
77.271010362784892
 20
78.478861560918205
 30
0.0
  0
VERTEX
  5
1BBB
  8
SAPA_PROFIL
 62
     4
 10
78.471010362794331
 20
78.915625842043156
 30
0.0
 42
0.3152987888807539
  0
VERTEX
  5
1BBC
  8
SAPA_PROFIL
 62
     4
 10
78.800000291131965
 20
79.385472152438993
 30
0.0
  0
VERTEX
  5
1BBD
  8
SAPA_PROFIL
 62
     4
 10
78.800000291125144
 20
80.326646832948086
 30
0.0
 42
-0.5862175119221242
  0
VERTEX
  5
1BBE
  8
SAPA_PROFIL
 62
     4
 10
79.256831616880277
 20
80.582388763930055
 30
0.0
 42
0.0000002084758573
  0
SEQEND
  5
1BBF
  8
SAPA_PROFIL
 62
     4
  0
POLYLINE
  5
12BB
  8
SAPA_PROFIL
 62
     4
 66
     1
 10
0.0
 20
0.0
 30
0.0
  0
VERTEX
  5
1BC0
  8
SAPA_PROFIL
 62
     4
 10
37.932281376971758
 20
104.0493289552509
 30
0.0
 42
-0.5571646428658034
  0
VERTEX
  5
1BC1
  8
SAPA_PROFIL
 62
     4
 10
38.800000291127311
 20
103.5123684511141
 30
0.0
  0
VERTEX
  5
1BC2
  8
SAPA_PROFIL
 62
     4
 10
38.80000029112685
 20
86.487631214592895
 30
0.0
 42
-0.5571645048035741
  0
VERTEX
  5
1BC3
  8
SAPA_PROFIL
 62
     4
 10
37.932281603260677
 20
85.950670597631841
 30
0.0
  0
VERTEX
  5
1BC4
  8
SAPA_PROFIL
 62
     4
 10
36.266140947192653
 20
86.781377685178555
 30
0.0
 42
-0.284385813979063
  0
VERTEX
  5
1BC5
  8
SAPA_PROFIL
 62
     4
 10
36.10000029112522
 20
87.04985799365889
 30
0.0
  0
VERTEX
  5
1BC6
  8
SAPA_PROFIL
 62
     4
 10
36.10000029112522
 20
102.9501416720482
 30
0.0
 42
-0.2843858139786238
  0
VERTEX
  5
1BC7
  8
SAPA_PROFIL
 62
     4
 10
36.266140947192142
 20
103.2186219805285
 30
0.0
  0
VERTEX
  5
1BC8
  8
SAPA_PROFIL
 62
     4
 10
37.932281603261487
 20
104.04932906807559
 30
0.0
  0
SEQEND
  5
1BC9
  8
SAPA_PROFIL
 62
     4
  0
POLYLINE
  5
12BC
  8
SAPA_PROFIL
 62
     4
 66
     1
 10
0.0
 20
0.0
 30
0.0
 70
     1
  0
VERTEX
  5
1BCA
  8
SAPA_PROFIL
 62
     4
 10
35.743168776627641
 20
80.582388648186239
 30
0.0
  0
VERTEX
  5
1BCB
  8
SAPA_PROFIL
 62
     4
 10
35.336608580623498
 20
80.318365369810223
 30
0.0
 42
0.2539676464751066
  0
VERTEX
  5
1BCC
  8
SAPA_PROFIL
 62
     4
 10
35.200000291127402
 20
80.066764199425535
 30
0.0
  0
VERTEX
  5
1BCD
  8
SAPA_PROFIL
 62
     4
 10
35.200000291127402
 20
78.685264614220173
 30
0.0
 42
0.3152987888790479
  0
VERTEX
  5
1BCE
  8
SAPA_PROFIL
 62
     4
 10
35.528990219465562
 20
78.215418303827875
 30
0.0
  0
VERTEX
  5
1BCF
  8
SAPA_PROFIL
 62
     4
 10
37.989820409916831
 20
77.319749362919254
 30
0.0
 42
-0.2694959974287434
  0
VERTEX
  5
1BD0
  8
SAPA_PROFIL
 62
     4
 10
38.18295238426073
 20
77.088230316517908
 30
0.0
 42
-0.0612686379508233
  0
VERTEX
  5
1BD1
  8
SAPA_PROFIL
 62
     4
 10
38.196535754891251
 20
76.795554883664636
 30
0.0
  0
VERTEX
  5
1BD2
  8
SAPA_PROFIL
 62
     4
 10
38.398272433620072
 20
76.44613670635637
 30
0.0
 42
-0.5773502691891679
  0
VERTEX
  5
1BD3
  8
SAPA_PROFIL
 62
     4
 10
38.216407098825499
 20
76.131136706356784
 30
0.0
  0
VERTEX
  5
1BD4
  8
SAPA_PROFIL
 62
     4
 10
37.949292570699178
 20
76.131136706356543
 30
0.0
  0
VERTEX
  5
1BD5
  8
SAPA_PROFIL
 62
     4
 10
37.140609109390873
 20
74.732609005722296
 30
0.0
 42
0.1318219888653519
  0
VERTEX
  5
1BD6
  8
SAPA_PROFIL
 62
     4
 10
37.10031671285347
 20
74.582435903249944
 30
0.0
  0
VERTEX
  5
1BD7
  8
SAPA_PROFIL
 62
     4
 10
37.100316712859843
 20
74.399999832813165
 30
0.0
 42
0.4142135623724291
  0
VERTEX
  5
1BD8
  8
SAPA_PROFIL
 62
     4
 10
37.50031671285948
 20
73.999999832812605
 30
0.0
  0
VERTEX
  5
1BD9
  8
SAPA_PROFIL
 62
     4
 10
40.900316712860473
 20
73.999999832813984
 30
0.0
 42
0.4142135623744271
  0
VERTEX
  5
1BDA
  8
SAPA_PROFIL
 62
     4
 10
41.300316712861473
 20
74.399999832813165
 30
0.0
  0
VERTEX
  5
1BDB
  8
SAPA_PROFIL
 62
     4
 10
41.300316712862113
 20
74.579615075084462
 30
0.0
 42
0.1316524975874005
  0
VERTEX
  5
1BDC
  8
SAPA_PROFIL
 62
     4
 10
41.260124333996508
 20
74.729615075081284
 30
0.0
  0
VERTEX
  5
1BDD
  8
SAPA_PROFIL
 62
     4
 10
40.33397488734397
 20
76.333752972083545
 30
0.0
 42
-0.1316524975875904
  0
VERTEX
  5
1BDE
  8
SAPA_PROFIL
 62
     4
 10
40.200000291129207
 20
76.83375297208525
 30
0.0
  0
VERTEX
  5
1BDF
  8
SAPA_PROFIL
 62
     4
 10
40.200000291129207
 20
77.24999983281262
 30
0.0
 42
-0.4142135623730951
  0
VERTEX
  5
1BE0
  8
SAPA_PROFIL
 62
     4
 10
41.200000291129207
 20
78.24999983281262
 30
0.0
  0
VERTEX
  5
1BE1
  8
SAPA_PROFIL
 62
     4
 10
44.200000291126493
 20
78.24999983281262
 30
0.0
 42
0.9999996830128083
  0
VERTEX
  5
1BE2
  8
SAPA_PROFIL
 62
     4
 10
44.200000291128298
 20
79.24999983281262
 30
0.0
  0
VERTEX
  5
1BE3
  8
SAPA_PROFIL
 62
     4
 10
41.200000291128298
 20
79.24999983281262
 30
0.0
 42
-0.4142135623730951
  0
VERTEX
  5
1BE4
  8
SAPA_PROFIL
 62
     4
 10
40.200000291128298
 20
80.249999832812605
 30
0.0
  0
VERTEX
  5
1BE5
  8
SAPA_PROFIL
 62
     4
 10
40.200000291128298
 20
109.7499998328972
 30
0.0
 42
-0.4142135623730951
  0
VERTEX
  5
1BE6
  8
SAPA_PROFIL
 62
     4
 10
41.200000291128298
 20
110.7499998328972
 30
0.0
  0
VERTEX
  5
1BE7
  8
SAPA_PROFIL
 62
     4
 10
44.200000291126493
 20
110.7499998328972
 30
0.0
 42
0.9999999999999998
  0
VERTEX
  5
1BE8
  8
SAPA_PROFIL
 62
     4
 10
44.200000291126493
 20
111.7499998328972
 30
0.0
  0
VERTEX
  5
1BE9
  8
SAPA_PROFIL
 62
     4
 10
41.200000291128298
 20
111.7499998328972
 30
0.0
 42
-0.4142135623736278
  0
VERTEX
  5
1BEA
  8
SAPA_PROFIL
 62
     4
 10
40.200000291128298
 20
112.7499998328972
 30
0.0
  0
VERTEX
  5
1BEB
  8
SAPA_PROFIL
 62
     4
 10
40.200000291128298
 20
113.16624669362361
 30
0.0
 42
-0.1316524975874375
  0
VERTEX
  5
1BEC
  8
SAPA_PROFIL
 62
     4
 10
40.33397488734434
 20
113.6662466936238
 30
0.0
  0
VERTEX
  5
1BED
  8
SAPA_PROFIL
 62
     4
 10
41.260124333996508
 20
115.2703845906258
 30
0.0
 42
0.1316524975874
  0
VERTEX
  5
1BEE
  8
SAPA_PROFIL
 62
     4
 10
41.300316712862099
 20
115.4203845906253
 30
0.0
  0
VERTEX
  5
1BEF
  8
SAPA_PROFIL
 62
     4
 10
41.300316712861473
 20
115.5999998328966
 30
0.0
 42
0.4142135623744271
  0
VERTEX
  5
1BF0
  8
SAPA_PROFIL
 62
     4
 10
40.900316712860473
 20
115.9999998328958
 30
0.0
  0
VERTEX
  5
1BF1
  8
SAPA_PROFIL
 62
     4
 10
37.50031671285948
 20
115.9999998328972
 30
0.0
 42
0.4142135623724291
  0
VERTEX
  5
1BF2
  8
SAPA_PROFIL
 62
     4
 10
37.100316712859843
 20
115.5999998328966
 30
0.0
  0
VERTEX
  5
1BF3
  8
SAPA_PROFIL
 62
     4
 10
37.10031671285347
 20
115.41756376245991
 30
0.0
 42
0.1318219888653524
  0
VERTEX
  5
1BF4
  8
SAPA_PROFIL
 62
     4
 10
37.140609109390873
 20
115.2673906599875
 30
0.0
  0
VERTEX
  5
1BF5
  8
SAPA_PROFIL
 62
     4
 10
37.949292570615199
 20
113.86886295950789
 30
0.0
  0
VERTEX
  5
1BF6
  8
SAPA_PROFIL
 62
     4
 10
38.216407098828242
 20
113.86886295950789
 30
0.0
 42
-0.577350269189159
  0
VERTEX
  5
1BF7
  8
SAPA_PROFIL
 62
     4
 10
38.3982724336228
 20
113.55386295950829
 30
0.0
  0
VERTEX
  5
1BF8
  8
SAPA_PROFIL
 62
     4
 10
38.196535754945693
 20
113.2044447822896
 30
0.0
 42
-0.0612687673629489
  0
VERTEX
  5
1BF9
  8
SAPA_PROFIL
 62
     4
 10
38.182952384259487
 20
112.9117693491894
 30
0.0
 42
-0.2694959974285039
  0
VERTEX
  5
1BFA
  8
SAPA_PROFIL
 62
     4
 10
37.989820409915538
 20
112.68025030278891
 30
0.0
  0
VERTEX
  5
1BFB
  8
SAPA_PROFIL
 62
     4
 10
35.528990219462372
 20
111.78458136187921
 30
0.0
 42
0.3152987888784035
  0
VERTEX
  5
1BFC
  8
SAPA_PROFIL
 62
     4
 10
35.200000291125797
 20
111.314735051486
 30
0.0
  0
VERTEX
  5
1BFD
  8
SAPA_PROFIL
 62
     4
 10
35.200000291127402
 20
109.9332354662815
 30
0.0
 42
0.2539676464741841
  0
VERTEX
  5
1BFE
  8
SAPA_PROFIL
 62
     4
 10
35.336608580622674
 20
109.6816342958975
 30
0.0
  0
VERTEX
  5
1BFF
  8
SAPA_PROFIL
 62
     4
 10
35.743168776627641
 20
109.4176110175208
 30
0.0
 42
0.5862177598324623
  0
VERTEX
  5
1C00
  8
SAPA_PROFIL
 62
     4
 10
36.200000291124148
 20
109.67335283275921
 30
0.0
  0
VERTEX
  5
1C01
  8
SAPA_PROFIL
 62
     4
 10
36.200000291116481
 20
110.614527513269
 30
0.0
 42
-0.3152987888813165
  0
VERTEX
  5
1C02
  8
SAPA_PROFIL
 62
     4
 10
36.528990219453227
 20
111.0843738236667
 30
0.0
  0
VERTEX
  5
1C03
  8
SAPA_PROFIL
 62
     4
 10
37.728990219464471
 20
111.52113810479069
 30
0.0
 42
-0.5205670505515651
  0
VERTEX
  5
1C04
  8
SAPA_PROFIL
 62
     4
 10
38.400000291127213
 20
111.0512917943974
 30
0.0
  0
VERTEX
  5
1C05
  8
SAPA_PROFIL
 62
     4
 10
38.400000291127242
 20
106.0348508537286
 30
0.0
 42
-0.3702522326300203
  0
VERTEX
  5
1C06
  8
SAPA_PROFIL
 62
     4
 10
38.145540338461537
 20
105.73832749193529
 30
0.0
 42
-0.0982365330332397
  0
VERTEX
  5
1C07
  8
SAPA_PROFIL
 62
     4
 10
36.457853563466529
 20
105.64787473372429
 30
0.0
 42
-0.3735060174783164
  0
VERTEX
  5
1C08
  8
SAPA_PROFIL
 62
     4
 10
36.200000291126493
 20
105.9448994016353
 30
0.0
  0
VERTEX
  5
1C09
  8
SAPA_PROFIL
 62
     4
 10
36.200000291125583
 20
106.373352832758
 30
0.0
 42
0.5920056181162531
  0
VERTEX
  5
1C0A
  8
SAPA_PROFIL
 62
     4
 10
35.738796788597647
 20
106.6263615890754
 30
0.0
  0
VERTEX
  5
1C0B
  8
SAPA_PROFIL
 62
     4
 10
35.336608580619348
 20
106.3651775129197
 30
0.0
 42
0.2539676464746725
  0
VERTEX
  5
1C0C
  8
SAPA_PROFIL
 62
     4
 10
35.200000291123999
 20
106.11357634253589
 30
0.0
  0
VERTEX
  5
1C0D
  8
SAPA_PROFIL
 62
     4
 10
35.200000291125583
 20
83.886423323170234
 30
0.0
 42
0.2539676464741819
  0
VERTEX
  5
1C0E
  8
SAPA_PROFIL
 62
     4
 10
35.336608580619348
 20
83.634822152787393
 30
0.0
  0
VERTEX
  5
1C0F
  8
SAPA_PROFIL
 62
     4
 10
35.738796788597689
 20
83.373638076633583
 30
0.0
 42
0.5920055144124249
  0
VERTEX
  5
1C10
  8
SAPA_PROFIL
 62
     4
 10
36.200000291125583
 20
83.626646832949092
 30
0.0
  0
VERTEX
  5
1C11
  8
SAPA_PROFIL
 62
     4
 10
36.200000265850569
 20
84.055100310239311
 30
0.0
 42
-0.3735060174775405
  0
VERTEX
  5
1C12
  8
SAPA_PROFIL
 62
     4
 10
36.457853538190662
 20
84.352124978149007
 30
0.0
 42
-0.0355900683670349
  0
VERTEX
  5
1C13
  8
SAPA_PROFIL
 62
     4
 10
37.073727124990448
 20
84.396018542181253
 30
0.0
 42
-0.0624282003873116
  0
VERTEX
  5
1C14
  8
SAPA_PROFIL
 62
     4
 10
38.145540313185577
 20
84.261672219938319
 30
0.0
 42
-0.3702522326309292
  0
VERTEX
  5
1C15
  8
SAPA_PROFIL
 62
     4
 10
38.400000265851297
 20
83.965148858144957
 30
0.0
  0
VERTEX
  5
1C16
  8
SAPA_PROFIL
 62
     4
 10
38.400000291127441
 20
78.948707871311427
 30
0.0
 42
-0.5205670505515692
  0
VERTEX
  5
1C17
  8
SAPA_PROFIL
 62
     4
 10
37.728990219464471
 20
78.478861560918205
 30
0.0
  0
VERTEX
  5
1C18
  8
SAPA_PROFIL
 62
     4
 10
36.528990219455018
 20
78.915625842043156
 30
0.0
 42
-0.3152987888807539
  0
VERTEX
  5
1C19
  8
SAPA_PROFIL
 62
     4
 10
36.200000291117391
 20
79.385472152438993
 30
0.0
  0
VERTEX
  5
1C1A
  8
SAPA_PROFIL
 62
     4
 10
36.200000291124212
 20
80.326646832948086
 30
0.0
 42
0.5862175119221242
  0
VERTEX
  5
1C1B
  8
SAPA_PROFIL
 62
     4
 10
35.743168965369073
 20
80.582388763930055
 30
0.0
 42
-0.0000002084758573
  0
SEQEND
  5
1C1C
  8
SAPA_PROFIL
 62
     4
  0
POLYLINE
  5
12BD
  8
SAPA_PROFIL
 66
     1
 10
0.0
 20
0.0
 30
0.0
 70
     1
  0
VERTEX
  5
1C1D
  8
SAPA_PROFIL
 10
153.0000002872371
 20
135.699999729186
 30
0.0
 42
0.4142135623732614
  0
VERTEX
  5
1C1E
  8
SAPA_PROFIL
 10
152.70000028723689
 20
135.99999972918599
 30
0.0
  0
VERTEX
  5
1C1F
  8
SAPA_PROFIL
 10
150.3000002872368
 20
135.99999972918619
 30
0.0
 42
0.4142135623728731
  0
VERTEX
  5
1C20
  8
SAPA_PROFIL
 10
150.0000002872371
 20
135.699999729186
 30
0.0
  0
VERTEX
  5
1C21
  8
SAPA_PROFIL
 10
150.0000002872371
 20
118.2999997291862
 30
0.0
 42
0.414213562372984
  0
VERTEX
  5
1C22
  8
SAPA_PROFIL
 10
150.3000002872368
 20
117.9999997291862
 30
0.0
  0
VERTEX
  5
1C23
  8
SAPA_PROFIL
 10
152.70000028723689
 20
117.9999997291862
 30
0.0
 42
0.4142135623731505
  0
VERTEX
  5
1C24
  8
SAPA_PROFIL
 10
153.0000002872371
 20
118.2999997291862
 30
0.0
  0
VERTEX
  5
1C25
  8
SAPA_PROFIL
 10
153.0000002872371
 20
119.699999729186
 30
0.0
 42
-0.5920056172513877
  0
VERTEX
  5
1C26
  8
SAPA_PROFIL
 10
153.46120378911479
 20
119.9530084859169
 30
0.0
  0
VERTEX
  5
1C27
  8
SAPA_PROFIL
 10
154.70746928848851
 20
119.15895548409991
 30
0.0
 42
-0.2562769743569776
  0
VERTEX
  5
1C28
  8
SAPA_PROFIL
 10
154.8000002872368
 20
118.990282979613
 30
0.0
  0
VERTEX
  5
1C29
  8
SAPA_PROFIL
 10
154.8000002872368
 20
115.9979367012668
 30
0.0
  0
VERTEX
  5
1C2A
  8
SAPA_PROFIL
 10
154.28933853378189
 20
114.6767183992644
 30
0.0
 42
0.4142135623730717
  0
VERTEX
  5
1C2B
  8
SAPA_PROFIL
 10
154.48930257828931
 20
114.3025334437886
 30
0.0
  0
VERTEX
  5
1C2C
  8
SAPA_PROFIL
 10
154.5371483282878
 20
114.2880150345415
 30
0.0
  0
VERTEX
  5
1C2D
  8
SAPA_PROFIL
 10
154.53723193617139
 20
112.78491395377949
 30
0.0
 42
-0.4769755326981267
  0
VERTEX
  5
1C2E
  8
SAPA_PROFIL
 10
154.16557506122561
 20
112.482661129273
 30
0.0
  0
VERTEX
  5
1C2F
  8
SAPA_PROFIL
 10
152.35234459056741
 20
112.8641077254008
 30
0.0
 42
-0.2216946626430146
  0
VERTEX
  5
1C30
  8
SAPA_PROFIL
 10
151.8114647590906
 20
113.2699166305556
 30
0.0
  0
VERTEX
  5
1C31
  8
SAPA_PROFIL
 10
151.65933084798181
 20
113.5545989137872
 30
0.0
 42
-0.577350269189791
  0
VERTEX
  5
1C32
  8
SAPA_PROFIL
 10
151.84228458809201
 20
113.848755214042
 30
0.0
  0
VERTEX
  5
1C33
  8
SAPA_PROFIL
 10
152.1640423163102
 20
113.83819384781511
 30
0.0
  0
VERTEX
  5
1C34
  8
SAPA_PROFIL
 10
153.248606763282
 20
115.7240375396761
 30
0.0
  0
VERTEX
  5
1C35
  8
SAPA_PROFIL
 10
153.30668040027101
 20
115.9154205396698
 30
0.0
 42
0.7625858545243485
  0
VERTEX
  5
1C36
  8
SAPA_PROFIL
 10
152.97635431925411
 20
116.09999974186729
 30
0.0
 42
-0.2134217652834355
  0
VERTEX
  5
1C37
  8
SAPA_PROFIL
 10
152.7527475215042
 20
115.9999997418672
 30
0.0
  0
VERTEX
  5
1C38
  8
SAPA_PROFIL
 10
148.9014764711479
 20
115.9999997418672
 30
0.0
 42
0.4142135623728178
  0
VERTEX
  5
1C39
  8
SAPA_PROFIL
 10
148.60147647114809
 20
115.6999997418672
 30
0.0
  0
VERTEX
  5
1C3A
  8
SAPA_PROFIL
 10
148.60147647114809
 20
115.39999974186701
 30
0.0
  0
VERTEX
  5
1C3B
  8
SAPA_PROFIL
 10
149.52523690185129
 20
113.7999997418671
 30
0.0
 42
-0.5773502691899271
  0
VERTEX
  5
1C3C
  8
SAPA_PROFIL
 10
149.3520318210945
 20
113.4999997418672
 30
0.0
  0
VERTEX
  5
1C3D
  8
SAPA_PROFIL
 10
147.96639117503949
 20
113.4999997418672
 30
0.0
 42
-0.2679491924311197
  0
VERTEX
  5
1C3E
  8
SAPA_PROFIL
 10
147.1003657712549
 20
113.9999997418672
 30
0.0
  0
VERTEX
  5
1C3F
  8
SAPA_PROFIL
 10
146.09000280168129
 20
115.74999973925441
 30
0.0
 42
0.2679491924311005
  0
VERTEX
  5
1C40
  8
SAPA_PROFIL
 10
145.65699009978931
 20
115.99999973925421
 30
0.0
  0
VERTEX
  5
1C41
  8
SAPA_PROFIL
 10
139.53318462207449
 20
115.99999973925421
 30
0.0
 42
0.1989123673796561
  0
VERTEX
  5
1C42
  8
SAPA_PROFIL
 10
139.17963123148121
 20
115.8535531298475
 30
0.0
  0
VERTEX
  5
1C43
  8
SAPA_PROFIL
 10
133.44297467738329
 20
110.11689657574961
 30
0.0
 42
0.0655434628152104
  0
VERTEX
  5
1C44
  8
SAPA_PROFIL
 10
133.3635153660845
 20
110.0133431851564
 30
0.0
  0
VERTEX
  5
1C45
  8
SAPA_PROFIL
 10
132.20111098712991
 20
107.9999997418672
 30
0.0
 42
-0.2679491924311171
  0
VERTEX
  5
1C46
  8
SAPA_PROFIL
 10
131.33508558334589
 20
107.4999997418672
 30
0.0
  0
VERTEX
  5
1C47
  8
SAPA_PROFIL
 10
129.94944493729039
 20
107.4999997418672
 30
0.0
 42
-0.577350269189955
  0
VERTEX
  5
1C48
  8
SAPA_PROFIL
 10
129.77623985653361
 20
107.7999997418672
 30
0.0
  0
VERTEX
  5
1C49
  8
SAPA_PROFIL
 10
130.7000002872372
 20
109.39999974186701
 30
0.0
  0
VERTEX
  5
1C4A
  8
SAPA_PROFIL
 10
130.7000002872372
 20
109.6999997418672
 30
0.0
 42
0.4142135623728176
  0
VERTEX
  5
1C4B
  8
SAPA_PROFIL
 10
130.40000028723711
 20
109.9999997418672
 30
0.0
  0
VERTEX
  5
1C4C
  8
SAPA_PROFIL
 10
126.5472530612827
 20
109.9999997418671
 30
0.0
 42
-0.2134217652834343
  0
VERTEX
  5
1C4D
  8
SAPA_PROFIL
 10
126.32364626353259
 20
110.09999974186729
 30
0.0
 42
0.7625858545243009
  0
VERTEX
  5
1C4E
  8
SAPA_PROFIL
 10
125.9933201825156
 20
109.9154205396698
 30
0.0
  0
VERTEX
  5
1C4F
  8
SAPA_PROFIL
 10
126.0513938195047
 20
109.7240375396761
 30
0.0
  0
VERTEX
  5
1C50
  8
SAPA_PROFIL
 10
127.13595826647649
 20
107.83819384781501
 30
0.0
  0
VERTEX
  5
1C51
  8
SAPA_PROFIL
 10
127.45771599469469
 20
107.848755214042
 30
0.0
 42
-0.5773502691897854
  0
VERTEX
  5
1C52
  8
SAPA_PROFIL
 10
127.6406697348049
 20
107.5545989137872
 30
0.0
  0
VERTEX
  5
1C53
  8
SAPA_PROFIL
 10
127.4885358236961
 20
107.2699166305555
 30
0.0
 42
-0.2216946626430156
  0
VERTEX
  5
1C54
  8
SAPA_PROFIL
 10
126.9476559922193
 20
106.8641077254007
 30
0.0
  0
VERTEX
  5
1C55
  8
SAPA_PROFIL
 10
125.1344255215611
 20
106.482661129273
 30
0.0
 42
-0.4769755326981147
  0
VERTEX
  5
1C56
  8
SAPA_PROFIL
 10
124.7627686466152
 20
106.78491395377949
 30
0.0
  0
VERTEX
  5
1C57
  8
SAPA_PROFIL
 10
124.7628522544989
 20
108.2880150345415
 30
0.0
  0
VERTEX
  5
1C58
  8
SAPA_PROFIL
 10
124.8106980044974
 20
108.3025334437886
 30
0.0
 42
0.4142135623731185
  0
VERTEX
  5
1C59
  8
SAPA_PROFIL
 10
125.01066204900469
 20
108.6767183992644
 30
0.0
  0
VERTEX
  5
1C5A
  8
SAPA_PROFIL
 10
124.5000002872371
 20
109.9979367227747
 30
0.0
  0
VERTEX
  5
1C5B
  8
SAPA_PROFIL
 10
124.5000002872371
 20
115.6999997384102
 30
0.0
 42
0.4142135623731158
  0
VERTEX
  5
1C5C
  8
SAPA_PROFIL
 10
124.2000002872371
 20
115.9999997384102
 30
0.0
  0
VERTEX
  5
1C5D
  8
SAPA_PROFIL
 10
110.5000002872371
 20
115.9999997384096
 30
0.0
 42
-0.4142135623731122
  0
VERTEX
  5
1C5E
  8
SAPA_PROFIL
 10
110.2000002872374
 20
116.2999997384095
 30
0.0
  0
VERTEX
  5
1C5F
  8
SAPA_PROFIL
 10
110.2000002872374
 20
118.9902829799467
 30
0.0
 42
-0.2562769736732629
  0
VERTEX
  5
1C60
  8
SAPA_PROFIL
 10
110.2925312855528
 20
119.1589554841581
 30
0.0
  0
VERTEX
  5
1C61
  8
SAPA_PROFIL
 10
111.5387967847105
 20
119.9530084903346
 30
0.0
 42
-0.5920056181179856
  0
VERTEX
  5
1C62
  8
SAPA_PROFIL
 10
112.0000002872371
 20
119.69999973401769
 30
0.0
  0
VERTEX
  5
1C63
  8
SAPA_PROFIL
 10
112.0000002872371
 20
118.2999997340176
 30
0.0
 42
0.4142135623729283
  0
VERTEX
  5
1C64
  8
SAPA_PROFIL
 10
112.3000002872369
 20
117.99999973401771
 30
0.0
  0
VERTEX
  5
1C65
  8
SAPA_PROFIL
 10
114.7000002872369
 20
117.9999997340179
 30
0.0
 42
0.4142135623731507
  0
VERTEX
  5
1C66
  8
SAPA_PROFIL
 10
115.0000002872371
 20
118.2999997340176
 30
0.0
  0
VERTEX
  5
1C67
  8
SAPA_PROFIL
 10
115.0000002872371
 20
135.69999973401769
 30
0.0
 42
0.4142135623732614
  0
VERTEX
  5
1C68
  8
SAPA_PROFIL
 10
114.7000002872369
 20
135.9999997340179
 30
0.0
  0
VERTEX
  5
1C69
  8
SAPA_PROFIL
 10
112.3000002872368
 20
135.9999997340179
 30
0.0
 42
0.4142135623732614
  0
VERTEX
  5
1C6A
  8
SAPA_PROFIL
 10
112.0000002872371
 20
135.69999973401769
 30
0.0
  0
VERTEX
  5
1C6B
  8
SAPA_PROFIL
 10
112.0000002872371
 20
134.2999997340176
 30
0.0
 42
-0.5877032589250293
  0
VERTEX
  5
1C6C
  8
SAPA_PROFIL
 10
111.5420400801095
 20
134.04495351670769
 30
0.0
  0
VERTEX
  5
1C6D
  8
SAPA_PROFIL
 10
110.0946934824852
 20
134.94135249395009
 30
0.0
 42
-0.2596812337301278
  0
VERTEX
  5
1C6E
  8
SAPA_PROFIL
 10
110.0000002872371
 20
135.11138330548999
 30
0.0
  0
VERTEX
  5
1C6F
  8
SAPA_PROFIL
 10
110.0000002872371
 20
137.69999973884941
 30
0.0
 42
-0.4142135623731506
  0
VERTEX
  5
1C70
  8
SAPA_PROFIL
 10
110.3000002872373
 20
137.9999997388494
 30
0.0
  0
VERTEX
  5
1C71
  8
SAPA_PROFIL
 10
154.70000028723689
 20
137.9999997388494
 30
0.0
 42
-0.4142135623730951
  0
VERTEX
  5
1C72
  8
SAPA_PROFIL
 10
155.0000002872371
 20
137.69999973884941
 30
0.0
  0
VERTEX
  5
1C73
  8
SAPA_PROFIL
 10
155.0000002872371
 20
135.1113833006585
 30
0.0
 42
-0.2596812337302109
  0
VERTEX
  5
1C74
  8
SAPA_PROFIL
 10
154.9053070919891
 20
134.9413524891184
 30
0.0
  0
VERTEX
  5
1C75
  8
SAPA_PROFIL
 10
153.4579604943647
 20
134.04495351187609
 30
0.0
 42
-0.5877032589248535
  0
VERTEX
  5
1C76
  8
SAPA_PROFIL
 10
153.0000002872371
 20
134.2999997291862
 30
0.0
  0
SEQEND
  5
1C77
  8
SAPA_PROFIL
  0
POLYLINE
  5
12BE
  8
SAPA_PROFIL
 66
     1
 10
0.0
 20
0.0
 30
0.0
 70
     1
  0
VERTEX
  5
1C78
  8
SAPA_PROFIL
 10
120.7000002872374
 20
117.99999972841
 30
0.0
  0
VERTEX
  5
1C79
  8
SAPA_PROFIL
 10
120.7000002872374
 20
117.89999972841051
 30
0.0
 42
0.4142135623717631
  0
VERTEX
  5
1C7A
  8
SAPA_PROFIL
 10
120.90000028723721
 20
117.6999997284116
 30
0.0
  0
VERTEX
  5
1C7B
  8
SAPA_PROFIL
 10
125.9976507087531
 20
117.6999997284325
 30
0.0
 42
-0.4142135623743086
  0
VERTEX
  5
1C7C
  8
SAPA_PROFIL
 10
126.497650708755
 20
117.1999997284325
 30
0.0
  0
VERTEX
  5
1C7D
  8
SAPA_PROFIL
 10
126.497650708755
 20
112.4999997318679
 30
0.0
 42
0.4142135623730951
  0
VERTEX
  5
1C7E
  8
SAPA_PROFIL
 10
126.997650708755
 20
111.9999997318679
 30
0.0
  0
VERTEX
  5
1C7F
  8
SAPA_PROFIL
 10
132.29054392756871
 20
111.9999997318679
 30
0.0
 42
0.1989123673796557
  0
VERTEX
  5
1C80
  8
SAPA_PROFIL
 10
132.6440973181621
 20
112.1464463412745
 30
0.0
  0
VERTEX
  5
1C81
  8
SAPA_PROFIL
 10
138.05120409590251
 20
117.55355311901501
 30
0.0
 42
-0.1989123673785797
  0
VERTEX
  5
1C82
  8
SAPA_PROFIL
 10
138.40475748649351
 20
117.6999997284216
 30
0.0
  0
VERTEX
  5
1C83
  8
SAPA_PROFIL
 10
144.10000028707509
 20
117.69999972844521
 30
0.0
 42
0.4142135626088457
  0
VERTEX
  5
1C84
  8
SAPA_PROFIL
 10
144.3000002872368
 20
117.8999997284451
 30
0.0
  0
VERTEX
  5
1C85
  8
SAPA_PROFIL
 10
144.3000002872368
 20
117.9999997298179
 30
0.0
 42
-0.4142135624942447
  0
VERTEX
  5
1C86
  8
SAPA_PROFIL
 10
144.60000028736161
 20
118.2999997298171
 30
0.0
  0
VERTEX
  5
1C87
  8
SAPA_PROFIL
 10
146.0000002873613
 20
118.2999997292369
 30
0.0
 42
-0.4142135622525002
  0
VERTEX
  5
1C88
  8
SAPA_PROFIL
 10
146.3000002872368
 20
117.99999972923671
 30
0.0
  0
VERTEX
  5
1C89
  8
SAPA_PROFIL
 10
146.3000002872368
 20
117.89999972903441
 30
0.0
 42
0.4142135622578003
  0
VERTEX
  5
1C8A
  8
SAPA_PROFIL
 10
146.50000028715931
 20
117.6999997290346
 30
0.0
  0
VERTEX
  5
1C8B
  8
SAPA_PROFIL
 10
148.00000028711199
 20
117.6999997284107
 30
0.0
 42
0.4142135624952437
  0
VERTEX
  5
1C8C
  8
SAPA_PROFIL
 10
148.3000002872368
 20
117.99999972841
 30
0.0
  0
VERTEX
  5
1C8D
  8
SAPA_PROFIL
 10
148.3000002872368
 20
135.99999973884911
 30
0.0
 42
0.4142135623725402
  0
VERTEX
  5
1C8E
  8
SAPA_PROFIL
 10
148.00000028723761
 20
136.29999973884929
 30
0.0
  0
VERTEX
  5
1C8F
  8
SAPA_PROFIL
 10
146.5000002872375
 20
136.29999973884929
 30
0.0
 42
0.4142135623739274
  0
VERTEX
  5
1C90
  8
SAPA_PROFIL
 10
146.3000002872368
 20
136.0999997388495
 30
0.0
  0
VERTEX
  5
1C91
  8
SAPA_PROFIL
 10
146.3000002872368
 20
135.99999973884911
 30
0.0
 42
-0.4142135623730951
  0
VERTEX
  5
1C92
  8
SAPA_PROFIL
 10
146.00000028723761
 20
135.6999997388499
 30
0.0
  0
VERTEX
  5
1C93
  8
SAPA_PROFIL
 10
144.60000028723701
 20
135.6999997388499
 30
0.0
 42
-0.4142135623735391
  0
VERTEX
  5
1C94
  8
SAPA_PROFIL
 10
144.3000002872368
 20
135.99999973884911
 30
0.0
  0
VERTEX
  5
1C95
  8
SAPA_PROFIL
 10
144.3000002872368
 20
136.0999997388495
 30
0.0
 42
0.4142135623730951
  0
VERTEX
  5
1C96
  8
SAPA_PROFIL
 10
144.10000028723701
 20
136.29999973884929
 30
0.0
  0
VERTEX
  5
1C97
  8
SAPA_PROFIL
 10
120.90000028723721
 20
136.29999973884929
 30
0.0
 42
0.4142135623730951
  0
VERTEX
  5
1C98
  8
SAPA_PROFIL
 10
120.7000002872374
 20
136.0999997388495
 30
0.0
  0
VERTEX
  5
1C99
  8
SAPA_PROFIL
 10
120.7000002872374
 20
135.99999973884911
 30
0.0
 42
-0.4142135623726234
  0
VERTEX
  5
1C9A
  8
SAPA_PROFIL
 10
120.40000028723721
 20
135.6999997388499
 30
0.0
  0
VERTEX
  5
1C9B
  8
SAPA_PROFIL
 10
119.0000002872376
 20
135.6999997388499
 30
0.0
 42
-0.4142135623736224
  0
VERTEX
  5
1C9C
  8
SAPA_PROFIL
 10
118.7000002872374
 20
135.99999973884911
 30
0.0
  0
VERTEX
  5
1C9D
  8
SAPA_PROFIL
 10
118.7000002872374
 20
136.0999997388495
 30
0.0
 42
0.414213562373012
  0
VERTEX
  5
1C9E
  8
SAPA_PROFIL
 10
118.5000002872376
 20
136.29999973884929
 30
0.0
  0
VERTEX
  5
1C9F
  8
SAPA_PROFIL
 10
117.0000002872376
 20
136.29999973884929
 30
0.0
 42
0.4142135623726511
  0
VERTEX
  5
1CA0
  8
SAPA_PROFIL
 10
116.7000002872374
 20
135.99999973885011
 30
0.0
  0
VERTEX
  5
1CA1
  8
SAPA_PROFIL
 10
116.7000002872374
 20
117.99999972841
 30
0.0
 42
0.4142135623735391
  0
VERTEX
  5
1CA2
  8
SAPA_PROFIL
 10
117.0000002872376
 20
117.6999997284107
 30
0.0
  0
VERTEX
  5
1CA3
  8
SAPA_PROFIL
 10
118.5000002872376
 20
117.6999997284107
 30
0.0
 42
0.4142135623716799
  0
VERTEX
  5
1CA4
  8
SAPA_PROFIL
 10
118.7000002872383
 20
117.89999972841051
 30
0.0
  0
VERTEX
  5
1CA5
  8
SAPA_PROFIL
 10
118.7000002872374
 20
117.99999972841
 30
0.0
 42
-0.4142135623731782
  0
VERTEX
  5
1CA6
  8
SAPA_PROFIL
 10
119.0000002872376
 20
118.2999997284101
 30
0.0
  0
VERTEX
  5
1CA7
  8
SAPA_PROFIL
 10
120.40000028723721
 20
118.2999997284101
 30
0.0
 42
-0.4142135623721793
  0
SEQEND
  5
1CA8
  8
SAPA_PROFIL
  0
POLYLINE
  5
12BF
  8
SAPA_PROFIL
 66
     1
 10
0.0
 20
0.0
 30
0.0
 70
     1
  0
VERTEX
  5
1CA9
  8
SAPA_PROFIL
 10
120.8992524027278
 20
72.299999757372433
 30
0.0
  0
VERTEX
  5
1CAA
  8
SAPA_PROFIL
 10
125.9969028242437
 20
72.299999757351515
 30
0.0
 42
0.4142135623743086
  0
VERTEX
  5
1CAB
  8
SAPA_PROFIL
 10
126.49690282424559
 20
72.799999757351515
 30
0.0
  0
VERTEX
  5
1CAC
  8
SAPA_PROFIL
 10
126.49690282424559
 20
77.499999753916171
 30
0.0
 42
-0.4142135623730951
  0
VERTEX
  5
1CAD
  8
SAPA_PROFIL
 10
126.99690282424559
 20
77.999999753916171
 30
0.0
  0
VERTEX
  5
1CAE
  8
SAPA_PROFIL
 10
132.28979604305931
 20
77.999999753916171
 30
0.0
 42
-0.1989123673796349
  0
VERTEX
  5
1CAF
  8
SAPA_PROFIL
 10
132.6433494336527
 20
77.853553144509505
 30
0.0
  0
VERTEX
  5
1CB0
  8
SAPA_PROFIL
 10
138.05045621139311
 20
72.446446366769095
 30
0.0
 42
0.1989123673785585
  0
VERTEX
  5
1CB1
  8
SAPA_PROFIL
 10
138.4040096019842
 20
72.299999757362428
 30
0.0
  0
VERTEX
  5
1CB2
  8
SAPA_PROFIL
 10
144.0992524025657
 20
72.299999757337872
 30
0.0
 42
-0.4142135626101776
  0
VERTEX
  5
1CB3
  8
SAPA_PROFIL
 10
144.29925240272749
 20
72.099999757338054
 30
0.0
  0
VERTEX
  5
1CB4
  8
SAPA_PROFIL
 10
144.29925240272749
 20
71.999999755966172
 30
0.0
 42
0.4142135624938007
  0
VERTEX
  5
1CB5
  8
SAPA_PROFIL
 10
144.59925240285219
 20
71.69999975596599
 30
0.0
  0
VERTEX
  5
1CB6
  8
SAPA_PROFIL
 10
145.99925240285179
 20
71.699999756546248
 30
0.0
 42
0.4142135622516124
  0
VERTEX
  5
1CB7
  8
SAPA_PROFIL
 10
146.2992524027274
 20
71.99999975654643
 30
0.0
  0
VERTEX
  5
1CB8
  8
SAPA_PROFIL
 10
146.2992524027274
 20
72.099999756748701
 30
0.0
 42
-0.4142135622584663
  0
VERTEX
  5
1CB9
  8
SAPA_PROFIL
 10
146.49925240265
 20
72.299999756749415
 30
0.0
  0
VERTEX
  5
1CBA
  8
SAPA_PROFIL
 10
147.99925240260271
 20
72.299999757373342
 30
0.0
 42
-0.4142135624956875
  0
VERTEX
  5
1CBB
  8
SAPA_PROFIL
 10
148.2992524027274
 20
71.99999975737316
 30
0.0
  0
VERTEX
  5
1CBC
  8
SAPA_PROFIL
 10
148.2992524027274
 20
53.999999746933987
 30
0.0
 42
-0.414213562373428
  0
VERTEX
  5
1CBD
  8
SAPA_PROFIL
 10
147.99925240272819
 20
53.699999746933813
 30
0.0
  0
VERTEX
  5
1CBE
  8
SAPA_PROFIL
 10
146.49925240272819
 20
53.699999746933813
 30
0.0
 42
-0.4142135623725956
  0
VERTEX
  5
1CBF
  8
SAPA_PROFIL
 10
146.2992524027274
 20
53.899999746933617
 30
0.0
  0
VERTEX
  5
1CC0
  8
SAPA_PROFIL
 10
146.2992524027274
 20
53.999999746933987
 30
0.0
 42
0.414213562373539
  0
VERTEX
  5
1CC1
  8
SAPA_PROFIL
 10
145.99925240272819
 20
54.299999746934169
 30
0.0
  0
VERTEX
  5
1CC2
  8
SAPA_PROFIL
 10
144.59925240272759
 20
54.299999746934169
 30
0.0
 42
0.414213562373983
  0
VERTEX
  5
1CC3
  8
SAPA_PROFIL
 10
144.29925240272749
 20
53.999999746933987
 30
0.0
  0
VERTEX
  5
1CC4
  8
SAPA_PROFIL
 10
144.29925240272749
 20
53.899999746933617
 30
0.0
 42
-0.4142135623717631
  0
VERTEX
  5
1CC5
  8
SAPA_PROFIL
 10
144.09925240272759
 20
53.699999746933813
 30
0.0
  0
VERTEX
  5
1CC6
  8
SAPA_PROFIL
 10
120.8992524027278
 20
53.699999746933798
 30
0.0
 42
-0.4142135623717631
  0
VERTEX
  5
1CC7
  8
SAPA_PROFIL
 10
120.69925240272801
 20
53.899999746933617
 30
0.0
  0
VERTEX
  5
1CC8
  8
SAPA_PROFIL
 10
120.69925240272801
 20
53.99999974693398
 30
0.0
 42
0.4142135623730673
  0
VERTEX
  5
1CC9
  8
SAPA_PROFIL
 10
120.3992524027278
 20
54.299999746934162
 30
0.0
  0
VERTEX
  5
1CCA
  8
SAPA_PROFIL
 10
118.9992524027282
 20
54.299999746934162
 30
0.0
 42
0.4142135623740661
  0
VERTEX
  5
1CCB
  8
SAPA_PROFIL
 10
118.69925240272801
 20
53.99999974693398
 30
0.0
  0
VERTEX
  5
1CCC
  8
SAPA_PROFIL
 10
118.69925240272801
 20
53.899999746933617
 30
0.0
 42
-0.4142135623716799
  0
VERTEX
  5
1CCD
  8
SAPA_PROFIL
 10
118.4992524027282
 20
53.699999746933798
 30
0.0
  0
VERTEX
  5
1CCE
  8
SAPA_PROFIL
 10
116.9992524027282
 20
53.699999746933798
 30
0.0
 42
-0.414213562373983
  0
VERTEX
  5
1CCF
  8
SAPA_PROFIL
 10
116.69925240272801
 20
53.99999974693398
 30
0.0
  0
VERTEX
  5
1CD0
  8
SAPA_PROFIL
 10
116.69925240272801
 20
71.99999975737316
 30
0.0
 42
-0.414213562373983
  0
VERTEX
  5
1CD1
  8
SAPA_PROFIL
 10
116.9992524027282
 20
72.299999757374252
 30
0.0
  0
VERTEX
  5
1CD2
  8
SAPA_PROFIL
 10
118.4992524027282
 20
72.299999757373342
 30
0.0
 42
-0.41421356237168
  0
VERTEX
  5
1CD3
  8
SAPA_PROFIL
 10
118.6992524027289
 20
72.099999757373524
 30
0.0
  0
VERTEX
  5
1CD4
  8
SAPA_PROFIL
 10
118.69925240272801
 20
71.99999975737316
 30
0.0
 42
0.4142135623740662
  0
VERTEX
  5
1CD5
  8
SAPA_PROFIL
 10
118.9992524027282
 20
71.699999757372069
 30
0.0
  0
VERTEX
  5
1CD6
  8
SAPA_PROFIL
 10
120.3992524027278
 20
71.699999757372964
 30
0.0
 42
0.4142135623730673
  0
VERTEX
  5
1CD7
  8
SAPA_PROFIL
 10
120.69925240272801
 20
71.99999975737316
 30
0.0
  0
VERTEX
  5
1CD8
  8
SAPA_PROFIL
 10
120.69925240272801
 20
72.099999757373524
 30
0.0
 42
-0.4142135623730951
  0
SEQEND
  5
1CD9
  8
SAPA_PROFIL
  0
POLYLINE
  5
12C0
  8
SAPA_PROFIL
 66
     1
 10
0.0
 20
0.0
 30
0.0
 70
     1
  0
VERTEX
  5
1CDA
  8
SAPA_PROFIL
 10
110.2992524027279
 20
51.999999746933739
 30
0.0
 42
-0.4142135623731506
  0
VERTEX
  5
1CDB
  8
SAPA_PROFIL
 10
109.99925240272771
 20
52.2999997469337
 30
0.0
  0
VERTEX
  5
1CDC
  8
SAPA_PROFIL
 10
109.99925240272771
 20
54.888616180293141
 30
0.0
 42
-0.2596812337301906
  0
VERTEX
  5
1CDD
  8
SAPA_PROFIL
 10
110.0939455979758
 20
55.058646991833221
 30
0.0
  0
VERTEX
  5
1CDE
  8
SAPA_PROFIL
 10
111.54129219560009
 20
55.955045969075591
 30
0.0
 42
-0.5877032589250293
  0
VERTEX
  5
1CDF
  8
SAPA_PROFIL
 10
111.99925240272771
 20
55.699999751765247
 30
0.0
  0
VERTEX
  5
1CE0
  8
SAPA_PROFIL
 10
111.99925240272771
 20
54.299999751765391
 30
0.0
 42
0.4142135623732611
  0
VERTEX
  5
1CE1
  8
SAPA_PROFIL
 10
112.2992524027274
 20
53.999999751765444
 30
0.0
  0
VERTEX
  5
1CE2
  8
SAPA_PROFIL
 10
114.6992524027275
 20
53.999999751765444
 30
0.0
 42
0.4142135623732614
  0
VERTEX
  5
1CE3
  8
SAPA_PROFIL
 10
114.99925240272771
 20
54.299999751765391
 30
0.0
  0
VERTEX
  5
1CE4
  8
SAPA_PROFIL
 10
114.99925240272771
 20
71.699999751765262
 30
0.0
 42
0.4142135623731507
  0
VERTEX
  5
1CE5
  8
SAPA_PROFIL
 10
114.6992524027275
 20
71.999999751765444
 30
0.0
  0
VERTEX
  5
1CE6
  8
SAPA_PROFIL
 10
112.2992524027274
 20
71.999999751765444
 30
0.0
 42
0.4142135623729288
  0
VERTEX
  5
1CE7
  8
SAPA_PROFIL
 10
111.99925240272771
 20
71.699999751765262
 30
0.0
  0
VERTEX
  5
1CE8
  8
SAPA_PROFIL
 10
111.99925240272771
 20
70.299999751765398
 30
0.0
 42
-0.5920056181179877
  0
VERTEX
  5
1CE9
  8
SAPA_PROFIL
 10
111.5380489002011
 20
70.04699099544834
 30
0.0
  0
VERTEX
  5
1CEA
  8
SAPA_PROFIL
 10
110.2917834010434
 20
70.841044001624795
 30
0.0
 42
-0.2562769736732561
  0
VERTEX
  5
1CEB
  8
SAPA_PROFIL
 10
110.19925240272801
 20
71.009716505836167
 30
0.0
  0
VERTEX
  5
1CEC
  8
SAPA_PROFIL
 10
110.19925240272801
 20
73.699999747373852
 30
0.0
 42
-0.4142135623731227
  0
VERTEX
  5
1CED
  8
SAPA_PROFIL
 10
110.49925240272771
 20
73.999999747373579
 30
0.0
  0
VERTEX
  5
1CEE
  8
SAPA_PROFIL
 10
124.19925240033351
 20
73.999999747372669
 30
0.0
 42
0.4142135623731348
  0
VERTEX
  5
1CEF
  8
SAPA_PROFIL
 10
124.4992524003335
 20
74.299999747372681
 30
0.0
  0
VERTEX
  5
1CF0
  8
SAPA_PROFIL
 10
124.4992328110618
 20
80.002062763008425
 30
0.0
  0
VERTEX
  5
1CF1
  8
SAPA_PROFIL
 10
125.0098945728295
 20
81.323281086518733
 30
0.0
 42
0.4142135623731303
  0
VERTEX
  5
1CF2
  8
SAPA_PROFIL
 10
124.8099305283221
 20
81.697466041994545
 30
0.0
  0
VERTEX
  5
1CF3
  8
SAPA_PROFIL
 10
124.7620847783236
 20
81.711984451241648
 30
0.0
  0
VERTEX
  5
1CF4
  8
SAPA_PROFIL
 10
124.76200117044
 20
83.215085532003656
 30
0.0
 42
-0.4769755326981353
  0
VERTEX
  5
1CF5
  8
SAPA_PROFIL
 10
125.1336580453858
 20
83.517338356510123
 30
0.0
  0
VERTEX
  5
1CF6
  8
SAPA_PROFIL
 10
126.9468885160441
 20
83.135891760382407
 30
0.0
 42
-0.221694662643019
  0
VERTEX
  5
1CF7
  8
SAPA_PROFIL
 10
127.4877683475209
 20
82.730082855227607
 30
0.0
  0
VERTEX
  5
1CF8
  8
SAPA_PROFIL
 10
127.6399022586296
 20
82.445400571995975
 30
0.0
 42
-0.5773502691897667
  0
VERTEX
  5
1CF9
  8
SAPA_PROFIL
 10
127.4569485185194
 20
82.151244271741149
 30
0.0
  0
VERTEX
  5
1CFA
  8
SAPA_PROFIL
 10
127.13519079030119
 20
82.161805637968115
 30
0.0
  0
VERTEX
  5
1CFB
  8
SAPA_PROFIL
 10
126.0506263433295
 20
80.275961946107074
 30
0.0
  0
VERTEX
  5
1CFC
  8
SAPA_PROFIL
 10
125.9925527063404
 20
80.084578946113339
 30
0.0
 42
0.7625858545242981
  0
VERTEX
  5
1CFD
  8
SAPA_PROFIL
 10
126.3228787873574
 20
79.899999743915856
 30
0.0
 42
-0.2134217652834271
  0
VERTEX
  5
1CFE
  8
SAPA_PROFIL
 10
126.5464855851075
 20
79.999999743915993
 30
0.0
  0
VERTEX
  5
1CFF
  8
SAPA_PROFIL
 10
130.39925240033409
 20
79.99999974391595
 30
0.0
 42
0.4142135623727101
  0
VERTEX
  5
1D00
  8
SAPA_PROFIL
 10
130.6992524003343
 20
80.299999743916118
 30
0.0
  0
VERTEX
  5
1D01
  8
SAPA_PROFIL
 10
130.6992524003343
 20
80.599999743916086
 30
0.0
  0
VERTEX
  5
1D02
  8
SAPA_PROFIL
 10
129.77549196963059
 20
82.199999743915981
 30
0.0
 42
-0.5773502691899465
  0
VERTEX
  5
1D03
  8
SAPA_PROFIL
 10
129.94869705038741
 20
82.499999743915936
 30
0.0
  0
VERTEX
  5
1D04
  8
SAPA_PROFIL
 10
131.3343376964429
 20
82.49999974391595
 30
0.0
 42
-0.2679491924311184
  0
VERTEX
  5
1D05
  8
SAPA_PROFIL
 10
132.20036310022701
 20
81.999999743915936
 30
0.0
  0
VERTEX
  5
1D06
  8
SAPA_PROFIL
 10
133.36276747591091
 20
79.98665630629182
 30
0.0
 42
0.0655434628151955
  0
VERTEX
  5
1D07
  8
SAPA_PROFIL
 10
133.44222678720979
 20
79.883102915698615
 30
0.0
  0
VERTEX
  5
1D08
  8
SAPA_PROFIL
 10
139.17888334697281
 20
74.146446355935652
 30
0.0
 42
0.1989123673796584
  0
VERTEX
  5
1D09
  8
SAPA_PROFIL
 10
139.532436737566
 20
73.999999746528914
 30
0.0
  0
VERTEX
  5
1D0A
  8
SAPA_PROFIL
 10
145.65624221527989
 20
73.999999746528914
 30
0.0
 42
0.267949192431097
  0
VERTEX
  5
1D0B
  8
SAPA_PROFIL
 10
146.0892549171719
 20
74.249999746528928
 30
0.0
  0
VERTEX
  5
1D0C
  8
SAPA_PROFIL
 10
147.09961788674559
 20
75.99999974391595
 30
0.0
 42
-0.2679491924311214
  0
VERTEX
  5
1D0D
  8
SAPA_PROFIL
 10
147.9656432905301
 20
76.49999974391595
 30
0.0
  0
VERTEX
  5
1D0E
  8
SAPA_PROFIL
 10
149.35128393658511
 20
76.499999743915964
 30
0.0
 42
-0.5773502691899651
  0
VERTEX
  5
1D0F
  8
SAPA_PROFIL
 10
149.52448901734189
 20
76.19999974391601
 30
0.0
  0
VERTEX
  5
1D10
  8
SAPA_PROFIL
 10
148.6007285866387
 20
74.599999743916101
 30
0.0
  0
VERTEX
  5
1D11
  8
SAPA_PROFIL
 10
148.6007285866387
 20
74.299999743916146
 30
0.0
 42
0.4142135623727065
  0
VERTEX
  5
1D12
  8
SAPA_PROFIL
 10
148.90072858663839
 20
73.999999743915964
 30
0.0
  0
VERTEX
  5
1D13
  8
SAPA_PROFIL
 10
152.75349540602269
 20
73.999999739647919
 30
0.0
 42
-0.2134217652834245
  0
VERTEX
  5
1D14
  8
SAPA_PROFIL
 10
152.9771022037726
 20
73.899999739647782
 30
0.0
 42
0.7625858545243379
  0
VERTEX
  5
1D15
  8
SAPA_PROFIL
 10
153.30742828478949
 20
74.084578941845265
 30
0.0
  0
VERTEX
  5
1D16
  8
SAPA_PROFIL
 10
153.24935464780049
 20
74.275961941838986
 30
0.0
  0
VERTEX
  5
1D17
  8
SAPA_PROFIL
 10
152.1647902008288
 20
76.161805633700041
 30
0.0
  0
VERTEX
  5
1D18
  8
SAPA_PROFIL
 10
151.8430324726105
 20
76.151244267473075
 30
0.0
 42
-0.5773502691897808
  0
VERTEX
  5
1D19
  8
SAPA_PROFIL
 10
151.6600787325003
 20
76.445400567727901
 30
0.0
  0
VERTEX
  5
1D1A
  8
SAPA_PROFIL
 10
151.81221264360909
 20
76.730082850959533
 30
0.0
 42
-0.2216946626430179
  0
VERTEX
  5
1D1B
  8
SAPA_PROFIL
 10
152.3530924750859
 20
77.135891756114333
 30
0.0
  0
VERTEX
  5
1D1C
  8
SAPA_PROFIL
 10
154.1663229457441
 20
77.517338352242049
 30
0.0
 42
-0.4769755326981279
  0
VERTEX
  5
1D1D
  8
SAPA_PROFIL
 10
154.53797982068991
 20
77.215085527735582
 30
0.0
  0
VERTEX
  5
1D1E
  8
SAPA_PROFIL
 10
154.53789621280629
 20
75.711984446973574
 30
0.0
  0
VERTEX
  5
1D1F
  8
SAPA_PROFIL
 10
154.49005046280789
 20
75.697466037726471
 30
0.0
 42
0.4142135623730596
  0
VERTEX
  5
1D20
  8
SAPA_PROFIL
 10
154.29008641830049
 20
75.323281082250645
 30
0.0
  0
VERTEX
  5
1D21
  8
SAPA_PROFIL
 10
154.80074817175529
 20
74.002062780248295
 30
0.0
  0
VERTEX
  5
1D22
  8
SAPA_PROFIL
 10
154.7992524027274
 20
71.00971650617042
 30
0.0
 42
-0.2562769743569802
  0
VERTEX
  5
1D23
  8
SAPA_PROFIL
 10
154.70672140397909
 20
70.841044001683017
 30
0.0
  0
VERTEX
  5
1D24
  8
SAPA_PROFIL
 10
153.4604559046054
 20
70.046990999866225
 30
0.0
 42
-0.5920056172513938
  0
VERTEX
  5
1D25
  8
SAPA_PROFIL
 10
152.99925240272771
 20
70.299999756596875
 30
0.0
  0
VERTEX
  5
1D26
  8
SAPA_PROFIL
 10
152.99925240272771
 20
71.699999756596966
 30
0.0
 42
0.4142135623731505
  0
VERTEX
  5
1D27
  8
SAPA_PROFIL
 10
152.6992524027275
 20
71.999999756596921
 30
0.0
  0
VERTEX
  5
1D28
  8
SAPA_PROFIL
 10
150.2992524027274
 20
71.999999756596921
 30
0.0
 42
0.414213562372984
  0
VERTEX
  5
1D29
  8
SAPA_PROFIL
 10
149.99925240272771
 20
71.699999756596966
 30
0.0
  0
VERTEX
  5
1D2A
  8
SAPA_PROFIL
 10
149.99925240272771
 20
54.299999756596861
 30
0.0
 42
0.414213562372873
  0
VERTEX
  5
1D2B
  8
SAPA_PROFIL
 10
150.2992524027274
 20
53.999999756596907
 30
0.0
  0
VERTEX
  5
1D2C
  8
SAPA_PROFIL
 10
152.6992524027275
 20
53.999999756597141
 30
0.0
 42
0.4142135623732616
  0
VERTEX
  5
1D2D
  8
SAPA_PROFIL
 10
152.99925240272771
 20
54.299999756596861
 30
0.0
  0
VERTEX
  5
1D2E
  8
SAPA_PROFIL
 10
152.99925240272771
 20
55.699999756596959
 30
0.0
 42
-0.5877032589248726
  0
VERTEX
  5
1D2F
  8
SAPA_PROFIL
 10
153.4572126098553
 20
55.955045973907069
 30
0.0
  0
VERTEX
  5
1D30
  8
SAPA_PROFIL
 10
154.90455920747959
 20
55.058646996664919
 30
0.0
 42
-0.2596812337302109
  0
VERTEX
  5
1D31
  8
SAPA_PROFIL
 10
154.99925240272771
 20
54.888616185124853
 30
0.0
  0
VERTEX
  5
1D32
  8
SAPA_PROFIL
 10
154.99925240272771
 20
54.087700547204562
 30
0.0
 42
0.4023941304321001
  0
VERTEX
  5
1D33
  8
SAPA_PROFIL
 10
155.2870991240508
 20
53.787946818591287
 30
0.0
  0
VERTEX
  5
1D34
  8
SAPA_PROFIL
 10
169.7601579454026
 20
53.201530475126887
 30
0.0
 42
0.437328258632082
  0
VERTEX
  5
1D35
  8
SAPA_PROFIL
 10
170.29925240273269
 20
53.699999755426909
 30
0.0
  0
VERTEX
  5
1D36
  8
SAPA_PROFIL
 10
170.29925240273269
 20
54.531399993336883
 30
0.0
 42
0.363970234268549
  0
VERTEX
  5
1D37
  8
SAPA_PROFIL
 10
169.88607649156259
 20
55.023803869846908
 30
0.0
  0
VERTEX
  5
1D38
  8
SAPA_PROFIL
 10
168.71242831389279
 20
55.230749709426838
 30
0.0
 42
-0.8390996311664327
  0
VERTEX
  5
1D39
  8
SAPA_PROFIL
 10
168.712428313891
 20
56.215557462446426
 30
0.0
  0
VERTEX
  5
1D3A
  8
SAPA_PROFIL
 10
170.2825009698827
 20
56.492403633356602
 30
0.0
 42
-0.0436609429072773
  0
VERTEX
  5
1D3B
  8
SAPA_PROFIL
 10
170.3693250587126
 20
56.499999756849988
 30
0.0
  0
VERTEX
  5
1D3C
  8
SAPA_PROFIL
 10
171.36679687077279
 20
56.499999756856802
 30
0.0
 42
-0.2896898633218017
  0
VERTEX
  5
1D3D
  8
SAPA_PROFIL
 10
172.2703047737082
 20
55.92857118536471
 30
0.0
 42
-0.550760424582974
  0
VERTEX
  5
1D3E
  8
SAPA_PROFIL
 10
171.9992524028126
 20
55.49999975681839
 30
0.0
  0
VERTEX
  5
1D3F
  8
SAPA_PROFIL
 10
171.79925240283271
 20
55.499999756826803
 30
0.0
 42
0.414213562382918
  0
VERTEX
  5
1D40
  8
SAPA_PROFIL
 10
171.4992524028126
 20
55.199999756836633
 30
0.0
  0
VERTEX
  5
1D41
  8
SAPA_PROFIL
 10
171.49925240275249
 20
53.699999755446918
 30
0.0
 42
0.414213562384816
  0
VERTEX
  5
1D42
  8
SAPA_PROFIL
 10
171.99925240275249
 20
53.199999755426909
 30
0.0
  0
VERTEX
  5
1D43
  8
SAPA_PROFIL
 10
175.2992524027527
 20
53.199999755426909
 30
0.0
 42
0.4142135623613741
  0
VERTEX
  5
1D44
  8
SAPA_PROFIL
 10
175.7992524027627
 20
53.699999755416897
 30
0.0
  0
VERTEX
  5
1D45
  8
SAPA_PROFIL
 10
175.7992524028227
 20
55.199999756596966
 30
0.0
 42
0.4142135623730951
  0
VERTEX
  5
1D46
  8
SAPA_PROFIL
 10
175.49925240283261
 20
55.499999756606933
 30
0.0
  0
VERTEX
  5
1D47
  8
SAPA_PROFIL
 10
175.2992524028127
 20
55.499999756626721
 30
0.0
 42
-0.5507604245733891
  0
VERTEX
  5
1D48
  8
SAPA_PROFIL
 10
175.02820003196479
 20
55.928571185205769
 30
0.0
 42
-0.2896898632855314
  0
VERTEX
  5
1D49
  8
SAPA_PROFIL
 10
175.93170793484251
 20
56.4999997565792
 30
0.0
  0
VERTEX
  5
1D4A
  8
SAPA_PROFIL
 10
176.69925240287279
 20
56.499999756586689
 30
0.0
 42
-0.4142135623827515
  0
VERTEX
  5
1D4B
  8
SAPA_PROFIL
 10
176.999252402883
 20
56.19999975656696
 30
0.0
  0
VERTEX
  5
1D4C
  8
SAPA_PROFIL
 10
176.99925240266251
 20
52.499999751736823
 30
0.0
 42
-0.4142135623555136
  0
VERTEX
  5
1D4D
  8
SAPA_PROFIL
 10
176.49925240266251
 20
51.999999751766829
 30
0.0
  0
SEQEND
  5
1D4E
  8
SAPA_PROFIL
  0
POLYLINE
  5
12C1
  8
SAPA_PROFIL
 62
     4
 66
     1
 10
0.0
 20
0.0
 30
0.0
  0
VERTEX
  5
1D4F
  8
SAPA_PROFIL
 62
     4
 10
152.0951473322142
 20
104.04932886422159
 30
0.0
 42
0.5571646428658034
  0
VERTEX
  5
1D50
  8
SAPA_PROFIL
 62
     4
 10
151.22742841805871
 20
103.51236836008469
 30
0.0
  0
VERTEX
  5
1D51
  8
SAPA_PROFIL
 62
     4
 10
151.22742841805919
 20
86.487631123563574
 30
0.0
 42
0.5571645048035741
  0
VERTEX
  5
1D52
  8
SAPA_PROFIL
 62
     4
 10
152.09514710592529
 20
85.950670506602535
 30
0.0
  0
VERTEX
  5
1D53
  8
SAPA_PROFIL
 62
     4
 10
153.7612877619934
 20
86.781377594149205
 30
0.0
 42
0.284385813979063
  0
VERTEX
  5
1D54
  8
SAPA_PROFIL
 62
     4
 10
153.9274284180608
 20
87.049857902629569
 30
0.0
  0
VERTEX
  5
1D55
  8
SAPA_PROFIL
 62
     4
 10
153.9274284180608
 20
102.9501415810189
 30
0.0
 42
0.2843858139786238
  0
VERTEX
  5
1D56
  8
SAPA_PROFIL
 62
     4
 10
153.76128776199391
 20
103.2186218894991
 30
0.0
  0
VERTEX
  5
1D57
  8
SAPA_PROFIL
 62
     4
 10
152.0951471059245
 20
104.0493289770463
 30
0.0
  0
SEQEND
  5
1D58
  8
SAPA_PROFIL
 62
     4
  0
POLYLINE
  5
12C2
  8
SAPA_PROFIL
 62
     4
 66
     1
 10
0.0
 20
0.0
 30
0.0
 70
     1
  0
VERTEX
  5
1D59
  8
SAPA_PROFIL
 62
     4
 10
154.2842599325584
 20
80.582388557156932
 30
0.0
  0
VERTEX
  5
1D5A
  8
SAPA_PROFIL
 62
     4
 10
154.69082012856251
 20
80.318365278780917
 30
0.0
 42
-0.2539676464751066
  0
VERTEX
  5
1D5B
  8
SAPA_PROFIL
 62
     4
 10
154.82742841805859
 20
80.066764108396214
 30
0.0
  0
VERTEX
  5
1D5C
  8
SAPA_PROFIL
 62
     4
 10
154.82742841805859
 20
78.685264523190867
 30
0.0
 42
-0.3152987888790479
  0
VERTEX
  5
1D5D
  8
SAPA_PROFIL
 62
     4
 10
154.49843848972051
 20
78.215418212798554
 30
0.0
  0
VERTEX
  5
1D5E
  8
SAPA_PROFIL
 62
     4
 10
152.03760829926921
 20
77.319749271889947
 30
0.0
 42
0.2694959974287434
  0
VERTEX
  5
1D5F
  8
SAPA_PROFIL
 62
     4
 10
151.8444763249253
 20
77.088230225488587
 30
0.0
 42
0.0612686379508233
  0
VERTEX
  5
1D60
  8
SAPA_PROFIL
 62
     4
 10
151.8308929542948
 20
76.795554792635315
 30
0.0
  0
VERTEX
  5
1D61
  8
SAPA_PROFIL
 62
     4
 10
151.62915627556589
 20
76.446136615327049
 30
0.0
 42
0.5773502691891679
  0
VERTEX
  5
1D62
  8
SAPA_PROFIL
 62
     4
 10
151.81102161036051
 20
76.131136615327463
 30
0.0
  0
VERTEX
  5
1D63
  8
SAPA_PROFIL
 62
     4
 10
152.0781361384868
 20
76.131136615327222
 30
0.0
  0
VERTEX
  5
1D64
  8
SAPA_PROFIL
 62
     4
 10
152.88681959979519
 20
74.732608914692975
 30
0.0
 42
-0.1318219888653519
  0
VERTEX
  5
1D65
  8
SAPA_PROFIL
 62
     4
 10
152.92711199633251
 20
74.582435812220623
 30
0.0
  0
VERTEX
  5
1D66
  8
SAPA_PROFIL
 62
     4
 10
152.9271119963262
 20
74.399999741783844
 30
0.0
 42
-0.4142135623724291
  0
VERTEX
  5
1D67
  8
SAPA_PROFIL
 62
     4
 10
152.5271119963266
 20
73.999999741783299
 30
0.0
  0
VERTEX
  5
1D68
  8
SAPA_PROFIL
 62
     4
 10
149.1271119963256
 20
73.999999741784663
 30
0.0
 42
-0.4142135623744271
  0
VERTEX
  5
1D69
  8
SAPA_PROFIL
 62
     4
 10
148.7271119963246
 20
74.399999741783844
 30
0.0
  0
VERTEX
  5
1D6A
  8
SAPA_PROFIL
 62
     4
 10
148.72711199632391
 20
74.579614984055141
 30
0.0
 42
-0.1316524975874005
  0
VERTEX
  5
1D6B
  8
SAPA_PROFIL
 62
     4
 10
148.7673043751895
 20
74.729614984051963
 30
0.0
  0
VERTEX
  5
1D6C
  8
SAPA_PROFIL
 62
     4
 10
149.69345382184201
 20
76.333752881054224
 30
0.0
 42
0.1316524975875904
  0
VERTEX
  5
1D6D
  8
SAPA_PROFIL
 62
     4
 10
149.8274284180568
 20
76.833752881055929
 30
0.0
  0
VERTEX
  5
1D6E
  8
SAPA_PROFIL
 62
     4
 10
149.8274284180568
 20
77.249999741783299
 30
0.0
 42
0.4142135623730951
  0
VERTEX
  5
1D6F
  8
SAPA_PROFIL
 62
     4
 10
148.8274284180568
 20
78.249999741783299
 30
0.0
  0
VERTEX
  5
1D70
  8
SAPA_PROFIL
 62
     4
 10
145.8274284180595
 20
78.249999741783299
 30
0.0
 42
-0.9999996830128083
  0
VERTEX
  5
1D71
  8
SAPA_PROFIL
 62
     4
 10
145.82742841805771
 20
79.249999741783299
 30
0.0
  0
VERTEX
  5
1D72
  8
SAPA_PROFIL
 62
     4
 10
148.82742841805771
 20
79.249999741783299
 30
0.0
 42
0.4142135623730951
  0
VERTEX
  5
1D73
  8
SAPA_PROFIL
 62
     4
 10
149.82742841805771
 20
80.249999741783299
 30
0.0
  0
VERTEX
  5
1D74
  8
SAPA_PROFIL
 62
     4
 10
149.82742841805771
 20
109.7499997418678
 30
0.0
 42
0.4142135623730951
  0
VERTEX
  5
1D75
  8
SAPA_PROFIL
 62
     4
 10
148.82742841805771
 20
110.7499997418678
 30
0.0
  0
VERTEX
  5
1D76
  8
SAPA_PROFIL
 62
     4
 10
145.8274284180595
 20
110.7499997418678
 30
0.0
 42
-0.9999999999999998
  0
VERTEX
  5
1D77
  8
SAPA_PROFIL
 62
     4
 10
145.8274284180595
 20
111.7499997418679
 30
0.0
  0
VERTEX
  5
1D78
  8
SAPA_PROFIL
 62
     4
 10
148.82742841805771
 20
111.7499997418679
 30
0.0
 42
0.4142135623736278
  0
VERTEX
  5
1D79
  8
SAPA_PROFIL
 62
     4
 10
149.82742841805771
 20
112.7499997418679
 30
0.0
  0
VERTEX
  5
1D7A
  8
SAPA_PROFIL
 62
     4
 10
149.82742841805771
 20
113.1662466025943
 30
0.0
 42
0.1316524975874375
  0
VERTEX
  5
1D7B
  8
SAPA_PROFIL
 62
     4
 10
149.6934538218417
 20
113.6662466025945
 30
0.0
  0
VERTEX
  5
1D7C
  8
SAPA_PROFIL
 62
     4
 10
148.7673043751895
 20
115.2703844995965
 30
0.0
 42
-0.1316524975874
  0
VERTEX
  5
1D7D
  8
SAPA_PROFIL
 62
     4
 10
148.72711199632391
 20
115.420384499596
 30
0.0
  0
VERTEX
  5
1D7E
  8
SAPA_PROFIL
 62
     4
 10
148.7271119963246
 20
115.59999974186729
 30
0.0
 42
-0.4142135623744271
  0
VERTEX
  5
1D7F
  8
SAPA_PROFIL
 62
     4
 10
149.1271119963256
 20
115.9999997418665
 30
0.0
  0
VERTEX
  5
1D80
  8
SAPA_PROFIL
 62
     4
 10
152.5271119963266
 20
115.9999997418678
 30
0.0
 42
-0.4142135623724291
  0
VERTEX
  5
1D81
  8
SAPA_PROFIL
 62
     4
 10
152.9271119963262
 20
115.59999974186729
 30
0.0
  0
VERTEX
  5
1D82
  8
SAPA_PROFIL
 62
     4
 10
152.92711199633251
 20
115.4175636714305
 30
0.0
 42
-0.1318219888653524
  0
VERTEX
  5
1D83
  8
SAPA_PROFIL
 62
     4
 10
152.88681959979519
 20
115.26739056895821
 30
0.0
  0
VERTEX
  5
1D84
  8
SAPA_PROFIL
 62
     4
 10
152.07813613857081
 20
113.8688628684785
 30
0.0
  0
VERTEX
  5
1D85
  8
SAPA_PROFIL
 62
     4
 10
151.81102161035781
 20
113.8688628684785
 30
0.0
 42
0.577350269189159
  0
VERTEX
  5
1D86
  8
SAPA_PROFIL
 62
     4
 10
151.62915627556319
 20
113.5538628684789
 30
0.0
  0
VERTEX
  5
1D87
  8
SAPA_PROFIL
 62
     4
 10
151.83089295424031
 20
113.20444469126031
 30
0.0
 42
0.0612687673629489
  0
VERTEX
  5
1D88
  8
SAPA_PROFIL
 62
     4
 10
151.84447632492649
 20
112.91176925816011
 30
0.0
 42
0.2694959974285039
  0
VERTEX
  5
1D89
  8
SAPA_PROFIL
 62
     4
 10
152.03760829927049
 20
112.6802502117595
 30
0.0
  0
VERTEX
  5
1D8A
  8
SAPA_PROFIL
 62
     4
 10
154.49843848972361
 20
111.7845812708499
 30
0.0
 42
-0.3152987888784035
  0
VERTEX
  5
1D8B
  8
SAPA_PROFIL
 62
     4
 10
154.82742841806021
 20
111.3147349604566
 30
0.0
  0
VERTEX
  5
1D8C
  8
SAPA_PROFIL
 62
     4
 10
154.82742841805859
 20
109.9332353752522
 30
0.0
 42
-0.2539676464741841
  0
VERTEX
  5
1D8D
  8
SAPA_PROFIL
 62
     4
 10
154.6908201285633
 20
109.6816342048681
 30
0.0
  0
VERTEX
  5
1D8E
  8
SAPA_PROFIL
 62
     4
 10
154.2842599325584
 20
109.41761092649151
 30
0.0
 42
-0.5862177598324623
  0
VERTEX
  5
1D8F
  8
SAPA_PROFIL
 62
     4
 10
153.82742841806191
 20
109.6733527417298
 30
0.0
  0
VERTEX
  5
1D90
  8
SAPA_PROFIL
 62
     4
 10
153.8274284180695
 20
110.6145274222396
 30
0.0
 42
0.3152987888813165
  0
VERTEX
  5
1D91
  8
SAPA_PROFIL
 62
     4
 10
153.49843848973279
 20
111.0843737326374
 30
0.0
  0
VERTEX
  5
1D92
  8
SAPA_PROFIL
 62
     4
 10
152.29843848972149
 20
111.5211380137614
 30
0.0
 42
0.5205670505515651
  0
VERTEX
  5
1D93
  8
SAPA_PROFIL
 62
     4
 10
151.6274284180588
 20
111.05129170336809
 30
0.0
  0
VERTEX
  5
1D94
  8
SAPA_PROFIL
 62
     4
 10
151.6274284180588
 20
106.03485076269931
 30
0.0
 42
0.3702522326300203
  0
VERTEX
  5
1D95
  8
SAPA_PROFIL
 62
     4
 10
151.88188837072451
 20
105.738327400906
 30
0.0
 42
0.0982365330332397
  0
VERTEX
  5
1D96
  8
SAPA_PROFIL
 62
     4
 10
153.56957514571951
 20
105.647874642695
 30
0.0
 42
0.3735060174783164
  0
VERTEX
  5
1D97
  8
SAPA_PROFIL
 62
     4
 10
153.8274284180595
 20
105.944899310606
 30
0.0
  0
VERTEX
  5
1D98
  8
SAPA_PROFIL
 62
     4
 10
153.82742841806041
 20
106.3733527417286
 30
0.0
 42
-0.5920056181162531
  0
VERTEX
  5
1D99
  8
SAPA_PROFIL
 62
     4
 10
154.28863192058839
 20
106.62636149804599
 30
0.0
  0
VERTEX
  5
1D9A
  8
SAPA_PROFIL
 62
     4
 10
154.69082012856671
 20
106.36517742189039
 30
0.0
 42
-0.2539676464746725
  0
VERTEX
  5
1D9B
  8
SAPA_PROFIL
 62
     4
 10
154.827428418062
 20
106.1135762515066
 30
0.0
  0
VERTEX
  5
1D9C
  8
SAPA_PROFIL
 62
     4
 10
154.82742841806041
 20
83.886423232140913
 30
0.0
 42
-0.2539676464741819
  0
VERTEX
  5
1D9D
  8
SAPA_PROFIL
 62
     4
 10
154.69082012856671
 20
83.634822061758086
 30
0.0
  0
VERTEX
  5
1D9E
  8
SAPA_PROFIL
 62
     4
 10
154.2886319205883
 20
83.373637985604262
 30
0.0
 42
-0.5920055144124249
  0
VERTEX
  5
1D9F
  8
SAPA_PROFIL
 62
     4
 10
153.82742841806041
 20
83.626646741919771
 30
0.0
  0
VERTEX
  5
1DA0
  8
SAPA_PROFIL
 62
     4
 10
153.82742844333541
 20
84.05510021920999
 30
0.0
 42
0.3735060174775405
  0
VERTEX
  5
1DA1
  8
SAPA_PROFIL
 62
     4
 10
153.56957517099539
 20
84.352124887119686
 30
0.0
 42
0.0355900683670349
  0
VERTEX
  5
1DA2
  8
SAPA_PROFIL
 62
     4
 10
152.95370158419561
 20
84.396018451151932
 30
0.0
 42
0.0624282003873116
  0
VERTEX
  5
1DA3
  8
SAPA_PROFIL
 62
     4
 10
151.88188839600051
 20
84.261672128908998
 30
0.0
 42
0.3702522326309292
  0
VERTEX
  5
1DA4
  8
SAPA_PROFIL
 62
     4
 10
151.62742844333471
 20
83.965148767115608
 30
0.0
  0
VERTEX
  5
1DA5
  8
SAPA_PROFIL
 62
     4
 10
151.6274284180586
 20
78.948707780282106
 30
0.0
 42
0.5205670505515692
  0
VERTEX
  5
1DA6
  8
SAPA_PROFIL
 62
     4
 10
152.29843848972149
 20
78.478861469888884
 30
0.0
  0
VERTEX
  5
1DA7
  8
SAPA_PROFIL
 62
     4
 10
153.498438489731
 20
78.915625751013835
 30
0.0
 42
0.3152987888807539
  0
VERTEX
  5
1DA8
  8
SAPA_PROFIL
 62
     4
 10
153.82742841806859
 20
79.385472061409686
 30
0.0
  0
VERTEX
  5
1DA9
  8
SAPA_PROFIL
 62
     4
 10
153.8274284180618
 20
80.326646741918765
 30
0.0
 42
-0.5862175119221242
  0
VERTEX
  5
1DAA
  8
SAPA_PROFIL
 62
     4
 10
154.2842597438169
 20
80.582388672900706
 30
0.0
 42
0.0000002084758573
  0
SEQEND
  5
1DAB
  8
SAPA_PROFIL
 62
     4
  0
POLYLINE
  5
12C3
  8
SAPA_PROFIL
 62
     4
 66
     1
 10
0.0
 20
0.0
 30
0.0
 70
     1
  0
VERTEX
  5
1DAC
  8
SAPA_PROFIL
 62
     4
 10
127.4725345450111
 20
106.9622212713151
 30
0.0
 42
-0.3137019356282051
  0
VERTEX
  5
1DAD
  8
SAPA_PROFIL
 62
     4
 10
127.2749089194777
 20
106.6812714877688
 30
0.0
  0
VERTEX
  5
1DAE
  8
SAPA_PROFIL
 62
     4
 10
124.8420788979337
 20
105.7957937748976
 30
0.0
 42
0.3152987888779321
  0
VERTEX
  5
1DAF
  8
SAPA_PROFIL
 62
     4
 10
124.578886955264
 20
105.41991672658121
 30
0.0
  0
VERTEX
  5
1DB0
  8
SAPA_PROFIL
 62
     4
 10
124.578886955264
 20
94.999999741867114
 30
0.0
  0
VERTEX
  5
1DB1
  8
SAPA_PROFIL
 62
     4
 10
124.5788869552641
 20
84.580082757149015
 30
0.0
 42
0.3152987888779395
  0
VERTEX
  5
1DB2
  8
SAPA_PROFIL
 62
     4
 10
124.8420788979338
 20
84.204205708836653
 30
0.0
  0
VERTEX
  5
1DB3
  8
SAPA_PROFIL
 62
     4
 10
127.2749089194695
 20
83.318727995968473
 30
0.0
 42
-0.3138982169096283
  0
VERTEX
  5
1DB4
  8
SAPA_PROFIL
 62
     4
 10
127.47253454500979
 20
83.037778212454285
 30
0.0
 42
-0.0157923906855865
  0
VERTEX
  5
1DB5
  8
SAPA_PROFIL
 62
     4
 10
127.4759376746494
 20
82.686319680115432
 30
0.0
  0
VERTEX
  5
1DB6
  8
SAPA_PROFIL
 62
     4
 10
127.614607431756
 20
82.446136615333145
 30
0.0
 42
-0.5773502691889272
  0
VERTEX
  5
1DB7
  8
SAPA_PROFIL
 62
     4
 10
127.43274209696121
 20
82.131136615333432
 30
0.0
  0
VERTEX
  5
1DB8
  8
SAPA_PROFIL
 62
     4
 10
127.16562756874821
 20
82.131136615333318
 30
0.0
  0
VERTEX
  5
1DB9
  8
SAPA_PROFIL
 62
     4
 10
126.96940550296399
 20
81.799999741867126
 30
0.0
  0
VERTEX
  5
1DBA
  8
SAPA_PROFIL
 62
     4
 10
126.4017613394665
 20
80.816679603886627
 30
0.0
 42
0.1316524975869703
  0
VERTEX
  5
1DBB
  8
SAPA_PROFIL
 62
     4
 10
126.3736266742619
 20
80.711679603887788
 30
0.0
  0
VERTEX
  5
1DBC
  8
SAPA_PROFIL
 62
     4
 10
126.3736266742618
 20
80.399999741865216
 30
0.0
 42
0.4142135623775584
  0
VERTEX
  5
1DBD
  8
SAPA_PROFIL
 62
     4
 10
126.7736266742621
 20
79.999999741867171
 30
0.0
  0
VERTEX
  5
1DBE
  8
SAPA_PROFIL
 62
     4
 10
130.1736266742619
 20
79.999999741867114
 30
0.0
 42
0.4142135623773978
  0
VERTEX
  5
1DBF
  8
SAPA_PROFIL
 62
     4
 10
130.5736266742619
 20
80.399999741867148
 30
0.0
  0
VERTEX
  5
1DC0
  8
SAPA_PROFIL
 62
     4
 10
130.5736266742619
 20
80.711679603890815
 30
0.0
 42
0.1316524975869708
  0
VERTEX
  5
1DC1
  8
SAPA_PROFIL
 62
     4
 10
130.5454920090566
 20
80.816679603887749
 30
0.0
  0
VERTEX
  5
1DC2
  8
SAPA_PROFIL
 62
     4
 10
129.9777718626946
 20
81.799999741867126
 30
0.0
  0
VERTEX
  5
1DC3
  8
SAPA_PROFIL
 62
     4
 10
129.63439618972251
 20
82.394743853537989
 30
0.0
 42
-0.1316524975869772
  0
VERTEX
  5
1DC4
  8
SAPA_PROFIL
 62
     4
 10
129.47362667426199
 20
82.994743853541365
 30
0.0
  0
VERTEX
  5
1DC5
  8
SAPA_PROFIL
 62
     4
 10
129.47362667426219
 20
83.946608186427824
 30
0.0
 42
0.3152987888780149
  0
VERTEX
  5
1DC6
  8
SAPA_PROFIL
 62
     4
 10
128.8156468175878
 20
84.886300807199305
 30
0.0
  0
VERTEX
  5
1DC7
  8
SAPA_PROFIL
 62
     4
 10
126.6420788979341
 20
85.677414832109164
 30
0.0
 42
-0.3152987888779391
  0
VERTEX
  5
1DC8
  8
SAPA_PROFIL
 62
     4
 10
126.37888695526399
 20
86.053291880423686
 30
0.0
  0
VERTEX
  5
1DC9
  8
SAPA_PROFIL
 62
     4
 10
126.37888695526399
 20
94.999999741867114
 30
0.0
  0
VERTEX
  5
1DCA
  8
SAPA_PROFIL
 62
     4
 10
126.37888695526389
 20
103.9467076033106
 30
0.0
 42
-0.3152987888779318
  0
VERTEX
  5
1DCB
  8
SAPA_PROFIL
 62
     4
 10
126.6420788979304
 20
104.3225846516237
 30
0.0
  0
VERTEX
  5
1DCC
  8
SAPA_PROFIL
 62
     4
 10
128.81564681758761
 20
105.1136986765348
 30
0.0
 42
0.3152987888779361
  0
VERTEX
  5
1DCD
  8
SAPA_PROFIL
 62
     4
 10
129.47362667426191
 20
106.05339129733539
 30
0.0
  0
VERTEX
  5
1DCE
  8
SAPA_PROFIL
 62
     4
 10
129.47362667426191
 20
107.00525563019291
 30
0.0
 42
-0.1316524975869766
  0
VERTEX
  5
1DCF
  8
SAPA_PROFIL
 62
     4
 10
129.6343961897166
 20
107.60525563018609
 30
0.0
  0
VERTEX
  5
1DD0
  8
SAPA_PROFIL
 62
     4
 10
129.97362667426191
 20
108.1928200648946
 30
0.0
  0
VERTEX
  5
1DD1
  8
SAPA_PROFIL
 62
     4
 10
130.5454920090566
 20
109.18331987984659
 30
0.0
 42
0.1316524975869832
  0
VERTEX
  5
1DD2
  8
SAPA_PROFIL
 62
     4
 10
130.57362667426179
 20
109.28831987984969
 30
0.0
  0
VERTEX
  5
1DD3
  8
SAPA_PROFIL
 62
     4
 10
130.5736266742619
 20
109.59999974186719
 30
0.0
 42
0.414213562371655
  0
VERTEX
  5
1DD4
  8
SAPA_PROFIL
 62
     4
 10
130.17362667425789
 20
109.9999997418672
 30
0.0
  0
VERTEX
  5
1DD5
  8
SAPA_PROFIL
 62
     4
 10
126.77362667426191
 20
109.9999997418672
 30
0.0
 42
0.4142135623716633
  0
VERTEX
  5
1DD6
  8
SAPA_PROFIL
 62
     4
 10
126.3736266742619
 20
109.5999997418651
 30
0.0
  0
VERTEX
  5
1DD7
  8
SAPA_PROFIL
 62
     4
 10
126.3736266742619
 20
109.2883198798465
 30
0.0
 42
0.1316524975869709
  0
VERTEX
  5
1DD8
  8
SAPA_PROFIL
 62
     4
 10
126.4017613394675
 20
109.1833198798459
 30
0.0
  0
VERTEX
  5
1DD9
  8
SAPA_PROFIL
 62
     4
 10
127.16562756874821
 20
107.8688628684009
 30
0.0
  0
VERTEX
  5
1DDA
  8
SAPA_PROFIL
 62
     4
 10
127.43274209696121
 20
107.8688628684008
 30
0.0
 42
-0.5773502691889269
  0
VERTEX
  5
1DDB
  8
SAPA_PROFIL
 62
     4
 10
127.614607431756
 20
107.5538628684011
 30
0.0
  0
VERTEX
  5
1DDC
  8
SAPA_PROFIL
 62
     4
 10
127.4759376746494
 20
107.3136798036188
 30
0.0
 42
-0.015792390685586
  0
SEQEND
  5
1DDD
  8
SAPA_PROFIL
 62
     4
  0
POLYLINE
  5
12C4
  8
SAPA_PROFIL
 66
     1
 10
0.0
 20
0.0
 30
0.0
 70
     1
  0
VERTEX
  5
1DDE
  8
SAPA_PROFIL
 10
34.500000287238073
 20
135.10475982426419
 30
0.0
  0
VERTEX
  5
1DDF
  8
SAPA_PROFIL
 10
34.500000287238073
 20
134.86221588641709
 30
0.0
 42
0.2011813370902256
  0
VERTEX
  5
1DE0
  8
SAPA_PROFIL
 10
34.559818434378123
 20
134.71956579658649
 30
0.0
  0
VERTEX
  5
1DE1
  8
SAPA_PROFIL
 10
35.486565793107822
 20
133.80885370356259
 30
0.0
  0
VERTEX
  5
1DE2
  8
SAPA_PROFIL
 10
37.000000287239892
 20
133.82206124630579
 30
0.0
 42
-0.4931454260356012
  0
VERTEX
  5
1DE3
  8
SAPA_PROFIL
 10
38.571265247477733
 20
134.04288813535351
 30
0.0
  0
VERTEX
  5
1DE4
  8
SAPA_PROFIL
 10
39.638915084302063
 20
132.99371156274071
 30
0.0
 42
-0.6681786379164681
  0
VERTEX
  5
1DE5
  8
SAPA_PROFIL
 10
39.497546203848373
 20
132.6438113052557
 30
0.0
  0
VERTEX
  5
1DE6
  8
SAPA_PROFIL
 10
35.000000287238073
 20
132.60456181665839
 30
0.0
  0
VERTEX
  5
1DE7
  8
SAPA_PROFIL
 10
32.885907435648363
 20
134.68207507588821
 30
0.0
 42
0.2038501166358263
  0
VERTEX
  5
1DE8
  8
SAPA_PROFIL
 10
32.521600656230561
 20
134.8252579324942
 30
0.0
  0
VERTEX
  5
1DE9
  8
SAPA_PROFIL
 10
17.416887403636139
 20
134.4066318232054
 30
0.0
 42
0.4061212134736873
  0
VERTEX
  5
1DEA
  8
SAPA_PROFIL
 10
14.500000287244539
 20
131.40778333610589
 30
0.0
  0
VERTEX
  5
1DEB
  8
SAPA_PROFIL
 10
14.500000287244539
 20
119.62359209263779
 30
0.0
 42
0.4142135623730951
  0
VERTEX
  5
1DEC
  8
SAPA_PROFIL
 10
15.000000287244539
 20
119.12359209263779
 30
0.0
  0
VERTEX
  5
1DED
  8
SAPA_PROFIL
 10
26.585786724869621
 20
119.12359209263779
 30
0.0
 42
0.198912367379658
  0
VERTEX
  5
1DEE
  8
SAPA_PROFIL
 10
27.292893506056171
 20
119.4164853114513
 30
0.0
  0
VERTEX
  5
1DEF
  8
SAPA_PROFIL
 10
27.67349227944672
 20
119.7970840848418
 30
0.0
 42
-0.1830252782112529
  0
VERTEX
  5
1DF0
  8
SAPA_PROFIL
 10
28.96516008817807
 20
120.3791126265894
 30
0.0
  0
VERTEX
  5
1DF1
  8
SAPA_PROFIL
 10
39.398232116983849
 20
121.1021773539199
 30
0.0
 42
-0.668178637923616
  0
VERTEX
  5
1DF2
  8
SAPA_PROFIL
 10
39.611614436517442
 20
120.58702686413091
 30
0.0
  0
VERTEX
  5
1DF3
  8
SAPA_PROFIL
 10
37.612132321594892
 20
118.5875447492084
 30
0.0
 42
-0.7332303362588345
  0
VERTEX
  5
1DF4
  8
SAPA_PROFIL
 10
37.104557961335189
 20
118.8517712368656
 30
0.0
  0
VERTEX
  5
1DF5
  8
SAPA_PROFIL
 10
37.213142072121258
 20
119.46758233026399
 30
0.0
 42
0.4663076581593561
  0
VERTEX
  5
1DF6
  8
SAPA_PROFIL
 10
36.917699746217842
 20
119.8196767835642
 30
0.0
  0
VERTEX
  5
1DF7
  8
SAPA_PROFIL
 10
29.15822262086553
 20
119.0885171616837
 30
0.0
 42
0.183025278211264
  0
VERTEX
  5
1DF8
  8
SAPA_PROFIL
 10
28.512388716499832
 20
118.79750289080989
 30
0.0
  0
VERTEX
  5
1DF9
  8
SAPA_PROFIL
 10
28.124264355954871
 20
118.4093785302649
 30
0.0
 42
-0.1989123673796518
  0
VERTEX
  5
1DFA
  8
SAPA_PROFIL
 10
26.710050793581811
 20
117.82359209263799
 30
0.0
  0
VERTEX
  5
1DFB
  8
SAPA_PROFIL
 10
15.300000287229039
 20
117.8235920926379
 30
0.0
 42
0.4142135623732283
  0
VERTEX
  5
1DFC
  8
SAPA_PROFIL
 10
14.800000287229039
 20
117.3235920926376
 30
0.0
  0
VERTEX
  5
1DFD
  8
SAPA_PROFIL
 10
14.80000028723
 20
116.1235920926383
 30
0.0
 42
-0.4142135623732062
  0
VERTEX
  5
1DFE
  8
SAPA_PROFIL
 10
14.500000287229989
 20
115.82359209263819
 30
0.0
  0
VERTEX
  5
1DFF
  8
SAPA_PROFIL
 10
13.300000287244499
 20
115.8235920926379
 30
0.0
 42
-0.4142135623716247
  0
VERTEX
  5
1E00
  8
SAPA_PROFIL
 10
13.00000028724449
 20
116.1235920926392
 30
0.0
  0
VERTEX
  5
1E01
  8
SAPA_PROFIL
 10
13.000000287230961
 20
136.09999983496121
 30
0.0
 42
-0.4142135623732938
  0
VERTEX
  5
1E02
  8
SAPA_PROFIL
 10
13.200000287230949
 20
136.29999983496131
 30
0.0
  0
VERTEX
  5
1E03
  8
SAPA_PROFIL
 10
34.795376400916751
 20
136.29999983496131
 30
0.0
 42
-0.4210020197690384
  0
VERTEX
  5
1E04
  8
SAPA_PROFIL
 10
35.000000287238073
 20
136.10005329291729
 30
0.0
  0
VERTEX
  5
1E05
  8
SAPA_PROFIL
 10
35.000000287244553
 20
135.51207012972171
 30
0.0
  0
VERTEX
  5
1E06
  8
SAPA_PROFIL
 10
34.700000287244542
 20
135.51207012972171
 30
0.0
 42
0.41421356237322
  0
VERTEX
  5
1E07
  8
SAPA_PROFIL
 10
34.50000028724466
 20
135.31207012972169
 30
0.0
  0
VERTEX
  5
1E08
  8
SAPA_PROFIL
 10
34.500000287244553
 20
135.09489236425199
 30
0.0
  0
SEQEND
  5
1E09
  8
SAPA_PROFIL
  0
CIRCLE
  5
12C5
  8
SAPA_PROFIL
 62
     2
 10
16.336659359824122
 20
55.189424286545368
 30
0.0
 40
0.8999999999999985
  0
POLYLINE
  5
12C6
  8
SAPA_PROFIL
 62
     2
 66
     1
 10
0.0
 20
0.0
 30
0.0
  0
VERTEX
  5
1E0A
  8
SAPA_PROFIL
 62
     2
 10
14.93665935982415
 20
56.497430698118421
 30
0.0
  0
VERTEX
  5
1E0B
  8
SAPA_PROFIL
 62
     2
 10
15.129017779816531
 20
55.406511887965678
 30
0.0
  0
VERTEX
  5
1E0C
  8
SAPA_PROFIL
 62
     2
 10
14.697221219914921
 20
55.290812348445741
 30
0.0
 42
0.4430158954262519
  0
VERTEX
  5
1E0D
  8
SAPA_PROFIL
 62
     2
 10
14.561744172370821
 20
55.027335920338771
 30
0.0
  0
VERTEX
  5
1E0E
  8
SAPA_PROFIL
 62
     2
 10
15.03869236558978
 20
53.756848172420568
 30
0.0
 42
0.3125358528825162
  0
VERTEX
  5
1E0F
  8
SAPA_PROFIL
 62
     2
 10
15.41317407871918
 20
53.497430698118869
 30
0.0
  0
VERTEX
  5
1E10
  8
SAPA_PROFIL
 62
     2
 10
17.283329394629501
 20
53.497430698118421
 30
0.0
 42
0.3125358528825104
  0
VERTEX
  5
1E11
  8
SAPA_PROFIL
 62
     2
 10
17.657811107758899
 20
53.756848172420568
 30
0.0
  0
VERTEX
  5
1E12
  8
SAPA_PROFIL
 62
     2
 10
18.134759300978089
 20
55.027335920338771
 30
0.0
 42
0.4430158954262519
  0
VERTEX
  5
1E13
  8
SAPA_PROFIL
 62
     2
 10
17.999282253433989
 20
55.290812348445627
 30
0.0
  0
VERTEX
  5
1E14
  8
SAPA_PROFIL
 62
     2
 10
17.567485693532149
 20
55.406511887965678
 30
0.0
  0
VERTEX
  5
1E15
  8
SAPA_PROFIL
 62
     2
 10
17.759751736674389
 20
56.497430698118421
 30
0.0
  0
SEQEND
  5
1E16
  8
SAPA_PROFIL
 62
     2
  0
POLYLINE
  5
12C7
  8
SAPA_PROFIL
 62
     2
 66
     1
 10
0.0
 20
0.0
 30
0.0
 70
     1
  0
VERTEX
  5
1E17
  8
SAPA_PROFIL
 62
     2
 10
14.94825173667448
 20
56.497430698118421
 30
0.0
 42
-0.285714285714282
  0
VERTEX
  5
1E18
  8
SAPA_PROFIL
 62
     2
 10
17.74825173667443
 20
56.497430698118421
 30
0.0
  0
VERTEX
  5
1E19
  8
SAPA_PROFIL
 62
     2
 10
19.82203190606231
 20
56.497430698118869
 30
0.0
 42
0.3882600129940275
  0
VERTEX
  5
1E1A
  8
SAPA_PROFIL
 62
     2
 10
20.120833403403712
 20
56.770641424398427
 30
0.0
  0
VERTEX
  5
1E1B
  8
SAPA_PROFIL
 62
     2
 10
20.58704332733021
 20
60.670641424398532
 30
0.0
 42
0.4406523138893894
  0
VERTEX
  5
1E1C
  8
SAPA_PROFIL
 62
     2
 10
20.288241829988351
 20
60.997430698118421
 30
0.0
  0
VERTEX
  5
1E1D
  8
SAPA_PROFIL
 62
     2
 10
18.578449833068021
 20
60.997430698118421
 30
0.0
 42
0.3394542588634375
  0
VERTEX
  5
1E1E
  8
SAPA_PROFIL
 62
     2
 10
18.288672085181471
 20
60.775076411649422
 30
0.0
  0
VERTEX
  5
1E1F
  8
SAPA_PROFIL
 62
     2
 10
18.086292357250041
 20
60.55749062948184
 30
0.0
 42
-0.3394542588633663
  0
VERTEX
  5
1E20
  8
SAPA_PROFIL
 62
     2
 10
17.796514609363271
 20
60.335136343012827
 30
0.0
  0
VERTEX
  5
1E21
  8
SAPA_PROFIL
 62
     2
 10
14.89998886398541
 20
60.335136343012827
 30
0.0
 42
-0.3394542588634373
  0
VERTEX
  5
1E22
  8
SAPA_PROFIL
 62
     2
 10
14.610211116098871
 20
60.55749062948184
 30
0.0
  0
VERTEX
  5
1E23
  8
SAPA_PROFIL
 62
     2
 10
14.407831388167439
 20
60.775076411649422
 30
0.0
 42
0.3394542588633662
  0
VERTEX
  5
1E24
  8
SAPA_PROFIL
 62
     2
 10
14.11805364028066
 20
60.997430698118421
 30
0.0
  0
VERTEX
  5
1E25
  8
SAPA_PROFIL
 62
     2
 10
12.408261643360561
 20
60.997430698118421
 30
0.0
 42
0.4406523138893994
  0
VERTEX
  5
1E26
  8
SAPA_PROFIL
 62
     2
 10
12.109460146018931
 20
60.670641424398532
 30
0.0
  0
VERTEX
  5
1E27
  8
SAPA_PROFIL
 62
     2
 10
12.5756700699452
 20
56.770641424398427
 30
0.0
 42
0.3882600129940462
  0
VERTEX
  5
1E28
  8
SAPA_PROFIL
 62
     2
 10
12.8744715672866
 20
56.497430698118421
 30
0.0
  0
VERTEX
  5
1E29
  8
SAPA_PROFIL
 62
     2
 10
14.93665935982415
 20
56.497430698118421
 30
0.0
  0
SEQEND
  5
1E2A
  8
SAPA_PROFIL
 62
     2
  0
POLYLINE
  5
12C8
  8
SAPA_PROFIL
 66
     1
 10
0.0
 20
0.0
 30
0.0
 70
     1
  0
VERTEX
  5
1E2B
  8
SAPA_PROFIL
 10
155.5000002851674
 20
135.10475972777829
 30
0.0
  0
VERTEX
  5
1E2C
  8
SAPA_PROFIL
 10
155.5000002851674
 20
134.86221578993121
 30
0.0
 42
-0.2011813370902256
  0
VERTEX
  5
1E2D
  8
SAPA_PROFIL
 10
155.4401821380273
 20
134.71956570010059
 30
0.0
  0
VERTEX
  5
1E2E
  8
SAPA_PROFIL
 10
154.5134347792976
 20
133.80885360707671
 30
0.0
  0
VERTEX
  5
1E2F
  8
SAPA_PROFIL
 10
153.00000028516561
 20
133.82206114981989
 30
0.0
 42
0.4931454260356012
  0
VERTEX
  5
1E30
  8
SAPA_PROFIL
 10
151.42873532492769
 20
134.0428880388676
 30
0.0
  0
VERTEX
  5
1E31
  8
SAPA_PROFIL
 10
150.36108548810341
 20
132.99371146625481
 30
0.0
 42
0.6681786379164681
  0
VERTEX
  5
1E32
  8
SAPA_PROFIL
 10
150.5024543685571
 20
132.64381120876979
 30
0.0
  0
VERTEX
  5
1E33
  8
SAPA_PROFIL
 10
155.0000002851674
 20
132.60456172017251
 30
0.0
  0
VERTEX
  5
1E34
  8
SAPA_PROFIL
 10
157.11409313675711
 20
134.6820749794023
 30
0.0
 42
-0.2038501166358263
  0
VERTEX
  5
1E35
  8
SAPA_PROFIL
 10
157.47839991617491
 20
134.82525783600829
 30
0.0
  0
VERTEX
  5
1E36
  8
SAPA_PROFIL
 10
172.5831131687693
 20
134.40663172671941
 30
0.0
 42
-0.4061212134736873
  0
VERTEX
  5
1E37
  8
SAPA_PROFIL
 10
175.50000028516089
 20
131.40778323961999
 30
0.0
  0
VERTEX
  5
1E38
  8
SAPA_PROFIL
 10
175.50000028516089
 20
119.6235919961519
 30
0.0
 42
-0.4142135623730951
  0
VERTEX
  5
1E39
  8
SAPA_PROFIL
 10
175.00000028516089
 20
119.1235919961519
 30
0.0
  0
VERTEX
  5
1E3A
  8
SAPA_PROFIL
 10
163.41421384753579
 20
119.1235919961519
 30
0.0
 42
-0.198912367379658
  0
VERTEX
  5
1E3B
  8
SAPA_PROFIL
 10
162.70710706634929
 20
119.41648521496541
 30
0.0
  0
VERTEX
  5
1E3C
  8
SAPA_PROFIL
 10
162.32650829295869
 20
119.79708398835589
 30
0.0
 42
0.1830252782112529
  0
VERTEX
  5
1E3D
  8
SAPA_PROFIL
 10
161.0348404842274
 20
120.3791125301035
 30
0.0
  0
VERTEX
  5
1E3E
  8
SAPA_PROFIL
 10
150.60176845542159
 20
121.10217725743399
 30
0.0
 42
0.668178637923616
  0
VERTEX
  5
1E3F
  8
SAPA_PROFIL
 10
150.388386135888
 20
120.587026767645
 30
0.0
  0
VERTEX
  5
1E40
  8
SAPA_PROFIL
 10
152.38786825081061
 20
118.5875446527225
 30
0.0
 42
0.7332303362588345
  0
VERTEX
  5
1E41
  8
SAPA_PROFIL
 10
152.89544261107031
 20
118.8517711403797
 30
0.0
  0
VERTEX
  5
1E42
  8
SAPA_PROFIL
 10
152.78685850028421
 20
119.4675822337781
 30
0.0
 42
-0.4663076581593561
  0
VERTEX
  5
1E43
  8
SAPA_PROFIL
 10
153.08230082618761
 20
119.8196766870783
 30
0.0
  0
VERTEX
  5
1E44
  8
SAPA_PROFIL
 10
160.84177795153991
 20
119.08851706519781
 30
0.0
 42
-0.183025278211264
  0
VERTEX
  5
1E45
  8
SAPA_PROFIL
 10
161.48761185590561
 20
118.797502794324
 30
0.0
  0
VERTEX
  5
1E46
  8
SAPA_PROFIL
 10
161.8757362164506
 20
118.409378433779
 30
0.0
 42
0.1989123673796518
  0
VERTEX
  5
1E47
  8
SAPA_PROFIL
 10
163.2899497788236
 20
117.8235919961521
 30
0.0
  0
VERTEX
  5
1E48
  8
SAPA_PROFIL
 10
174.7000002851764
 20
117.823591996152
 30
0.0
 42
-0.4142135623732283
  0
VERTEX
  5
1E49
  8
SAPA_PROFIL
 10
175.2000002851764
 20
117.32359199615181
 30
0.0
  0
VERTEX
  5
1E4A
  8
SAPA_PROFIL
 10
175.20000028517541
 20
116.1235919961524
 30
0.0
 42
0.4142135623732062
  0
VERTEX
  5
1E4B
  8
SAPA_PROFIL
 10
175.50000028517539
 20
115.8235919961523
 30
0.0
  0
VERTEX
  5
1E4C
  8
SAPA_PROFIL
 10
176.70000028516091
 20
115.823591996152
 30
0.0
 42
0.4142135623716247
  0
VERTEX
  5
1E4D
  8
SAPA_PROFIL
 10
177.00000028516101
 20
116.12359199615329
 30
0.0
  0
VERTEX
  5
1E4E
  8
SAPA_PROFIL
 10
177.00000028517451
 20
136.0999997384753
 30
0.0
 42
0.4142135623732938
  0
VERTEX
  5
1E4F
  8
SAPA_PROFIL
 10
176.80000028517449
 20
136.29999973847529
 30
0.0
  0
VERTEX
  5
1E50
  8
SAPA_PROFIL
 10
155.20462417148869
 20
136.29999973847529
 30
0.0
 42
0.4210020197690384
  0
VERTEX
  5
1E51
  8
SAPA_PROFIL
 10
155.0000002851674
 20
136.1000531964313
 30
0.0
  0
VERTEX
  5
1E52
  8
SAPA_PROFIL
 10
155.00000028516089
 20
135.5120700332358
 30
0.0
  0
VERTEX
  5
1E53
  8
SAPA_PROFIL
 10
155.30000028516091
 20
135.5120700332358
 30
0.0
 42
-0.41421356237322
  0
VERTEX
  5
1E54
  8
SAPA_PROFIL
 10
155.50000028516081
 20
135.3120700332357
 30
0.0
  0
VERTEX
  5
1E55
  8
SAPA_PROFIL
 10
155.50000028516089
 20
135.09489226776611
 30
0.0
  0
SEQEND
  5
1E56
  8
SAPA_PROFIL
  0
CIRCLE
  5
12C9
  8
SAPA_PROFIL
 62
     2
 10
173.66334121258129
 20
55.189424190059412
 30
0.0
 40
0.8999999999999985
  0
POLYLINE
  5
12CA
  8
SAPA_PROFIL
 62
     2
 66
     1
 10
0.0
 20
0.0
 30
0.0
  0
VERTEX
  5
1E57
  8
SAPA_PROFIL
 62
     2
 10
175.06334121258129
 20
56.497430601632452
 30
0.0
  0
VERTEX
  5
1E58
  8
SAPA_PROFIL
 62
     2
 10
174.8709827925889
 20
55.406511791479709
 30
0.0
  0
VERTEX
  5
1E59
  8
SAPA_PROFIL
 62
     2
 10
175.30277935249049
 20
55.290812251959771
 30
0.0
 42
-0.4430158954262519
  0
VERTEX
  5
1E5A
  8
SAPA_PROFIL
 62
     2
 10
175.43825640003459
 20
55.027335823852809
 30
0.0
  0
VERTEX
  5
1E5B
  8
SAPA_PROFIL
 62
     2
 10
174.9613082068156
 20
53.75684807593462
 30
0.0
 42
-0.3125358528825162
  0
VERTEX
  5
1E5C
  8
SAPA_PROFIL
 62
     2
 10
174.5868264936862
 20
53.497430601632907
 30
0.0
  0
VERTEX
  5
1E5D
  8
SAPA_PROFIL
 62
     2
 10
172.71667117777591
 20
53.497430601632459
 30
0.0
 42
-0.3125358528825104
  0
VERTEX
  5
1E5E
  8
SAPA_PROFIL
 62
     2
 10
172.34218946464651
 20
53.75684807593462
 30
0.0
  0
VERTEX
  5
1E5F
  8
SAPA_PROFIL
 62
     2
 10
171.86524127142729
 20
55.027335823852809
 30
0.0
 42
-0.4430158954262519
  0
VERTEX
  5
1E60
  8
SAPA_PROFIL
 62
     2
 10
172.00071831897139
 20
55.290812251959657
 30
0.0
  0
VERTEX
  5
1E61
  8
SAPA_PROFIL
 62
     2
 10
172.43251487887329
 20
55.406511791479709
 30
0.0
  0
VERTEX
  5
1E62
  8
SAPA_PROFIL
 62
     2
 10
172.24024883573099
 20
56.497430601632452
 30
0.0
  0
SEQEND
  5
1E63
  8
SAPA_PROFIL
 62
     2
  0
POLYLINE
  5
12CB
  8
SAPA_PROFIL
 62
     2
 66
     1
 10
0.0
 20
0.0
 30
0.0
 70
     1
  0
VERTEX
  5
1E64
  8
SAPA_PROFIL
 62
     2
 10
175.0517488357309
 20
56.497430601632452
 30
0.0
 42
0.285714285714282
  0
VERTEX
  5
1E65
  8
SAPA_PROFIL
 62
     2
 10
172.25174883573101
 20
56.497430601632452
 30
0.0
  0
VERTEX
  5
1E66
  8
SAPA_PROFIL
 62
     2
 10
170.17796866634311
 20
56.497430601632921
 30
0.0
 42
-0.3882600129940275
  0
VERTEX
  5
1E67
  8
SAPA_PROFIL
 62
     2
 10
169.8791671690017
 20
56.770641327912472
 30
0.0
  0
VERTEX
  5
1E68
  8
SAPA_PROFIL
 62
     2
 10
169.41295724507521
 20
60.670641327912563
 30
0.0
 42
-0.4406523138893894
  0
VERTEX
  5
1E69
  8
SAPA_PROFIL
 62
     2
 10
169.71175874241709
 20
60.997430601632459
 30
0.0
  0
VERTEX
  5
1E6A
  8
SAPA_PROFIL
 62
     2
 10
171.42155073933739
 20
60.997430601632459
 30
0.0
 42
-0.3394542588634375
  0
VERTEX
  5
1E6B
  8
SAPA_PROFIL
 62
     2
 10
171.71132848722391
 20
60.77507631516346
 30
0.0
  0
VERTEX
  5
1E6C
  8
SAPA_PROFIL
 62
     2
 10
171.9137082151554
 20
60.557490532995871
 30
0.0
 42
0.3394542588633663
  0
VERTEX
  5
1E6D
  8
SAPA_PROFIL
 62
     2
 10
172.20348596304211
 20
60.335136246526872
 30
0.0
  0
VERTEX
  5
1E6E
  8
SAPA_PROFIL
 62
     2
 10
175.10001170842
 20
60.335136246526872
 30
0.0
 42
0.3394542588634373
  0
VERTEX
  5
1E6F
  8
SAPA_PROFIL
 62
     2
 10
175.38978945630649
 20
60.557490532995871
 30
0.0
  0
VERTEX
  5
1E70
  8
SAPA_PROFIL
 62
     2
 10
175.592169184238
 20
60.77507631516346
 30
0.0
 42
-0.3394542588633662
  0
VERTEX
  5
1E71
  8
SAPA_PROFIL
 62
     2
 10
175.88194693212469
 20
60.997430601632459
 30
0.0
  0
VERTEX
  5
1E72
  8
SAPA_PROFIL
 62
     2
 10
177.59173892904479
 20
60.997430601632459
 30
0.0
 42
-0.4406523138893994
  0
VERTEX
  5
1E73
  8
SAPA_PROFIL
 62
     2
 10
177.89054042638651
 20
60.670641327912563
 30
0.0
  0
VERTEX
  5
1E74
  8
SAPA_PROFIL
 62
     2
 10
177.42433050246021
 20
56.770641327912472
 30
0.0
 42
-0.3882600129940462
  0
VERTEX
  5
1E75
  8
SAPA_PROFIL
 62
     2
 10
177.12552900511881
 20
56.497430601632452
 30
0.0
  0
VERTEX
  5
1E76
  8
SAPA_PROFIL
 62
     2
 10
175.06334121258129
 20
56.497430601632452
 30
0.0
  0
SEQEND
  5
1E77
  8
SAPA_PROFIL
 62
     2
  0
LINE
  5
12CC
  8
SAPA_PROFIL
 62
     2
 10
107.6820951152025
 20
107.9999997367223
 30
0.0
 11
113.41640969025271
 21
107.9999997367224
 31
0.0
  0
ARC
  5
12CD
  8
SAPA_PROFIL
 62
     2
 10
107.6820951152023
 20
107.7999997367225
 30
0.0
 40
0.1999999999998187
 50
89.999999999938936
 51
134.99999999986471
  0
LINE
  5
12CE
  8
SAPA_PROFIL
 62
     2
 10
106.6578310464901
 20
107.0585783804855
 30
0.0
 11
107.5406737589655
 21
107.94142109296
 31
0.0
  0
ARC
  5
12CF
  8
SAPA_PROFIL
 62
     2
 10
106.7992524027276
 20
106.917157024248
 30
0.0
 40
0.2000000000002871
 50
135.00000000000861
 51
180.0000000000081
  0
LINE
  5
12D0
  8
SAPA_PROFIL
 62
     2
 10
106.5992524027273
 20
105.6999997351332
 30
0.0
 11
106.5992524027273
 21
106.917157024248
 31
0.0
  0
ARC
  5
12D1
  8
SAPA_PROFIL
 62
     2
 10
106.3992524027275
 20
105.6999997351332
 30
0.0
 40
0.1999999999998181
 50
270.0
 51
0.0
  0
LINE
  5
12D2
  8
SAPA_PROFIL
 62
     2
 10
104.7992524027276
 20
105.4999997351334
 30
0.0
 11
106.3992524027275
 21
105.4999997351334
 31
0.0
  0
ARC
  5
12D3
  8
SAPA_PROFIL
 62
     2
 10
104.7992524027277
 20
105.6999997351333
 30
0.0
 40
0.1999999999998749
 50
180.0000000000162
 51
269.9999999999838
  0
LINE
  5
12D4
  8
SAPA_PROFIL
 62
     2
 10
104.5992524027273
 20
107.7999997367225
 30
0.0
 11
104.5992524027278
 21
105.6999997351332
 31
0.0
  0
ARC
  5
12D5
  8
SAPA_PROFIL
 62
     2
 10
104.3992524027275
 20
107.7999997367225
 30
0.0
 40
0.1999999999998181
 50
0.0
 51
90.000000000130257
  0
LINE
  5
12D6
  8
SAPA_PROFIL
 62
     2
 10
102.6992524027272
 20
107.9999997367223
 30
0.0
 11
104.3992524027271
 21
107.9999997367223
 31
0.0
  0
ARC
  5
12D7
  8
SAPA_PROFIL
 62
     2
 10
102.6992524027275
 20
108.1999997367224
 30
0.0
 40
0.2000000000001023
 50
179.9999999998208
 51
269.9999999999186
  0
LINE
  5
12D8
  8
SAPA_PROFIL
 62
     2
 10
102.49925240272739
 20
109.699999736723
 30
0.0
 11
102.49925240272739
 21
108.199999736723
 31
0.0
  0
ARC
  5
12D9
  8
SAPA_PROFIL
 62
     2
 10
102.79925240272721
 20
109.6999997367226
 30
0.0
 40
0.2999999999997271
 50
89.999999999913143
 51
179.99999999991309
  0
LINE
  5
12DA
  8
SAPA_PROFIL
 62
     2
 10
121.69925240272769
 20
109.9999997367223
 30
0.0
 11
102.7992524027276
 21
109.9999997367223
 31
0.0
  0
ARC
  5
12DB
  8
SAPA_PROFIL
 62
     2
 10
121.6992524027274
 20
109.6999997367223
 30
0.0
 40
0.3000000000000114
 50
359.99999999996749
 51
89.999999999945729
  0
LINE
  5
12DC
  8
SAPA_PROFIL
 62
     2
 10
121.9992524027279
 20
108.2999997367225
 30
0.0
 11
121.99925240272739
 21
109.69999973672221
 31
0.0
  0
ARC
  5
12DD
  8
SAPA_PROFIL
 62
     2
 10
121.69925240272779
 20
108.2999997367225
 30
0.0
 40
0.300000000000125
 50
269.99999999998909
 51
0.0000000000108563
  0
LINE
  5
12DE
  8
SAPA_PROFIL
 62
     2
 10
120.4838385214638
 20
107.9999997367224
 30
0.0
 11
121.69925240272769
 21
107.9999997367224
 31
0.0
  0
ARC
  5
12DF
  8
SAPA_PROFIL
 62
     2
 10
120.4838385214633
 20
107.7999997367222
 30
0.0
 40
0.2000000000001001
 50
89.999999999841222
 51
134.9999999998301
  0
LINE
  5
12E0
  8
SAPA_PROFIL
 62
     2
 10
119.1811378935185
 20
106.78014182125131
 30
0.0
 11
120.34241716522629
 21
107.94142109296
 31
0.0
  0
ARC
  5
12E1
  8
SAPA_PROFIL
 62
     2
 10
119.03971653728161
 20
106.92156317748881
 30
0.0
 40
0.1999999999998087
 50
224.9999999997697
 51
314.99999999986181
  0
LINE
  5
12E2
  8
SAPA_PROFIL
 62
     2
 10
118.6861631466881
 20
106.992273855608
 30
0.0
 11
118.89829518104391
 21
106.7801418212522
 31
0.0
  0
ARC
  5
12E3
  8
SAPA_PROFIL
 62
     2
 10
118.8275845029256
 20
107.13369521184551
 30
0.0
 40
0.200000000000291
 50
135.0
 51
225.0
  0
LINE
  5
12E4
  8
SAPA_PROFIL
 62
     2
 10
119.52569097626871
 20
108.1146443976633
 30
0.0
 11
118.6861631466881
 21
107.27511656808311
 31
0.0
  0
ARC
  5
12E5
  8
SAPA_PROFIL
 62
     2
 10
119.4903356372097
 20
108.14999973672251
 30
0.0
 40
0.0499999999996845
 50
314.99999999986181
 51
90.000000000146542
  0
LINE
  5
12E6
  8
SAPA_PROFIL
 62
     2
 10
117.8260473219697
 20
108.19999973672221
 30
0.0
 11
119.4903356372096
 21
108.19999973672221
 31
0.0
  0
ARC
  5
12E7
  8
SAPA_PROFIL
 62
     2
 10
117.8260473219689
 20
107.19999973672169
 30
0.0
 40
1.000000000000469
 50
89.999999999952777
 51
119.9999999999299
  0
LINE
  5
12E8
  8
SAPA_PROFIL
 62
     2
 10
116.5992524027273
 20
107.6464098982366
 30
0.0
 11
117.3260473219697
 21
108.06602514050719
 31
0.0
  0
ARC
  5
12E9
  8
SAPA_PROFIL
 62
     2
 10
116.6992524027273
 20
107.4732048174799
 30
0.0
 40
0.1999999999998749
 50
120.00000000001
 51
180.0000000000162
  0
LINE
  5
12EA
  8
SAPA_PROFIL
 62
     2
 10
116.49925240272739
 20
105.9999997381075
 30
0.0
 11
116.49925240272739
 21
107.4732048174798
 31
0.0
  0
ARC
  5
12EB
  8
SAPA_PROFIL
 62
     2
 10
116.1992524027272
 20
105.9999997381076
 30
0.0
 40
0.3000000000002387
 50
270.0000000000108
 51
359.99999999998909
  0
LINE
  5
12EC
  8
SAPA_PROFIL
 62
     2
 10
114.79925240272711
 20
105.69999973810729
 30
0.0
 11
116.1992524027272
 21
105.69999973810729
 31
0.0
  0
ARC
  5
12ED
  8
SAPA_PROFIL
 62
     2
 10
114.7992524027275
 20
105.99999973810741
 30
0.0
 40
0.300000000000125
 50
179.99999999998909
 51
269.99999999992389
  0
LINE
  5
12EE
  8
SAPA_PROFIL
 62
     2
 10
114.49925240272739
 20
106.9260591111894
 30
0.0
 11
114.49925240272739
 21
105.9999997381075
 31
0.0
  0
ARC
  5
12EF
  8
SAPA_PROFIL
 62
     2
 10
114.29925240272711
 20
106.9260591111894
 30
0.0
 40
0.2000000000002809
 50
359.99999999999193
 51
44.99999999999136
  0
LINE
  5
12F0
  8
SAPA_PROFIL
 62
     2
 10
113.5667331334315
 20
107.94142109296
 30
0.0
 11
114.44067375896471
 21
107.0674804674269
 31
0.0
  0
ARC
  5
12F1
  8
SAPA_PROFIL
 62
     2
 10
113.42531177719459
 20
107.7999997367222
 30
0.0
 40
0.2000000000001023
 50
45.000000000169841
 51
90.000000000158749
  0
LINE
  5
12F2
  8
SAPA_PROFIL
 62
     2
 10
107.6820951152026
 20
81.999999746928765
 30
0.0
 11
113.41640969025271
 21
81.999999746928765
 31
0.0
  0
ARC
  5
12F3
  8
SAPA_PROFIL
 62
     2
 10
107.6820951152024
 20
82.199999746928583
 30
0.0
 40
0.1999999999998187
 50
225.0000000001354
 51
270.00000000006099
  0
LINE
  5
12F4
  8
SAPA_PROFIL
 62
     2
 10
106.6578310464902
 20
82.941421103165567
 30
0.0
 11
107.5406737589655
 21
82.058578390691096
 31
0.0
  0
ARC
  5
12F5
  8
SAPA_PROFIL
 62
     2
 10
106.7992524027277
 20
83.082842459403054
 30
0.0
 40
0.2000000000002871
 50
179.99999999999179
 51
224.99999999999139
  0
LINE
  5
12F6
  8
SAPA_PROFIL
 62
     2
 10
106.5992524027274
 20
84.299999748517848
 30
0.0
 11
106.5992524027274
 21
83.082842459403082
 31
0.0
  0
ARC
  5
12F7
  8
SAPA_PROFIL
 62
     2
 10
106.3992524027276
 20
84.299999748517848
 30
0.0
 40
0.1999999999998181
 50
0.0
 51
90.0
  0
LINE
  5
12F8
  8
SAPA_PROFIL
 62
     2
 10
104.7992524027277
 20
84.499999748517666
 30
0.0
 11
106.3992524027276
 21
84.499999748517666
 31
0.0
  0
ARC
  5
12F9
  8
SAPA_PROFIL
 62
     2
 10
104.7992524027277
 20
84.299999748517806
 30
0.0
 40
0.1999999999998749
 50
90.000000000016271
 51
179.99999999998369
  0
LINE
  5
12FA
  8
SAPA_PROFIL
 62
     2
 10
104.5992524027274
 20
82.199999746928583
 30
0.0
 11
104.5992524027278
 21
84.299999748517848
 31
0.0
  0
ARC
  5
12FB
  8
SAPA_PROFIL
 62
     2
 10
104.3992524027276
 20
82.199999746928583
 30
0.0
 40
0.1999999999998181
 50
269.99999999986971
 51
0.0
  0
LINE
  5
12FC
  8
SAPA_PROFIL
 62
     2
 10
102.6992524027273
 20
81.999999746928765
 30
0.0
 11
104.3992524027271
 21
81.999999746928765
 31
0.0
  0
ARC
  5
12FD
  8
SAPA_PROFIL
 62
     2
 10
102.69925240272759
 20
81.799999746928677
 30
0.0
 40
0.2000000000001023
 50
90.000000000081414
 51
180.00000000017911
  0
LINE
  5
12FE
  8
SAPA_PROFIL
 62
     2
 10
102.49925240272751
 20
80.299999746928037
 30
0.0
 11
102.49925240272751
 21
81.799999746928052
 31
0.0
  0
ARC
  5
12FF
  8
SAPA_PROFIL
 62
     2
 10
102.79925240272721
 20
80.299999746928506
 30
0.0
 40
0.2999999999997271
 50
180.0000000000868
 51
270.0000000000868
  0
LINE
  5
1300
  8
SAPA_PROFIL
 62
     2
 10
121.69925240272779
 20
79.999999746928779
 30
0.0
 11
102.7992524027277
 21
79.999999746928779
 31
0.0
  0
ARC
  5
1301
  8
SAPA_PROFIL
 62
     2
 10
121.6992524027275
 20
80.299999746928791
 30
0.0
 40
0.3000000000000114
 50
270.00000000005417
 51
0.0000000000325689
  0
LINE
  5
1302
  8
SAPA_PROFIL
 62
     2
 10
121.9992524027279
 20
81.699999746928597
 30
0.0
 11
121.99925240272751
 21
80.299999746928975
 31
0.0
  0
ARC
  5
1303
  8
SAPA_PROFIL
 62
     2
 10
121.69925240272779
 20
81.699999746928654
 30
0.0
 40
0.300000000000125
 50
359.99999999998909
 51
90.000000000010829
  0
LINE
  5
1304
  8
SAPA_PROFIL
 62
     2
 10
120.48383852146389
 20
81.999999746928765
 30
0.0
 11
121.69925240272779
 21
81.999999746928765
 31
0.0
  0
ARC
  5
1305
  8
SAPA_PROFIL
 62
     2
 10
120.4838385214633
 20
82.199999746928867
 30
0.0
 40
0.2000000000001001
 50
225.00000000016979
 51
270.00000000015882
  0
LINE
  5
1306
  8
SAPA_PROFIL
 62
     2
 10
119.1811378935185
 20
83.219857662399804
 30
0.0
 11
120.34241716522639
 21
82.058578390691096
 31
0.0
  0
ARC
  5
1307
  8
SAPA_PROFIL
 62
     2
 10
119.03971653728171
 20
83.078436306162317
 30
0.0
 40
0.1999999999998087
 50
45.000000000138179
 51
135.0000000002303
  0
LINE
  5
1308
  8
SAPA_PROFIL
 62
     2
 10
118.6861631466881
 20
83.007725628043104
 30
0.0
 11
118.89829518104401
 21
83.219857662398894
 31
0.0
  0
ARC
  5
1309
  8
SAPA_PROFIL
 62
     2
 10
118.8275845029256
 20
82.866304271805575
 30
0.0
 40
0.200000000000291
 50
135.0
 51
225.0
  0
LINE
  5
130A
  8
SAPA_PROFIL
 62
     2
 10
119.52569097626881
 20
81.88535508598784
 30
0.0
 11
118.6861631466881
 21
82.72488291556806
 31
0.0
  0
ARC
  5
130B
  8
SAPA_PROFIL
 62
     2
 10
119.4903356372098
 20
81.849999746928646
 30
0.0
 40
0.0499999999996845
 50
269.99999999985351
 51
45.000000000138179
  0
LINE
  5
130C
  8
SAPA_PROFIL
 62
     2
 10
117.8260473219697
 20
81.799999746928947
 30
0.0
 11
119.4903356372097
 21
81.799999746928947
 31
0.0
  0
ARC
  5
130D
  8
SAPA_PROFIL
 62
     2
 10
117.8260473219689
 20
82.79999974692943
 30
0.0
 40
1.000000000000469
 50
240.00000000007009
 51
270.00000000004718
  0
LINE
  5
130E
  8
SAPA_PROFIL
 62
     2
 10
116.5992524027274
 20
82.353589585414525
 30
0.0
 11
117.3260473219698
 21
81.933974343143959
 31
0.0
  0
ARC
  5
130F
  8
SAPA_PROFIL
 62
     2
 10
116.6992524027274
 20
82.52679466617127
 30
0.0
 40
0.1999999999998749
 50
179.99999999998369
 51
239.99999999999
  0
LINE
  5
1310
  8
SAPA_PROFIL
 62
     2
 10
116.49925240272751
 20
83.999999745543604
 30
0.0
 11
116.49925240272751
 21
82.526794666171327
 31
0.0
  0
ARC
  5
1311
  8
SAPA_PROFIL
 62
     2
 10
116.1992524027272
 20
83.999999745543562
 30
0.0
 40
0.3000000000002387
 50
0.0000000000108563
 51
89.999999999989143
  0
LINE
  5
1312
  8
SAPA_PROFIL
 62
     2
 10
114.79925240272721
 20
84.299999745543801
 30
0.0
 11
116.1992524027273
 21
84.299999745543801
 31
0.0
  0
ARC
  5
1313
  8
SAPA_PROFIL
 62
     2
 10
114.7992524027276
 20
83.999999745543676
 30
0.0
 40
0.300000000000125
 50
90.000000000076014
 51
180.0000000000108
  0
LINE
  5
1314
  8
SAPA_PROFIL
 62
     2
 10
114.49925240272751
 20
83.07394037246172
 30
0.0
 11
114.49925240272751
 21
83.999999745543604
 31
0.0
  0
ARC
  5
1315
  8
SAPA_PROFIL
 62
     2
 10
114.29925240272721
 20
83.073940372461692
 30
0.0
 40
0.2000000000002809
 50
315.00000000000858
 51
0.0000000000081422
  0
LINE
  5
1316
  8
SAPA_PROFIL
 62
     2
 10
113.5667331334316
 20
82.058578390691096
 30
0.0
 11
114.44067375896471
 21
82.932519016224205
 31
0.0
  0
ARC
  5
1317
  8
SAPA_PROFIL
 62
     2
 10
113.42531177719459
 20
82.199999746928867
 30
0.0
 40
0.2000000000001023
 50
269.99999999984129
 51
314.99999999983021
  0
LINE
  5
1318
  8
SAPA_PROFIL
 10
104.5992524027275
 20
107.49999977602999
 30
0.0
 11
102.5992524027275
 21
107.49999977602999
 31
0.0
  0
LINE
  5
1319
  8
SAPA_PROFIL
 10
104.5992524027275
 20
82.499999776029995
 30
0.0
 11
104.5992524027275
 21
107.49999977602999
 31
0.0
  0
LINE
  5
131A
  8
SAPA_PROFIL
 10
102.5992524027275
 20
82.499999776029995
 30
0.0
 11
104.5992524027275
 21
82.499999776029995
 31
0.0
  0
LINE
  5
131B
  8
SAPA_PROFIL
 10
102.5992524027275
 20
107.49999977602999
 30
0.0
 11
102.5992524027275
 21
82.499999776029995
 31
0.0
  0
LINE
  5
131C
  8
SAPA_PROFIL
 10
77.599252402727558
 20
90.143183133239603
 30
0.0
 11
102.5992524027275
 21
90.143183133239631
 31
0.0
  0
LINE
  5
131D
  8
SAPA_PROFIL
 10
77.599252402727558
 20
99.856816418823996
 30
0.0
 11
77.599252402727558
 21
90.143183133239603
 31
0.0
  0
LINE
  5
131E
  8
SAPA_PROFIL
 10
102.5992524027275
 20
99.85681641882401
 30
0.0
 11
77.599252402727558
 21
99.856816418823996
 31
0.0
  0
LINE
  5
131F
  8
SAPA_PROFIL
 10
145.5992524027275
 20
87.999999776029995
 30
0.0
 11
104.5992524027275
 21
87.999999776029995
 31
0.0
  0
LINE
  5
1320
  8
SAPA_PROFIL
 10
145.5992524027275
 20
101.99999977602999
 30
0.0
 11
145.5992524027275
 21
87.999999776029995
 31
0.0
  0
LINE
  5
1321
  8
SAPA_PROFIL
 10
104.5992524027275
 20
101.99999977602999
 30
0.0
 11
145.5992524027275
 21
101.99999977602999
 31
0.0
  0
LINE
  5
1322
  8
SAPA_PROFIL
 10
90.000000287237896
 20
100.49999991873059
 30
0.0
 11
85.500000287237896
 21
100.49999991873059
 31
0.0
  0
ARC
  5
1323
  8
SAPA_PROFIL
 10
90.000000287237896
 20
102.99999991873059
 30
0.0
 40
2.5
 50
270.0
 51
0.0
  0
LINE
  5
1324
  8
SAPA_PROFIL
 10
92.500000287237896
 20
127.3499998718884
 30
0.0
 11
92.500000287237896
 21
102.99999991873059
 31
0.0
  0
LINE
  5
1325
  8
SAPA_PROFIL
 10
90.500000287237896
 20
127.3499998718884
 30
0.0
 11
92.500000287237896
 21
127.3499998718884
 31
0.0
  0
LINE
  5
1326
  8
SAPA_PROFIL
 10
90.500000287237896
 20
102.99999991873059
 30
0.0
 11
90.500000287237896
 21
127.3499998718884
 31
0.0
  0
ARC
  5
1327
  8
SAPA_PROFIL
 10
90.000000287237896
 20
102.99999991873059
 30
0.0
 40
0.5
 50
270.0
 51
0.0
  0
LINE
  5
1328
  8
SAPA_PROFIL
 10
85.500000287237896
 20
102.49999991873059
 30
0.0
 11
90.000000287237896
 21
102.49999991873059
 31
0.0
  0
LINE
  5
1329
  8
SAPA_PROFIL
 10
90.000000287237896
 20
87.499999918730666
 30
0.0
 11
85.500000287237896
 21
87.499999918730666
 31
0.0
  0
ARC
  5
132A
  8
SAPA_PROFIL
 10
90.000000287237896
 20
86.999999918730651
 30
0.0
 40
0.5
 50
0.0
 51
90.0
  0
LINE
  5
132B
  8
SAPA_PROFIL
 10
90.500000287237896
 20
61.349999871762613
 30
0.0
 11
90.500000287237896
 21
86.999999918730651
 31
0.0
  0
LINE
  5
132C
  8
SAPA_PROFIL
 10
92.500000287237896
 20
61.349999871762613
 30
0.0
 11
90.500000287237896
 21
61.349999871762613
 31
0.0
  0
LINE
  5
132D
  8
SAPA_PROFIL
 10
92.500000287237896
 20
86.999999918730651
 30
0.0
 11
92.500000287237896
 21
61.349999871762613
 31
0.0
  0
ARC
  5
132E
  8
SAPA_PROFIL
 10
90.000000287237896
 20
86.999999918730651
 30
0.0
 40
2.5
 50
0.0
 51
90.0
  0
LINE
  5
132F
  8
SAPA_PROFIL
 10
85.500000287237896
 20
89.499999918730651
 30
0.0
 11
90.000000287237896
 21
89.499999918730651
 31
0.0
  0
LINE
  5
1330
  8
SAPA_PROFIL
 10
90.500000287237924
 20
89.449489661513823
 30
0.0
 11
90.500000287237896
 21
100.55051017594739
 31
0.0
  0
LINE
  5
1331
  8
SAPA_PROFIL
 10
92.500000287237896
 20
86.999999918730651
 30
0.0
 11
92.500000287237896
 21
102.99999991873059
 31
0.0
  0
LINE
  5
1332
  8
SAPA_PROFIL
 10
90.500000287237896
 20
120.24999987188841
 30
0.0
 11
92.500000287237896
 21
118.5718006095338
 31
0.0
  0
LINE
  5
1333
  8
SAPA_PROFIL
 10
90.500000287237896
 20
124.44999987188839
 30
0.0
 11
92.500000287237896
 21
126.12819913424291
 31
0.0
  0
LINE
  5
1334
  8
SAPA_PROFIL
 10
90.500000287237896
 20
64.249999871762626
 30
0.0
 11
92.500000287237896
 21
62.571800609408079
 31
0.0
  0
LINE
  5
1335
  8
SAPA_PROFIL
 10
90.500000287237896
 20
68.449999871762628
 30
0.0
 11
92.500000287237896
 21
70.128199134117182
 31
0.0
  0
LINE
  5
1336
  8
SAPA_PROFIL
 10
85.500000287237896
 20
100.49999991873059
 30
0.0
 11
85.500000287237896
 21
102.49999991873059
 31
0.0
  0
LINE
  5
1337
  8
SAPA_PROFIL
 10
85.500000287237896
 20
89.499999918730651
 30
0.0
 11
85.500000287237896
 21
87.499999918730666
 31
0.0
  0
POLYLINE
  5
134F
  8
SAPA_GLAS
 66
     1
 10
0.0
 20
0.0
 30
0.0
 70
     1
  0
VERTEX
  5
1EAA
  8
SAPA_GLAS
 10
170.00000028516791
 20
66.997430601632516
 30
0.0
  0
VERTEX
  5
1EAB
  8
SAPA_GLAS
 10
170.00000028516791
 20
81.997430601632516
 30
0.0
  0
VERTEX
  5
1EAC
  8
SAPA_GLAS
 10
160.00000028516791
 20
81.997430601632516
 30
0.0
  0
VERTEX
  5
1EAD
  8
SAPA_GLAS
 10
160.00000028516791
 20
66.997430601632516
 30
0.0
  0
SEQEND
  5
1EAE
  8
SAPA_GLAS
  0
POLYLINE
  5
1350
  8
SAPA_GLAS
 66
     1
 10
0.0
 20
0.0
 30
0.0
 70
     1
  0
VERTEX
  5
1EAF
  8
SAPA_GLAS
 10
170.00000028516791
 20
85.997430601632516
 30
0.0
  0
VERTEX
  5
1EB0
  8
SAPA_GLAS
 10
170.00000028516791
 20
100.9974306016325
 30
0.0
  0
VERTEX
  5
1EB1
  8
SAPA_GLAS
 10
160.00000028516791
 20
100.9974306016325
 30
0.0
  0
VERTEX
  5
1EB2
  8
SAPA_GLAS
 10
160.00000028516791
 20
85.997430601632516
 30
0.0
  0
SEQEND
  5
1EB3
  8
SAPA_GLAS
  0
POLYLINE
  5
1351
  8
SAPA_GLAS
 66
     1
 10
0.0
 20
0.0
 30
0.0
  0
VERTEX
  5
1EB4
  8
SAPA_GLAS
 10
190.0000002851676
 20
85.997430601632516
 30
0.0
  0
VERTEX
  5
1EB5
  8
SAPA_GLAS
 10
160.00000028516769
 20
85.997430601632516
 30
0.0
  0
VERTEX
  5
1EB6
  8
SAPA_GLAS
 10
160.00000028516769
 20
81.997430601632516
 30
0.0
  0
VERTEX
  5
1EB7
  8
SAPA_GLAS
 10
190.0000002851676
 20
81.997430601632516
 30
0.0
  0
SEQEND
  5
1EB8
  8
SAPA_GLAS
  0
POLYLINE
  5
1352
  8
SAPA_GLAS
 66
     1
 10
0.0
 20
0.0
 30
0.0
  0
VERTEX
  5
1EB9
  8
SAPA_GLAS
 10
190.0000002851676
 20
106.9974306016325
 30
0.0
  0
VERTEX
  5
1EBA
  8
SAPA_GLAS
 10
160.00000028516769
 20
106.9974306016325
 30
0.0
  0
VERTEX
  5
1EBB
  8
SAPA_GLAS
 10
160.00000028516769
 20
100.9974306016325
 30
0.0
  0
VERTEX
  5
1EBC
  8
SAPA_GLAS
 10
190.0000002851676
 20
100.9974306016325
 30
0.0
  0
SEQEND
  5
1EBD
  8
SAPA_GLAS
  0
POLYLINE
  5
1353
  8
SAPA_GLAS
 66
     1
 10
0.0
 20
0.0
 30
0.0
  0
VERTEX
  5
1EBE
  8
SAPA_GLAS
 10
190.0000002851676
 20
60.997430601632523
 30
0.0
  0
VERTEX
  5
1EBF
  8
SAPA_GLAS
 10
160.00000028516769
 20
60.997430601632523
 30
0.0
  0
VERTEX
  5
1EC0
  8
SAPA_GLAS
 10
160.00000028516769
 20
66.997430601632516
 30
0.0
  0
VERTEX
  5
1EC1
  8
SAPA_GLAS
 10
190.0000002851676
 20
66.997430601632516
 30
0.0
  0
SEQEND
  5
1EC2
  8
SAPA_GLAS
  0
POLYLINE
  5
1354
  8
SAPA_GLAS
 66
     1
 10
0.0
 20
0.0
 30
0.0
 70
     1
  0
VERTEX
  5
1EC3
  8
SAPA_GLAS
 10
20.00000028723754
 20
66.997430698118436
 30
0.0
  0
VERTEX
  5
1EC4
  8
SAPA_GLAS
 10
20.00000028723754
 20
81.997430698118436
 30
0.0
  0
VERTEX
  5
1EC5
  8
SAPA_GLAS
 10
30.00000028723754
 20
81.997430698118436
 30
0.0
  0
VERTEX
  5
1EC6
  8
SAPA_GLAS
 10
30.00000028723754
 20
66.997430698118436
 30
0.0
  0
SEQEND
  5
1EC7
  8
SAPA_GLAS
  0
POLYLINE
  5
1355
  8
SAPA_GLAS
 66
     1
 10
0.0
 20
0.0
 30
0.0
 70
     1
  0
VERTEX
  5
1EC8
  8
SAPA_GLAS
 10
20.00000028723754
 20
85.99743069811845
 30
0.0
  0
VERTEX
  5
1EC9
  8
SAPA_GLAS
 10
20.00000028723754
 20
100.99743069811839
 30
0.0
  0
VERTEX
  5
1ECA
  8
SAPA_GLAS
 10
30.00000028723754
 20
100.99743069811839
 30
0.0
  0
VERTEX
  5
1ECB
  8
SAPA_GLAS
 10
30.00000028723754
 20
85.99743069811845
 30
0.0
  0
SEQEND
  5
1ECC
  8
SAPA_GLAS
  0
POLYLINE
  5
1356
  8
SAPA_GLAS
 66
     1
 10
0.0
 20
0.0
 30
0.0
  0
VERTEX
  5
1ECD
  8
SAPA_GLAS
 10
0.0000002872377678
 20
85.99743069811845
 30
0.0
  0
VERTEX
  5
1ECE
  8
SAPA_GLAS
 10
30.000000287237771
 20
85.99743069811845
 30
0.0
  0
VERTEX
  5
1ECF
  8
SAPA_GLAS
 10
30.000000287237771
 20
81.997430698118436
 30
0.0
  0
VERTEX
  5
1ED0
  8
SAPA_GLAS
 10
0.0000002872377678
 20
81.997430698118436
 30
0.0
  0
SEQEND
  5
1ED1
  8
SAPA_GLAS
  0
POLYLINE
  5
1357
  8
SAPA_GLAS
 66
     1
 10
0.0
 20
0.0
 30
0.0
  0
VERTEX
  5
1ED2
  8
SAPA_GLAS
 10
0.0000002872377678
 20
106.99743069811839
 30
0.0
  0
VERTEX
  5
1ED3
  8
SAPA_GLAS
 10
30.000000287237771
 20
106.99743069811839
 30
0.0
  0
VERTEX
  5
1ED4
  8
SAPA_GLAS
 10
30.000000287237771
 20
100.99743069811839
 30
0.0
  0
VERTEX
  5
1ED5
  8
SAPA_GLAS
 10
0.0000002872377678
 20
100.99743069811839
 30
0.0
  0
SEQEND
  5
1ED6
  8
SAPA_GLAS
  0
POLYLINE
  5
1358
  8
SAPA_GLAS
 66
     1
 10
0.0
 20
0.0
 30
0.0
  0
VERTEX
  5
1ED7
  8
SAPA_GLAS
 10
0.0000002872377678
 20
60.99743069811845
 30
0.0
  0
VERTEX
  5
1ED8
  8
SAPA_GLAS
 10
30.000000287237771
 20
60.99743069811845
 30
0.0
  0
VERTEX
  5
1ED9
  8
SAPA_GLAS
 10
30.000000287237771
 20
66.997430698118436
 30
0.0
  0
VERTEX
  5
1EDA
  8
SAPA_GLAS
 10
0.0000002872377678
 20
66.997430698118436
 30
0.0
  0
SEQEND
  5
1EDB
  8
SAPA_GLAS
  0
INSERT
  5
135E
  8
SAPA_ISOLATOR
  6
CONTINUOUS
  2
*X110
 10
0.0
 20
0.0
 30
0.0
1001
ACAD
1000
HATCH
1002
{
1070
    19
1000
ANSI31
1040
0.35
1040
5.4977871437821371
1000
R14_HATCH_DATA
1000
135E
1011
1.0
1021
0.0
1031
0.0
1021
0.0
1031
0.0
1011
0.0
1021
0.0
1031
0.0
1021
1.0
1031
0.0
1011
0.0
1021
0.0
1031
0.0
1021
0.0
1031
1.0
1040
0.0
1010
0.0
1020
0.0
1030
1.0
1000
ANSI31
1070
     0
1070
     0
1071
        1
1071
        1
1071
       49
1070
     2
1040
127.1718566858557
1040
106.9637422393086
1040
0.3006817060114675
1040
0.0050584204141674
1040
1.2209764013054469
1070
     0
1070
     1
1040
127.2749089194777
1040
106.6812714877688
1040
124.8420788979337
1040
105.7957937748976
1070
     2
1040
124.9788869552665
1040
105.4199167265815
1040
0.400000000002539
1040
1.919862177198238
1040
3.1415926535904428
1070
     1
1070
     1
1040
124.578886955264
1040
105.41991672658121
1040
124.578886955264
1040
94.999999741867114
1070
     1
1040
124.578886955264
1040
94.999999741867114
1040
124.5788869552641
1040
84.580082757149015
1070
     2
1040
124.9788869552637
1040
84.580082757150763
1040
0.3999999999996488
1040
3.1415926535941709
1040
4.3633231299864041
1070
     1
1070
     1
1040
124.8420788979338
1040
84.204205708836653
1040
127.2749089194695
1040
83.318727995968473
1070
     2
1040
127.1720104765257
1040
83.036365423821053
1040
0.3005273892841634
1040
5.0618515338339378
1040
6.2784842586649878
1070
     0
1070
     2
1040
121.9118914700008
1040
82.808189448882757
1040
5.5653807064749881
1040
6.2419205770420829
1040
6.3050848890821518
1070
     0
1070
     1
1040
127.4759376746494
1040
82.686319680115432
1040
127.614607431756
1040
82.446136615333145
1070
     2
1040
127.43274209696111
1040
82.341136615333426
1040
0.2100000000000017
1040
5.7595865315828716
1040
7.8539816339739712
1070
     0
1070
     1
1040
127.43274209696121
1040
82.131136615333432
1040
127.16562756874821
1040
82.131136615333318
1070
     1
1040
127.16562756874821
1040
82.131136615333318
1040
126.96940550296399
1040
81.799999741867126
1070
     1
1040
126.96940550296399
1040
81.799999741867126
1040
126.4017613394665
1040
80.816679603886627
1070
     2
1040
126.5836266742601
1040
80.711679603888342
1040
0.209999999998109
1040
2.6179938779958061
1040
3.1415926535924319
1070
     1
1070
     1
1040
126.3736266742619
1040
80.711679603887788
1040
126.3736266742618
1040
80.399999741865216
1070
     2
1040
126.773626674258
1040
80.399999741863283
1040
0.3999999999961332
1040
3.1415926535850138
1040
4.7123889803951498
1070
     1
1070
     1
1040
126.7736266742621
1040
79.999999741867171
1040
130.1736266742619
1040
79.999999741867114
1070
     2
1040
130.1736266742648
1040
80.399999741864178
1040
0.3999999999970676
1040
4.7123889803774146
1040
6.2831853071870016
1070
     1
1070
     1
1040
130.5736266742619
1040
80.399999741867148
1040
130.5736266742619
1040
80.711679603890815
1070
     2
1040
130.3636266742669
1040
80.711679603889138
1040
0.2099999999949489
1040
0.0000000000078836
1040
0.5235987756045112
1070
     1
1070
     1
1040
130.5454920090566
1040
80.816679603887749
1040
129.9777718626946
1040
81.799999741867126
1070
     1
1040
129.9777718626946
1040
81.799999741867126
1040
129.63439618972251
1040
82.394743853537989
1070
     2
1040
130.6736266742729
1040
82.994743853544136
1040
1.2000000000109059
1040
2.6179938779908598
1040
3.1415926535875132
1070
     0
1070
     1
1040
129.47362667426199
1040
82.994743853541365
1040
129.47362667426219
1040
83.946608186427824
1070
     2
1040
128.47362667427001
1040
83.946608186418786
1040
0.9999999999922533
1040
0.0000000000090098
1040
1.221730476401516
1070
     1
1070
     1
1040
128.8156468175878
1040
84.886300807199305
1040
126.6420788979341
1040
85.677414832109164
1070
     2
1040
126.77888695526541
1040
86.053291880424638
1040
0.4000000000013905
1040
1.919862177195172
1040
3.141592653587403
1070
     0
1070
     1
1040
126.37888695526399
1040
86.053291880423686
1040
126.37888695526399
1040
94.999999741867114
1070
     1
1040
126.37888695526399
1040
94.999999741867114
1040
126.37888695526389
1040
103.9467076033106
1070
     2
1040
126.77888695526249
1040
103.94670760331159
1040
0.3999999999985775
1040
3.141592653587308
1040
4.363323129979511
1070
     0
1070
     1
1040
126.6420788979304
1040
104.3225846516237
1040
128.81564681758761
1040
105.1136986765348
1070
     2
1040
128.47362667424869
1040
106.05339129732999
1040
1.000000000013211
1040
5.0614548307928056
1040
6.2831853071850263
1070
     1
1070
     1
1040
129.47362667426191
1040
106.05339129733539
1040
129.47362667426191
1040
107.00525563019291
1070
     2
1040
130.6736266742509
1040
107.0052556301959
1040
1.1999999999890261
1040
3.1415926535872978
1040
3.665191429183948
1070
     0
1070
     1
1040
129.6343961897166
1040
107.60525563018609
1040
129.97362667426191
1040
108.1928200648946
1070
     1
1040
129.97362667426191
1040
108.1928200648946
1040
130.5454920090566
1040
109.18331987984659
1070
     2
1040
130.36362667425541
1040
109.2883198798482
1040
0.2100000000063851
1040
5.759586531589667
1040
6.2831853071863426
1070
     1
1070
     1
1040
130.57362667426179
1040
109.28831987984969
1040
130.5736266742619
1040
109.59999974186719
1070
     2
1040
130.17362667425891
1040
109.5999997418642
1040
0.40000000000295
1040
0.0000000000074324
1040
1.5707963267974121
1070
     1
1070
     1
1040
130.17362667425789
1040
109.9999997418672
1040
126.77362667426191
1040
109.9999997418672
1070
     2
1040
126.77362667426389
1040
109.5999997418652
1040
0.4000000000019782
1040
1.5707963267998979
1040
3.1415926535899059
1070
     1
1070
     1
1040
126.3736266742619
1040
109.5999997418651
1040
126.3736266742619
1040
109.2883198798465
1070
     2
1040
126.5836266742638
1040
109.2883198798469
1040
0.2100000000019078
1040
3.1415926535920451
1040
3.6651914291886731
1070
     1
1070
     1
1040
126.4017613394675
1040
109.1833198798459
1040
127.16562756874821
1040
107.8688628684009
1070
     1
1040
127.16562756874821
1040
107.8688628684009
1040
127.43274209696121
1040
107.8688628684008
1070
     2
1040
127.43274209696111
1040
107.6588628684008
1040
0.2100000000000017
1040
4.7123889803851959
1040
6.8067840827762964
1070
     0
1070
     1
1040
127.614607431756
1040
107.5538628684011
1040
127.4759376746494
1040
107.3136798036188
1070
     2
1040
121.9118914705583
1040
107.1918100348484
1040
5.5653807059176952
1040
6.2612857252742726
1040
6.3244500373143397
1070
     0
1071
        0
1070
     0
1070
     1
1040
5.4977871437821371
1040
0.35
1070
     0
1070
     1
1040
0.0
1040
0.0
1040
0.0
1040
0.0000000000000003
1040
1.111249999999999
1070
     0
1071
        1
1040
124.5788867622438
1040
109.99999989268289
1040
0.0
1002
}
  0
POLYLINE
  5
136E
  8
SAPA_FOGBAND
 62
     2
 66
     1
 10
0.0
 20
0.0
 30
0.0000000195376815
 70
     1
  0
VERTEX
  5
1FA4
  8
SAPA_FOGBAND
 62
     2
 10
91.583457563458595
 20
135.35008018677669
 30
0.0000000195376815
  0
VERTEX
  5
1FA5
  8
SAPA_FOGBAND
 62
     2
 10
91.483457563458586
 20
135.35008018677669
 30
0.0000000195376815
 42
0.4142135623730959
  0
VERTEX
  5
1FA6
  8
SAPA_FOGBAND
 62
     2
 10
90.783457563458612
 20
134.65008018677671
 30
0.0000000195376815
  0
VERTEX
  5
1FA7
  8
SAPA_FOGBAND
 62
     2
 10
90.783457563458583
 20
133.55008018677671
 30
0.0000000195376815
 42
0.4142135623730961
  0
VERTEX
  5
1FA8
  8
SAPA_FOGBAND
 62
     2
 10
90.9834575634586
 20
133.35008018677669
 30
0.0000000195376815
  0
VERTEX
  5
1FA9
  8
SAPA_FOGBAND
 62
     2
 10
92.083457563458595
 20
133.35008018677669
 30
0.0000000195376815
 42
0.4142135623730956
  0
VERTEX
  5
1FAA
  8
SAPA_FOGBAND
 62
     2
 10
92.283457563458612
 20
133.55008018677671
 30
0.0000000195376815
  0
VERTEX
  5
1FAB
  8
SAPA_FOGBAND
 62
     2
 10
92.283457563458569
 20
134.65008018677671
 30
0.0000000195376815
 42
0.4142135623730946
  0
SEQEND
  5
1FAC
  8
SAPA_FOGBAND
 62
     2
  0
POLYLINE
  5
136F
  8
SAPA_FOGBAND
 62
     2
 66
     1
 10
0.0
 20
0.0
 30
0.0000000195376815
 70
     1
  0
VERTEX
  5
1FAD
  8
SAPA_FOGBAND
 62
     2
 10
93.083457563458595
 20
134.05008018677671
 30
0.0000000195376815
  0
VERTEX
  5
1FAE
  8
SAPA_FOGBAND
 62
     2
 10
93.083457563458595
 20
133.40231462150359
 30
0.0000000195376815
 42
0.4416942457848321
  0
VERTEX
  5
1FAF
  8
SAPA_FOGBAND
 62
     2
 10
93.302011923086511
 20
133.2031771420107
 30
0.0000000195376815
  0
VERTEX
  5
1FB0
  8
SAPA_FOGBAND
 62
     2
 10
94.264903203830684
 20
133.29289320726869
 30
0.0000000195376815
 42
-0.441694245784789
  0
VERTEX
  5
1FB1
  8
SAPA_FOGBAND
 62
     2
 10
94.4834575634586
 20
133.0937557277758
 30
0.0000000195376815
  0
VERTEX
  5
1FB2
  8
SAPA_FOGBAND
 62
     2
 10
94.4834575634586
 20
132.54377338818421
 30
0.0000000195376815
 42
-0.5445962197109614
  0
VERTEX
  5
1FB3
  8
SAPA_FOGBAND
 62
     2
 10
93.777778518053523
 20
132.08803647912239
 30
0.0000000195376815
  0
VERTEX
  5
1FB4
  8
SAPA_FOGBAND
 62
     2
 10
93.418727364768259
 20
132.2500801867767
 30
0.0000000195376815
  0
VERTEX
  5
1FB5
  8
SAPA_FOGBAND
 62
     2
 10
91.945768126020354
 20
132.2500801867767
 30
0.0000000195376815
 42
-0.3364379234965429
  0
VERTEX
  5
1FB6
  8
SAPA_FOGBAND
 62
     2
 10
90.874024396405517
 20
132.43758700461839
 30
0.0000000195376815
  0
VERTEX
  5
1FB7
  8
SAPA_FOGBAND
 62
     2
 10
90.312160760581818
 20
132.43758700461839
 30
0.0000000195376815
 42
0.1919812372740509
  0
VERTEX
  5
1FB8
  8
SAPA_FOGBAND
 62
     2
 10
89.968173712981766
 20
132.30045462660121
 30
0.0000000195376815
  0
VERTEX
  5
1FB9
  8
SAPA_FOGBAND
 62
     2
 10
89.576306782578371
 20
131.92897715031111
 30
0.0000000195376815
 42
0.7523758382293955
  0
VERTEX
  5
1FBA
  8
SAPA_FOGBAND
 62
     2
 10
93.816736593680886
 20
130.940405976883
 30
0.0000000195376815
 42
0.020738253891463
  0
VERTEX
  5
1FBB
  8
SAPA_FOGBAND
 62
     2
 10
94.062455811631324
 20
131.4436371059536
 30
0.0000000195376815
 42
-0.910188045100355
  0
VERTEX
  5
1FBC
  8
SAPA_FOGBAND
 62
     2
 10
94.519755378312695
 20
131.09189025893991
 30
0.0000000195376815
 42
-0.8808478876171385
  0
VERTEX
  5
1FBD
  8
SAPA_FOGBAND
 62
     2
 10
89.01048908329885
 20
132.393282665154
 30
0.0000000195376815
  0
VERTEX
  5
1FBE
  8
SAPA_FOGBAND
 62
     2
 10
88.579929945417575
 20
132.5086506384431
 30
0.0000000195376815
 42
-0.9163311740173993
  0
VERTEX
  5
1FBF
  8
SAPA_FOGBAND
 62
     2
 10
88.718319860557685
 20
133.2934988481955
 30
0.0000000195376815
  0
VERTEX
  5
1FC0
  8
SAPA_FOGBAND
 62
     2
 10
89.766026414909064
 20
133.20183640198789
 30
0.0000000195376815
 42
0.4400105308918154
  0
VERTEX
  5
1FC1
  8
SAPA_FOGBAND
 62
     2
 10
89.983457563458614
 20
133.4010753416062
 30
0.0000000195376815
  0
VERTEX
  5
1FC2
  8
SAPA_FOGBAND
 62
     2
 10
89.983457563458614
 20
134.2500801867767
 30
0.0000000195376815
  0
VERTEX
  5
1FC3
  8
SAPA_FOGBAND
 62
     2
 10
89.583457563458595
 20
134.2500801867767
 30
0.0000000195376815
 42
-0.5693809839207589
  0
VERTEX
  5
1FC4
  8
SAPA_FOGBAND
 62
     2
 10
89.407903517894994
 20
134.5458965584794
 30
0.0000000195376815
  0
VERTEX
  5
1FC5
  8
SAPA_FOGBAND
 62
     2
 10
90.112869117794091
 20
135.8375293018847
 30
0.0000000195376815
 42
-0.2743878130875473
  0
VERTEX
  5
1FC6
  8
SAPA_FOGBAND
 62
     2
 10
90.639531254484837
 20
136.15008018677671
 30
0.0000000195376815
  0
VERTEX
  5
1FC7
  8
SAPA_FOGBAND
 62
     2
 10
92.427383872432372
 20
136.15008018677671
 30
0.0000000195376815
 42
-0.2743878130875473
  0
VERTEX
  5
1FC8
  8
SAPA_FOGBAND
 62
     2
 10
92.95404600912309
 20
135.83752930188459
 30
0.0000000195376815
  0
VERTEX
  5
1FC9
  8
SAPA_FOGBAND
 62
     2
 10
93.659011609022187
 20
134.5458965584794
 30
0.0000000195376815
 42
-0.5693809839208268
  0
VERTEX
  5
1FCA
  8
SAPA_FOGBAND
 62
     2
 10
93.4834575634586
 20
134.2500801867767
 30
0.0000000195376815
  0
VERTEX
  5
1FCB
  8
SAPA_FOGBAND
 62
     2
 10
93.083457563458595
 20
134.2500801867767
 30
0.0000000195376815
  0
VERTEX
  5
1FCC
  8
SAPA_FOGBAND
 62
     2
 10
93.083457563458595
 20
133.4010753416062
 30
0.0000000195376815
  0
SEQEND
  5
1FCD
  8
SAPA_FOGBAND
 62
     2
  0
POLYLINE
  5
1370
  8
SAPA_FOGBAND
 62
     2
 10
25.226214841189442
 20
110.588806069905
 30
0.0
 66
     1
 70
     8
  0
VERTEX
  8
SAPA_FOGBAND
  5
2036
 10
25.2262
 20
110.589
 30
0.000000
  70
    32
  0
VERTEX
  8
SAPA_FOGBAND
  5
2037
 10
25.2288
 20
110.520
 30
0.000000
  70
    32
  0
VERTEX
  8
SAPA_FOGBAND
  5
2038
 10
25.2367
 20
110.452
 30
0.000000
  70
    32
  0
VERTEX
  8
SAPA_FOGBAND
  5
2039
 10
25.2497
 20
110.383
 30
0.000000
  70
    32
  0
VERTEX
  8
SAPA_FOGBAND
  5
203A
 10
25.2679
 20
110.316
 30
0.000000
  70
    32
  0
VERTEX
  8
SAPA_FOGBAND
  5
203B
 10
25.2912
 20
110.249
 30
0.000000
  70
    32
  0
VERTEX
  8
SAPA_FOGBAND
  5
203C
 10
25.3196
 20
110.182
 30
0.000000
  70
    32
  0
VERTEX
  8
SAPA_FOGBAND
  5
203D
 10
25.3529
 20
110.117
 30
0.000000
  70
    32
  0
VERTEX
  8
SAPA_FOGBAND
  5
203E
 10
25.3912
 20
110.053
 30
0.000000
  70
    32
  0
VERTEX
  8
SAPA_FOGBAND
  5
203F
 10
25.4343
 20
109.990
 30
0.000000
  70
    32
  0
VERTEX
  8
SAPA_FOGBAND
  5
2040
 10
25.4822
 20
109.929
 30
0.000000
  70
    32
  0
VERTEX
  8
SAPA_FOGBAND
  5
2041
 10
25.5346
 20
109.869
 30
0.000000
  70
    32
  0
VERTEX
  8
SAPA_FOGBAND
  5
2042
 10
25.5916
 20
109.811
 30
0.000000
  70
    32
  0
VERTEX
  8
SAPA_FOGBAND
  5
2043
 10
25.6528
 20
109.755
 30
0.000000
  70
    32
  0
VERTEX
  8
SAPA_FOGBAND
  5
2044
 10
25.7183
 20
109.701
 30
0.000000
  70
    32
  0
VERTEX
  8
SAPA_FOGBAND
  5
2045
 10
25.7878
 20
109.649
 30
0.000000
  70
    32
  0
VERTEX
  8
SAPA_FOGBAND
  5
2046
 10
25.8611
 20
109.599
 30
0.000000
  70
    32
  0
VERTEX
  8
SAPA_FOGBAND
  5
2047
 10
25.9382
 20
109.551
 30
0.000000
  70
    32
  0
VERTEX
  8
SAPA_FOGBAND
  5
2048
 10
26.0188
 20
109.507
 30
0.000000
  70
    32
  0
VERTEX
  8
SAPA_FOGBAND
  5
2049
 10
26.1027
 20
109.464
 30
0.000000
  70
    32
  0
VERTEX
  8
SAPA_FOGBAND
  5
204A
 10
26.1896
 20
109.425
 30
0.000000
  70
    32
  0
VERTEX
  8
SAPA_FOGBAND
  5
204B
 10
26.2795
 20
109.388
 30
0.000000
  70
    32
  0
VERTEX
  8
SAPA_FOGBAND
  5
204C
 10
26.3721
 20
109.354
 30
0.000000
  70
    32
  0
VERTEX
  8
SAPA_FOGBAND
  5
204D
 10
26.4672
 20
109.323
 30
0.000000
  70
    32
  0
VERTEX
  8
SAPA_FOGBAND
  5
204E
 10
26.5644
 20
109.295
 30
0.000000
  70
    32
  0
VERTEX
  8
SAPA_FOGBAND
  5
204F
 10
26.6637
 20
109.271
 30
0.000000
  70
    32
  0
VERTEX
  8
SAPA_FOGBAND
  5
2050
 10
26.7647
 20
109.249
 30
0.000000
  70
    32
  0
VERTEX
  8
SAPA_FOGBAND
  5
2051
 10
26.8673
 20
109.231
 30
0.000000
  70
    32
  0
VERTEX
  8
SAPA_FOGBAND
  5
2052
 10
26.9711
 20
109.216
 30
0.000000
  70
    32
  0
VERTEX
  8
SAPA_FOGBAND
  5
2053
 10
27.0759
 20
109.204
 30
0.000000
  70
    32
  0
VERTEX
  8
SAPA_FOGBAND
  5
2054
 10
27.1815
 20
109.196
 30
0.000000
  70
    32
  0
VERTEX
  8
SAPA_FOGBAND
  5
2055
 10
27.2876
 20
109.190
 30
0.000000
  70
    32
  0
VERTEX
  8
SAPA_FOGBAND
  5
2056
 10
27.3940
 20
109.189
 30
0.000000
  70
    32
  0
VERTEX
  8
SAPA_FOGBAND
  5
2057
 10
27.5004
 20
109.190
 30
0.000000
  70
    32
  0
VERTEX
  8
SAPA_FOGBAND
  5
2058
 10
27.6065
 20
109.196
 30
0.000000
  70
    32
  0
VERTEX
  8
SAPA_FOGBAND
  5
2059
 10
27.7121
 20
109.204
 30
0.000000
  70
    32
  0
VERTEX
  8
SAPA_FOGBAND
  5
205A
 10
27.8169
 20
109.216
 30
0.000000
  70
    32
  0
VERTEX
  8
SAPA_FOGBAND
  5
205B
 10
27.9207
 20
109.231
 30
0.000000
  70
    32
  0
VERTEX
  8
SAPA_FOGBAND
  5
205C
 10
28.0233
 20
109.249
 30
0.000000
  70
    32
  0
VERTEX
  8
SAPA_FOGBAND
  5
205D
 10
28.1243
 20
109.271
 30
0.000000
  70
    32
  0
VERTEX
  8
SAPA_FOGBAND
  5
205E
 10
28.2236
 20
109.295
 30
0.000000
  70
    32
  0
VERTEX
  8
SAPA_FOGBAND
  5
205F
 10
28.3209
 20
109.323
 30
0.000000
  70
    32
  0
VERTEX
  8
SAPA_FOGBAND
  5
2060
 10
28.4159
 20
109.354
 30
0.000000
  70
    32
  0
VERTEX
  8
SAPA_FOGBAND
  5
2061
 10
28.5085
 20
109.388
 30
0.000000
  70
    32
  0
VERTEX
  8
SAPA_FOGBAND
  5
2062
 10
28.5984
 20
109.425
 30
0.000000
  70
    32
  0
VERTEX
  8
SAPA_FOGBAND
  5
2063
 10
28.6854
 20
109.464
 30
0.000000
  70
    32
  0
VERTEX
  8
SAPA_FOGBAND
  5
2064
 10
28.7692
 20
109.507
 30
0.000000
  70
    32
  0
VERTEX
  8
SAPA_FOGBAND
  5
2065
 10
28.8498
 20
109.551
 30
0.000000
  70
    32
  0
VERTEX
  8
SAPA_FOGBAND
  5
2066
 10
28.9269
 20
109.599
 30
0.000000
  70
    32
  0
VERTEX
  8
SAPA_FOGBAND
  5
2067
 10
29.0002
 20
109.649
 30
0.000000
  70
    32
  0
VERTEX
  8
SAPA_FOGBAND
  5
2068
 10
29.0697
 20
109.701
 30
0.000000
  70
    32
  0
VERTEX
  8
SAPA_FOGBAND
  5
2069
 10
29.1352
 20
109.755
 30
0.000000
  70
    32
  0
VERTEX
  8
SAPA_FOGBAND
  5
206A
 10
29.1965
 20
109.811
 30
0.000000
  70
    32
  0
VERTEX
  8
SAPA_FOGBAND
  5
206B
 10
29.2534
 20
109.869
 30
0.000000
  70
    32
  0
VERTEX
  8
SAPA_FOGBAND
  5
206C
 10
29.3058
 20
109.929
 30
0.000000
  70
    32
  0
VERTEX
  8
SAPA_FOGBAND
  5
206D
 10
29.3537
 20
109.990
 30
0.000000
  70
    32
  0
VERTEX
  8
SAPA_FOGBAND
  5
206E
 10
29.3968
 20
110.053
 30
0.000000
  70
    32
  0
VERTEX
  8
SAPA_FOGBAND
  5
206F
 10
29.4351
 20
110.117
 30
0.000000
  70
    32
  0
VERTEX
  8
SAPA_FOGBAND
  5
2070
 10
29.4684
 20
110.182
 30
0.000000
  70
    32
  0
VERTEX
  8
SAPA_FOGBAND
  5
2071
 10
29.4968
 20
110.249
 30
0.000000
  70
    32
  0
VERTEX
  8
SAPA_FOGBAND
  5
2072
 10
29.5201
 20
110.316
 30
0.000000
  70
    32
  0
VERTEX
  8
SAPA_FOGBAND
  5
2073
 10
29.5383
 20
110.383
 30
0.000000
  70
    32
  0
VERTEX
  8
SAPA_FOGBAND
  5
2074
 10
29.5514
 20
110.452
 30
0.000000
  70
    32
  0
VERTEX
  8
SAPA_FOGBAND
  5
2075
 10
29.5592
 20
110.520
 30
0.000000
  70
    32
  0
VERTEX
  8
SAPA_FOGBAND
  5
2076
 10
29.5618
 20
110.589
 30
0.000000
  70
    32
  0
VERTEX
  8
SAPA_FOGBAND
  5
2077
 10
29.5592
 20
110.658
 30
0.000000
  70
    32
  0
VERTEX
  8
SAPA_FOGBAND
  5
2078
 10
29.5514
 20
110.726
 30
0.000000
  70
    32
  0
VERTEX
  8
SAPA_FOGBAND
  5
2079
 10
29.5383
 20
110.794
 30
0.000000
  70
    32
  0
VERTEX
  8
SAPA_FOGBAND
  5
207A
 10
29.5201
 20
110.862
 30
0.000000
  70
    32
  0
VERTEX
  8
SAPA_FOGBAND
  5
207B
 10
29.4968
 20
110.929
 30
0.000000
  70
    32
  0
VERTEX
  8
SAPA_FOGBAND
  5
207C
 10
29.4684
 20
110.995
 30
0.000000
  70
    32
  0
VERTEX
  8
SAPA_FOGBAND
  5
207D
 10
29.4351
 20
111.060
 30
0.000000
  70
    32
  0
VERTEX
  8
SAPA_FOGBAND
  5
207E
 10
29.3968
 20
111.125
 30
0.000000
  70
    32
  0
VERTEX
  8
SAPA_FOGBAND
  5
207F
 10
29.3537
 20
111.187
 30
0.000000
  70
    32
  0
VERTEX
  8
SAPA_FOGBAND
  5
2080
 10
29.3058
 20
111.249
 30
0.000000
  70
    32
  0
VERTEX
  8
SAPA_FOGBAND
  5
2081
 10
29.2534
 20
111.309
 30
0.000000
  70
    32
  0
VERTEX
  8
SAPA_FOGBAND
  5
2082
 10
29.1965
 20
111.367
 30
0.000000
  70
    32
  0
VERTEX
  8
SAPA_FOGBAND
  5
2083
 10
29.1352
 20
111.423
 30
0.000000
  70
    32
  0
VERTEX
  8
SAPA_FOGBAND
  5
2084
 10
29.0697
 20
111.477
 30
0.000000
  70
    32
  0
VERTEX
  8
SAPA_FOGBAND
  5
2085
 10
29.0002
 20
111.529
 30
0.000000
  70
    32
  0
VERTEX
  8
SAPA_FOGBAND
  5
2086
 10
28.9269
 20
111.579
 30
0.000000
  70
    32
  0
VERTEX
  8
SAPA_FOGBAND
  5
2087
 10
28.8498
 20
111.626
 30
0.000000
  70
    32
  0
VERTEX
  8
SAPA_FOGBAND
  5
2088
 10
28.7692
 20
111.671
 30
0.000000
  70
    32
  0
VERTEX
  8
SAPA_FOGBAND
  5
2089
 10
28.6854
 20
111.713
 30
0.000000
  70
    32
  0
VERTEX
  8
SAPA_FOGBAND
  5
208A
 10
28.5984
 20
111.753
 30
0.000000
  70
    32
  0
VERTEX
  8
SAPA_FOGBAND
  5
208B
 10
28.5085
 20
111.790
 30
0.000000
  70
    32
  0
VERTEX
  8
SAPA_FOGBAND
  5
208C
 10
28.4159
 20
111.823
 30
0.000000
  70
    32
  0
VERTEX
  8
SAPA_FOGBAND
  5
208D
 10
28.3209
 20
111.854
 30
0.000000
  70
    32
  0
VERTEX
  8
SAPA_FOGBAND
  5
208E
 10
28.2236
 20
111.882
 30
0.000000
  70
    32
  0
VERTEX
  8
SAPA_FOGBAND
  5
208F
 10
28.1243
 20
111.907
 30
0.000000
  70
    32
  0
VERTEX
  8
SAPA_FOGBAND
  5
2090
 10
28.0233
 20
111.929
 30
0.000000
  70
    32
  0
VERTEX
  8
SAPA_FOGBAND
  5
2091
 10
27.9207
 20
111.947
 30
0.000000
  70
    32
  0
VERTEX
  8
SAPA_FOGBAND
  5
2092
 10
27.8169
 20
111.962
 30
0.000000
  70
    32
  0
VERTEX
  8
SAPA_FOGBAND
  5
2093
 10
27.7121
 20
111.974
 30
0.000000
  70
    32
  0
VERTEX
  8
SAPA_FOGBAND
  5
2094
 10
27.6065
 20
111.982
 30
0.000000
  70
    32
  0
VERTEX
  8
SAPA_FOGBAND
  5
2095
 10
27.5004
 20
111.987
 30
0.000000
  70
    32
  0
VERTEX
  8
SAPA_FOGBAND
  5
2096
 10
27.3940
 20
111.989
 30
0.000000
  70
    32
  0
VERTEX
  8
SAPA_FOGBAND
  5
2097
 10
27.2876
 20
111.987
 30
0.000000
  70
    32
  0
VERTEX
  8
SAPA_FOGBAND
  5
2098
 10
27.1815
 20
111.982
 30
0.000000
  70
    32
  0
VERTEX
  8
SAPA_FOGBAND
  5
2099
 10
27.0759
 20
111.974
 30
0.000000
  70
    32
  0
VERTEX
  8
SAPA_FOGBAND
  5
209A
 10
26.9711
 20
111.962
 30
0.000000
  70
    32
  0
VERTEX
  8
SAPA_FOGBAND
  5
209B
 10
26.8673
 20
111.947
 30
0.000000
  70
    32
  0
VERTEX
  8
SAPA_FOGBAND
  5
209C
 10
26.7647
 20
111.929
 30
0.000000
  70
    32
  0
VERTEX
  8
SAPA_FOGBAND
  5
209D
 10
26.6637
 20
111.907
 30
0.000000
  70
    32
  0
VERTEX
  8
SAPA_FOGBAND
  5
209E
 10
26.5644
 20
111.882
 30
0.000000
  70
    32
  0
VERTEX
  8
SAPA_FOGBAND
  5
209F
 10
26.4672
 20
111.854
 30
0.000000
  70
    32
  0
VERTEX
  8
SAPA_FOGBAND
  5
20A0
 10
26.3721
 20
111.823
 30
0.000000
  70
    32
  0
VERTEX
  8
SAPA_FOGBAND
  5
20A1
 10
26.2795
 20
111.790
 30
0.000000
  70
    32
  0
VERTEX
  8
SAPA_FOGBAND
  5
20A2
 10
26.1896
 20
111.753
 30
0.000000
  70
    32
  0
VERTEX
  8
SAPA_FOGBAND
  5
20A3
 10
26.1027
 20
111.713
 30
0.000000
  70
    32
  0
VERTEX
  8
SAPA_FOGBAND
  5
20A4
 10
26.0188
 20
111.671
 30
0.000000
  70
    32
  0
VERTEX
  8
SAPA_FOGBAND
  5
20A5
 10
25.9382
 20
111.626
 30
0.000000
  70
    32
  0
VERTEX
  8
SAPA_FOGBAND
  5
20A6
 10
25.8611
 20
111.579
 30
0.000000
  70
    32
  0
VERTEX
  8
SAPA_FOGBAND
  5
20A7
 10
25.7878
 20
111.529
 30
0.000000
  70
    32
  0
VERTEX
  8
SAPA_FOGBAND
  5
20A8
 10
25.7183
 20
111.477
 30
0.000000
  70
    32
  0
VERTEX
  8
SAPA_FOGBAND
  5
20A9
 10
25.6528
 20
111.423
 30
0.000000
  70
    32
  0
VERTEX
  8
SAPA_FOGBAND
  5
20AA
 10
25.5916
 20
111.367
 30
0.000000
  70
    32
  0
VERTEX
  8
SAPA_FOGBAND
  5
20AB
 10
25.5346
 20
111.309
 30
0.000000
  70
    32
  0
VERTEX
  8
SAPA_FOGBAND
  5
20AC
 10
25.4822
 20
111.249
 30
0.000000
  70
    32
  0
VERTEX
  8
SAPA_FOGBAND
  5
20AD
 10
25.4343
 20
111.187
 30
0.000000
  70
    32
  0
VERTEX
  8
SAPA_FOGBAND
  5
20AE
 10
25.3912
 20
111.125
 30
0.000000
  70
    32
  0
VERTEX
  8
SAPA_FOGBAND
  5
20AF
 10
25.3529
 20
111.060
 30
0.000000
  70
    32
  0
VERTEX
  8
SAPA_FOGBAND
  5
20B0
 10
25.3196
 20
110.995
 30
0.000000
  70
    32
  0
VERTEX
  8
SAPA_FOGBAND
  5
20B1
 10
25.2912
 20
110.929
 30
0.000000
  70
    32
  0
VERTEX
  8
SAPA_FOGBAND
  5
20B2
 10
25.2679
 20
110.862
 30
0.000000
  70
    32
  0
VERTEX
  8
SAPA_FOGBAND
  5
20B3
 10
25.2497
 20
110.794
 30
0.000000
  70
    32
  0
VERTEX
  8
SAPA_FOGBAND
  5
20B4
 10
25.2367
 20
110.726
 30
0.000000
  70
    32
  0
VERTEX
  8
SAPA_FOGBAND
  5
20B5
 10
25.2288
 20
110.658
 30
0.000000
  70
    32
  0
VERTEX
  8
SAPA_FOGBAND
  5
20B6
 10
25.2262
 20
110.589
 30
0.000000
  70
    32
  0
SEQEND
  8
SAPA_FOGBAND
  5
20B7
  0
POLYLINE
  5
1371
  8
SAPA_FOGBAND
 62
     2
 10
15.708811982138371
 20
112.3235920926379
 30
0.0
 66
     1
 70
     8
  0
VERTEX
  8
SAPA_FOGBAND
  5
20B8
 10
15.7088
 20
112.324
 30
0.000000
  70
    32
  0
VERTEX
  8
SAPA_FOGBAND
  5
20B9
 10
15.7125
 20
112.235
 30
0.000000
  70
    32
  0
VERTEX
  8
SAPA_FOGBAND
  5
20BA
 10
15.7237
 20
112.147
 30
0.000000
  70
    32
  0
VERTEX
  8
SAPA_FOGBAND
  5
20BB
 10
15.7422
 20
112.059
 30
0.000000
  70
    32
  0
VERTEX
  8
SAPA_FOGBAND
  5
20BC
 10
15.7681
 20
111.972
 30
0.000000
  70
    32
  0
VERTEX
  8
SAPA_FOGBAND
  5
20BD
 10
15.8013
 20
111.886
 30
0.000000
  70
    32
  0
VERTEX
  8
SAPA_FOGBAND
  5
20BE
 10
15.8417
 20
111.801
 30
0.000000
  70
    32
  0
VERTEX
  8
SAPA_FOGBAND
  5
20BF
 10
15.8892
 20
111.717
 30
0.000000
  70
    32
  0
VERTEX
  8
SAPA_FOGBAND
  5
20C0
 10
15.9437
 20
111.635
 30
0.000000
  70
    32
  0
VERTEX
  8
SAPA_FOGBAND
  5
20C1
 10
16.0050
 20
111.554
 30
0.000000
  70
    32
  0
VERTEX
  8
SAPA_FOGBAND
  5
20C2
 10
16.0731
 20
111.475
 30
0.000000
  70
    32
  0
VERTEX
  8
SAPA_FOGBAND
  5
20C3
 10
16.1478
 20
111.398
 30
0.000000
  70
    32
  0
VERTEX
  8
SAPA_FOGBAND
  5
20C4
 10
16.2288
 20
111.324
 30
0.000000
  70
    32
  0
VERTEX
  8
SAPA_FOGBAND
  5
20C5
 10
16.3160
 20
111.251
 30
0.000000
  70
    32
  0
VERTEX
  8
SAPA_FOGBAND
  5
20C6
 10
16.4091
 20
111.182
 30
0.000000
  70
    32
  0
VERTEX
  8
SAPA_FOGBAND
  5
20C7
 10
16.5080
 20
111.115
 30
0.000000
  70
    32
  0
VERTEX
  8
SAPA_FOGBAND
  5
20C8
 10
16.6125
 20
111.051
 30
0.000000
  70
    32
  0
VERTEX
  8
SAPA_FOGBAND
  5
20C9
 10
16.7221
 20
110.990
 30
0.000000
  70
    32
  0
VERTEX
  8
SAPA_FOGBAND
  5
20CA
 10
16.8368
 20
110.932
 30
0.000000
  70
    32
  0
VERTEX
  8
SAPA_FOGBAND
  5
20CB
 10
16.9562
 20
110.878
 30
0.000000
  70
    32
  0
VERTEX
  8
SAPA_FOGBAND
  5
20CC
 10
17.0800
 20
110.827
 30
0.000000
  70
    32
  0
VERTEX
  8
SAPA_FOGBAND
  5
20CD
 10
17.2079
 20
110.780
 30
0.000000
  70
    32
  0
VERTEX
  8
SAPA_FOGBAND
  5
20CE
 10
17.3397
 20
110.736
 30
0.000000
  70
    32
  0
VERTEX
  8
SAPA_FOGBAND
  5
20CF
 10
17.4749
 20
110.696
 30
0.000000
  70
    32
  0
VERTEX
  8
SAPA_FOGBAND
  5
20D0
 10
17.6134
 20
110.661
 30
0.000000
  70
    32
  0
VERTEX
  8
SAPA_FOGBAND
  5
20D1
 10
17.7547
 20
110.629
 30
0.000000
  70
    32
  0
VERTEX
  8
SAPA_FOGBAND
  5
20D2
 10
17.8984
 20
110.601
 30
0.000000
  70
    32
  0
VERTEX
  8
SAPA_FOGBAND
  5
20D3
 10
18.0444
 20
110.578
 30
0.000000
  70
    32
  0
VERTEX
  8
SAPA_FOGBAND
  5
20D4
 10
18.1921
 20
110.558
 30
0.000000
  70
    32
  0
VERTEX
  8
SAPA_FOGBAND
  5
20D5
 10
18.3413
 20
110.543
 30
0.000000
  70
    32
  0
VERTEX
  8
SAPA_FOGBAND
  5
20D6
 10
18.4916
 20
110.532
 30
0.000000
  70
    32
  0
VERTEX
  8
SAPA_FOGBAND
  5
20D7
 10
18.6426
 20
110.526
 30
0.000000
  70
    32
  0
VERTEX
  8
SAPA_FOGBAND
  5
20D8
 10
18.7940
 20
110.524
 30
0.000000
  70
    32
  0
VERTEX
  8
SAPA_FOGBAND
  5
20D9
 10
18.9454
 20
110.526
 30
0.000000
  70
    32
  0
VERTEX
  8
SAPA_FOGBAND
  5
20DA
 10
19.0964
 20
110.532
 30
0.000000
  70
    32
  0
VERTEX
  8
SAPA_FOGBAND
  5
20DB
 10
19.2467
 20
110.543
 30
0.000000
  70
    32
  0
VERTEX
  8
SAPA_FOGBAND
  5
20DC
 10
19.3959
 20
110.558
 30
0.000000
  70
    32
  0
VERTEX
  8
SAPA_FOGBAND
  5
20DD
 10
19.5437
 20
110.578
 30
0.000000
  70
    32
  0
VERTEX
  8
SAPA_FOGBAND
  5
20DE
 10
19.6896
 20
110.601
 30
0.000000
  70
    32
  0
VERTEX
  8
SAPA_FOGBAND
  5
20DF
 10
19.8334
 20
110.629
 30
0.000000
  70
    32
  0
VERTEX
  8
SAPA_FOGBAND
  5
20E0
 10
19.9747
 20
110.661
 30
0.000000
  70
    32
  0
VERTEX
  8
SAPA_FOGBAND
  5
20E1
 10
20.1131
 20
110.696
 30
0.000000
  70
    32
  0
VERTEX
  8
SAPA_FOGBAND
  5
20E2
 10
20.2484
 20
110.736
 30
0.000000
  70
    32
  0
VERTEX
  8
SAPA_FOGBAND
  5
20E3
 10
20.3802
 20
110.780
 30
0.000000
  70
    32
  0
VERTEX
  8
SAPA_FOGBAND
  5
20E4
 10
20.5081
 20
110.827
 30
0.000000
  70
    32
  0
VERTEX
  8
SAPA_FOGBAND
  5
20E5
 10
20.6319
 20
110.878
 30
0.000000
  70
    32
  0
VERTEX
  8
SAPA_FOGBAND
  5
20E6
 10
20.7513
 20
110.932
 30
0.000000
  70
    32
  0
VERTEX
  8
SAPA_FOGBAND
  5
20E7
 10
20.8659
 20
110.990
 30
0.000000
  70
    32
  0
VERTEX
  8
SAPA_FOGBAND
  5
20E8
 10
20.9756
 20
111.051
 30
0.000000
  70
    32
  0
VERTEX
  8
SAPA_FOGBAND
  5
20E9
 10
21.0800
 20
111.115
 30
0.000000
  70
    32
  0
VERTEX
  8
SAPA_FOGBAND
  5
20EA
 10
21.1789
 20
111.182
 30
0.000000
  70
    32
  0
VERTEX
  8
SAPA_FOGBAND
  5
20EB
 10
21.2721
 20
111.251
 30
0.000000
  70
    32
  0
VERTEX
  8
SAPA_FOGBAND
  5
20EC
 10
21.3593
 20
111.324
 30
0.000000
  70
    32
  0
VERTEX
  8
SAPA_FOGBAND
  5
20ED
 10
21.4403
 20
111.398
 30
0.000000
  70
    32
  0
VERTEX
  8
SAPA_FOGBAND
  5
20EE
 10
21.5150
 20
111.475
 30
0.000000
  70
    32
  0
VERTEX
  8
SAPA_FOGBAND
  5
20EF
 10
21.5830
 20
111.554
 30
0.000000
  70
    32
  0
VERTEX
  8
SAPA_FOGBAND
  5
20F0
 10
21.6444
 20
111.635
 30
0.000000
  70
    32
  0
VERTEX
  8
SAPA_FOGBAND
  5
20F1
 10
21.6989
 20
111.717
 30
0.000000
  70
    32
  0
VERTEX
  8
SAPA_FOGBAND
  5
20F2
 10
21.7464
 20
111.801
 30
0.000000
  70
    32
  0
VERTEX
  8
SAPA_FOGBAND
  5
20F3
 10
21.7868
 20
111.886
 30
0.000000
  70
    32
  0
VERTEX
  8
SAPA_FOGBAND
  5
20F4
 10
21.8200
 20
111.972
 30
0.000000
  70
    32
  0
VERTEX
  8
SAPA_FOGBAND
  5
20F5
 10
21.8459
 20
112.059
 30
0.000000
  70
    32
  0
VERTEX
  8
SAPA_FOGBAND
  5
20F6
 10
21.8644
 20
112.147
 30
0.000000
  70
    32
  0
VERTEX
  8
SAPA_FOGBAND
  5
20F7
 10
21.8755
 20
112.235
 30
0.000000
  70
    32
  0
VERTEX
  8
SAPA_FOGBAND
  5
20F8
 10
21.8793
 20
112.324
 30
0.000000
  70
    32
  0
VERTEX
  8
SAPA_FOGBAND
  5
20F9
 10
21.8755
 20
112.412
 30
0.000000
  70
    32
  0
VERTEX
  8
SAPA_FOGBAND
  5
20FA
 10
21.8644
 20
112.500
 30
0.000000
  70
    32
  0
VERTEX
  8
SAPA_FOGBAND
  5
20FB
 10
21.8459
 20
112.588
 30
0.000000
  70
    32
  0
VERTEX
  8
SAPA_FOGBAND
  5
20FC
 10
21.8200
 20
112.675
 30
0.000000
  70
    32
  0
VERTEX
  8
SAPA_FOGBAND
  5
20FD
 10
21.7868
 20
112.761
 30
0.000000
  70
    32
  0
VERTEX
  8
SAPA_FOGBAND
  5
20FE
 10
21.7464
 20
112.846
 30
0.000000
  70
    32
  0
VERTEX
  8
SAPA_FOGBAND
  5
20FF
 10
21.6989
 20
112.930
 30
0.000000
  70
    32
  0
VERTEX
  8
SAPA_FOGBAND
  5
2100
 10
21.6444
 20
113.012
 30
0.000000
  70
    32
  0
VERTEX
  8
SAPA_FOGBAND
  5
2101
 10
21.5830
 20
113.093
 30
0.000000
  70
    32
  0
VERTEX
  8
SAPA_FOGBAND
  5
2102
 10
21.5150
 20
113.172
 30
0.000000
  70
    32
  0
VERTEX
  8
SAPA_FOGBAND
  5
2103
 10
21.4403
 20
113.249
 30
0.000000
  70
    32
  0
VERTEX
  8
SAPA_FOGBAND
  5
2104
 10
21.3593
 20
113.324
 30
0.000000
  70
    32
  0
VERTEX
  8
SAPA_FOGBAND
  5
2105
 10
21.2721
 20
113.396
 30
0.000000
  70
    32
  0
VERTEX
  8
SAPA_FOGBAND
  5
2106
 10
21.1789
 20
113.466
 30
0.000000
  70
    32
  0
VERTEX
  8
SAPA_FOGBAND
  5
2107
 10
21.0800
 20
113.532
 30
0.000000
  70
    32
  0
VERTEX
  8
SAPA_FOGBAND
  5
2108
 10
20.9756
 20
113.596
 30
0.000000
  70
    32
  0
VERTEX
  8
SAPA_FOGBAND
  5
2109
 10
20.8659
 20
113.657
 30
0.000000
  70
    32
  0
VERTEX
  8
SAPA_FOGBAND
  5
210A
 10
20.7513
 20
113.715
 30
0.000000
  70
    32
  0
VERTEX
  8
SAPA_FOGBAND
  5
210B
 10
20.6319
 20
113.769
 30
0.000000
  70
    32
  0
VERTEX
  8
SAPA_FOGBAND
  5
210C
 10
20.5081
 20
113.820
 30
0.000000
  70
    32
  0
VERTEX
  8
SAPA_FOGBAND
  5
210D
 10
20.3802
 20
113.868
 30
0.000000
  70
    32
  0
VERTEX
  8
SAPA_FOGBAND
  5
210E
 10
20.2484
 20
113.911
 30
0.000000
  70
    32
  0
VERTEX
  8
SAPA_FOGBAND
  5
210F
 10
20.1131
 20
113.951
 30
0.000000
  70
    32
  0
VERTEX
  8
SAPA_FOGBAND
  5
2110
 10
19.9747
 20
113.987
 30
0.000000
  70
    32
  0
VERTEX
  8
SAPA_FOGBAND
  5
2111
 10
19.8334
 20
114.018
 30
0.000000
  70
    32
  0
VERTEX
  8
SAPA_FOGBAND
  5
2112
 10
19.6896
 20
114.046
 30
0.000000
  70
    32
  0
VERTEX
  8
SAPA_FOGBAND
  5
2113
 10
19.5437
 20
114.070
 30
0.000000
  70
    32
  0
VERTEX
  8
SAPA_FOGBAND
  5
2114
 10
19.3959
 20
114.089
 30
0.000000
  70
    32
  0
VERTEX
  8
SAPA_FOGBAND
  5
2115
 10
19.2467
 20
114.104
 30
0.000000
  70
    32
  0
VERTEX
  8
SAPA_FOGBAND
  5
2116
 10
19.0964
 20
114.115
 30
0.000000
  70
    32
  0
VERTEX
  8
SAPA_FOGBAND
  5
2117
 10
18.9454
 20
114.121
 30
0.000000
  70
    32
  0
VERTEX
  8
SAPA_FOGBAND
  5
2118
 10
18.7940
 20
114.124
 30
0.000000
  70
    32
  0
VERTEX
  8
SAPA_FOGBAND
  5
2119
 10
18.6426
 20
114.121
 30
0.000000
  70
    32
  0
VERTEX
  8
SAPA_FOGBAND
  5
211A
 10
18.4916
 20
114.115
 30
0.000000
  70
    32
  0
VERTEX
  8
SAPA_FOGBAND
  5
211B
 10
18.3413
 20
114.104
 30
0.000000
  70
    32
  0
VERTEX
  8
SAPA_FOGBAND
  5
211C
 10
18.1921
 20
114.089
 30
0.000000
  70
    32
  0
VERTEX
  8
SAPA_FOGBAND
  5
211D
 10
18.0444
 20
114.070
 30
0.000000
  70
    32
  0
VERTEX
  8
SAPA_FOGBAND
  5
211E
 10
17.8984
 20
114.046
 30
0.000000
  70
    32
  0
VERTEX
  8
SAPA_FOGBAND
  5
211F
 10
17.7547
 20
114.018
 30
0.000000
  70
    32
  0
VERTEX
  8
SAPA_FOGBAND
  5
2120
 10
17.6134
 20
113.987
 30
0.000000
  70
    32
  0
VERTEX
  8
SAPA_FOGBAND
  5
2121
 10
17.4749
 20
113.951
 30
0.000000
  70
    32
  0
VERTEX
  8
SAPA_FOGBAND
  5
2122
 10
17.3397
 20
113.911
 30
0.000000
  70
    32
  0
VERTEX
  8
SAPA_FOGBAND
  5
2123
 10
17.2079
 20
113.868
 30
0.000000
  70
    32
  0
VERTEX
  8
SAPA_FOGBAND
  5
2124
 10
17.0800
 20
113.820
 30
0.000000
  70
    32
  0
VERTEX
  8
SAPA_FOGBAND
  5
2125
 10
16.9562
 20
113.769
 30
0.000000
  70
    32
  0
VERTEX
  8
SAPA_FOGBAND
  5
2126
 10
16.8368
 20
113.715
 30
0.000000
  70
    32
  0
VERTEX
  8
SAPA_FOGBAND
  5
2127
 10
16.7221
 20
113.657
 30
0.000000
  70
    32
  0
VERTEX
  8
SAPA_FOGBAND
  5
2128
 10
16.6125
 20
113.596
 30
0.000000
  70
    32
  0
VERTEX
  8
SAPA_FOGBAND
  5
2129
 10
16.5080
 20
113.532
 30
0.000000
  70
    32
  0
VERTEX
  8
SAPA_FOGBAND
  5
212A
 10
16.4091
 20
113.466
 30
0.000000
  70
    32
  0
VERTEX
  8
SAPA_FOGBAND
  5
212B
 10
16.3160
 20
113.396
 30
0.000000
  70
    32
  0
VERTEX
  8
SAPA_FOGBAND
  5
212C
 10
16.2288
 20
113.324
 30
0.000000
  70
    32
  0
VERTEX
  8
SAPA_FOGBAND
  5
212D
 10
16.1478
 20
113.249
 30
0.000000
  70
    32
  0
VERTEX
  8
SAPA_FOGBAND
  5
212E
 10
16.0731
 20
113.172
 30
0.000000
  70
    32
  0
VERTEX
  8
SAPA_FOGBAND
  5
212F
 10
16.0050
 20
113.093
 30
0.000000
  70
    32
  0
VERTEX
  8
SAPA_FOGBAND
  5
2130
 10
15.9437
 20
113.012
 30
0.000000
  70
    32
  0
VERTEX
  8
SAPA_FOGBAND
  5
2131
 10
15.8892
 20
112.930
 30
0.000000
  70
    32
  0
VERTEX
  8
SAPA_FOGBAND
  5
2132
 10
15.8417
 20
112.846
 30
0.000000
  70
    32
  0
VERTEX
  8
SAPA_FOGBAND
  5
2133
 10
15.8013
 20
112.761
 30
0.000000
  70
    32
  0
VERTEX
  8
SAPA_FOGBAND
  5
2134
 10
15.7681
 20
112.675
 30
0.000000
  70
    32
  0
VERTEX
  8
SAPA_FOGBAND
  5
2135
 10
15.7422
 20
112.588
 30
0.000000
  70
    32
  0
VERTEX
  8
SAPA_FOGBAND
  5
2136
 10
15.7237
 20
112.500
 30
0.000000
  70
    32
  0
VERTEX
  8
SAPA_FOGBAND
  5
2137
 10
15.7125
 20
112.412
 30
0.000000
  70
    32
  0
VERTEX
  8
SAPA_FOGBAND
  5
2138
 10
15.7088
 20
112.324
 30
0.000000
  70
    32
  0
SEQEND
  8
SAPA_FOGBAND
  5
2139
  0
POLYLINE
  5
1372
  8
SAPA_FOGBAND
 62
     2
 66
     1
 10
0.0
 20
0.0
 30
0.0
 70
     1
  0
VERTEX
  5
1FCE
  8
SAPA_FOGBAND
 62
     2
 10
26.237726940177591
 20
107.0235920926379
 30
0.0
  0
VERTEX
  5
1FCF
  8
SAPA_FOGBAND
 62
     2
 10
12.55726229087888
 20
107.0235920926379
 30
0.0
 42
-0.427966335106886
  0
VERTEX
  5
1FD0
  8
SAPA_FOGBAND
 62
     2
 10
12.257589723158871
 20
107.3376046639972
 30
0.0
  0
VERTEX
  5
1FD1
  8
SAPA_FOGBAND
 62
     2
 10
12.743889631238501
 20
115.5376046639972
 30
0.0
 42
-0.4005932428724212
  0
VERTEX
  5
1FD2
  8
SAPA_FOGBAND
 62
     2
 10
13.04356219895851
 20
115.8235920926379
 30
0.0
  0
VERTEX
  5
1FD3
  8
SAPA_FOGBAND
 62
     2
 10
14.857262290878889
 20
115.8235920926379
 30
0.0
  0
VERTEX
  5
1FD4
  8
SAPA_FOGBAND
 62
     2
 10
14.857262290878889
 20
117.5235920926379
 30
0.0
 42
-0.4142135623730951
  0
VERTEX
  5
1FD5
  8
SAPA_FOGBAND
 62
     2
 10
15.15726229087889
 20
117.8235920926379
 30
0.0
  0
VERTEX
  5
1FD6
  8
SAPA_FOGBAND
 62
     2
 10
22.576043054504801
 20
117.8235920926379
 30
0.0
 42
-0.1379343940649207
  0
VERTEX
  5
1FD7
  8
SAPA_FOGBAND
 62
     2
 10
23.097261363553208
 20
117.6770154777831
 30
0.0
  0
VERTEX
  5
1FD8
  8
SAPA_FOGBAND
 62
     2
 10
35.017871445403109
 20
110.2697972398748
 30
0.0
 42
-0.2613472755167645
  0
VERTEX
  5
1FD9
  8
SAPA_FOGBAND
 62
     2
 10
35.257262290878899
 20
109.84308554730219
 30
0.0
  0
VERTEX
  5
1FDA
  8
SAPA_FOGBAND
 62
     2
 10
35.257262290878899
 20
108.848388930139
 30
0.0
 42
-0.3915187749346393
  0
VERTEX
  5
1FDB
  8
SAPA_FOGBAND
 62
     2
 10
34.335284591105378
 20
107.8514373161339
 30
0.0
  0
VERTEX
  5
1FDC
  8
SAPA_FOGBAND
 62
     2
 10
26.27673809029082
 20
107.02511628563541
 30
0.0
 42
-0.0195279011117891
  0
SEQEND
  5
1FDD
  8
SAPA_FOGBAND
 62
     2
  0
POLYLINE
  5
1373
  8
SAPA_FOGBAND
 62
     2
 10
164.77378573121601
 20
110.5888059734191
 30
0.0
 66
     1
 70
     8
  0
VERTEX
  8
SAPA_FOGBAND
  5
213A
 10
164.774
 20
110.589
 30
0.000000
  70
    32
  0
VERTEX
  8
SAPA_FOGBAND
  5
213B
 10
164.771
 20
110.520
 30
0.000000
  70
    32
  0
VERTEX
  8
SAPA_FOGBAND
  5
213C
 10
164.763
 20
110.452
 30
0.000000
  70
    32
  0
VERTEX
  8
SAPA_FOGBAND
  5
213D
 10
164.750
 20
110.383
 30
0.000000
  70
    32
  0
VERTEX
  8
SAPA_FOGBAND
  5
213E
 10
164.732
 20
110.316
 30
0.000000
  70
    32
  0
VERTEX
  8
SAPA_FOGBAND
  5
213F
 10
164.709
 20
110.249
 30
0.000000
  70
    32
  0
VERTEX
  8
SAPA_FOGBAND
  5
2140
 10
164.680
 20
110.182
 30
0.000000
  70
    32
  0
VERTEX
  8
SAPA_FOGBAND
  5
2141
 10
164.647
 20
110.117
 30
0.000000
  70
    32
  0
VERTEX
  8
SAPA_FOGBAND
  5
2142
 10
164.609
 20
110.053
 30
0.000000
  70
    32
  0
VERTEX
  8
SAPA_FOGBAND
  5
2143
 10
164.566
 20
109.990
 30
0.000000
  70
    32
  0
VERTEX
  8
SAPA_FOGBAND
  5
2144
 10
164.518
 20
109.929
 30
0.000000
  70
    32
  0
VERTEX
  8
SAPA_FOGBAND
  5
2145
 10
164.465
 20
109.869
 30
0.000000
  70
    32
  0
VERTEX
  8
SAPA_FOGBAND
  5
2146
 10
164.408
 20
109.811
 30
0.000000
  70
    32
  0
VERTEX
  8
SAPA_FOGBAND
  5
2147
 10
164.347
 20
109.755
 30
0.000000
  70
    32
  0
VERTEX
  8
SAPA_FOGBAND
  5
2148
 10
164.282
 20
109.701
 30
0.000000
  70
    32
  0
VERTEX
  8
SAPA_FOGBAND
  5
2149
 10
164.212
 20
109.649
 30
0.000000
  70
    32
  0
VERTEX
  8
SAPA_FOGBAND
  5
214A
 10
164.139
 20
109.599
 30
0.000000
  70
    32
  0
VERTEX
  8
SAPA_FOGBAND
  5
214B
 10
164.062
 20
109.551
 30
0.000000
  70
    32
  0
VERTEX
  8
SAPA_FOGBAND
  5
214C
 10
163.981
 20
109.507
 30
0.000000
  70
    32
  0
VERTEX
  8
SAPA_FOGBAND
  5
214D
 10
163.897
 20
109.464
 30
0.000000
  70
    32
  0
VERTEX
  8
SAPA_FOGBAND
  5
214E
 10
163.810
 20
109.425
 30
0.000000
  70
    32
  0
VERTEX
  8
SAPA_FOGBAND
  5
214F
 10
163.720
 20
109.388
 30
0.000000
  70
    32
  0
VERTEX
  8
SAPA_FOGBAND
  5
2150
 10
163.628
 20
109.354
 30
0.000000
  70
    32
  0
VERTEX
  8
SAPA_FOGBAND
  5
2151
 10
163.533
 20
109.323
 30
0.000000
  70
    32
  0
VERTEX
  8
SAPA_FOGBAND
  5
2152
 10
163.436
 20
109.295
 30
0.000000
  70
    32
  0
VERTEX
  8
SAPA_FOGBAND
  5
2153
 10
163.336
 20
109.271
 30
0.000000
  70
    32
  0
VERTEX
  8
SAPA_FOGBAND
  5
2154
 10
163.235
 20
109.249
 30
0.000000
  70
    32
  0
VERTEX
  8
SAPA_FOGBAND
  5
2155
 10
163.133
 20
109.231
 30
0.000000
  70
    32
  0
VERTEX
  8
SAPA_FOGBAND
  5
2156
 10
163.029
 20
109.216
 30
0.000000
  70
    32
  0
VERTEX
  8
SAPA_FOGBAND
  5
2157
 10
162.924
 20
109.204
 30
0.000000
  70
    32
  0
VERTEX
  8
SAPA_FOGBAND
  5
2158
 10
162.818
 20
109.196
 30
0.000000
  70
    32
  0
VERTEX
  8
SAPA_FOGBAND
  5
2159
 10
162.712
 20
109.190
 30
0.000000
  70
    32
  0
VERTEX
  8
SAPA_FOGBAND
  5
215A
 10
162.606
 20
109.189
 30
0.000000
  70
    32
  0
VERTEX
  8
SAPA_FOGBAND
  5
215B
 10
162.500
 20
109.190
 30
0.000000
  70
    32
  0
VERTEX
  8
SAPA_FOGBAND
  5
215C
 10
162.394
 20
109.196
 30
0.000000
  70
    32
  0
VERTEX
  8
SAPA_FOGBAND
  5
215D
 10
162.288
 20
109.204
 30
0.000000
  70
    32
  0
VERTEX
  8
SAPA_FOGBAND
  5
215E
 10
162.183
 20
109.216
 30
0.000000
  70
    32
  0
VERTEX
  8
SAPA_FOGBAND
  5
215F
 10
162.079
 20
109.231
 30
0.000000
  70
    32
  0
VERTEX
  8
SAPA_FOGBAND
  5
2160
 10
161.977
 20
109.249
 30
0.000000
  70
    32
  0
VERTEX
  8
SAPA_FOGBAND
  5
2161
 10
161.876
 20
109.271
 30
0.000000
  70
    32
  0
VERTEX
  8
SAPA_FOGBAND
  5
2162
 10
161.776
 20
109.295
 30
0.000000
  70
    32
  0
VERTEX
  8
SAPA_FOGBAND
  5
2163
 10
161.679
 20
109.323
 30
0.000000
  70
    32
  0
VERTEX
  8
SAPA_FOGBAND
  5
2164
 10
161.584
 20
109.354
 30
0.000000
  70
    32
  0
VERTEX
  8
SAPA_FOGBAND
  5
2165
 10
161.492
 20
109.388
 30
0.000000
  70
    32
  0
VERTEX
  8
SAPA_FOGBAND
  5
2166
 10
161.402
 20
109.425
 30
0.000000
  70
    32
  0
VERTEX
  8
SAPA_FOGBAND
  5
2167
 10
161.315
 20
109.464
 30
0.000000
  70
    32
  0
VERTEX
  8
SAPA_FOGBAND
  5
2168
 10
161.231
 20
109.507
 30
0.000000
  70
    32
  0
VERTEX
  8
SAPA_FOGBAND
  5
2169
 10
161.150
 20
109.551
 30
0.000000
  70
    32
  0
VERTEX
  8
SAPA_FOGBAND
  5
216A
 10
161.073
 20
109.599
 30
0.000000
  70
    32
  0
VERTEX
  8
SAPA_FOGBAND
  5
216B
 10
161.000
 20
109.649
 30
0.000000
  70
    32
  0
VERTEX
  8
SAPA_FOGBAND
  5
216C
 10
160.930
 20
109.701
 30
0.000000
  70
    32
  0
VERTEX
  8
SAPA_FOGBAND
  5
216D
 10
160.865
 20
109.755
 30
0.000000
  70
    32
  0
VERTEX
  8
SAPA_FOGBAND
  5
216E
 10
160.804
 20
109.811
 30
0.000000
  70
    32
  0
VERTEX
  8
SAPA_FOGBAND
  5
216F
 10
160.747
 20
109.869
 30
0.000000
  70
    32
  0
VERTEX
  8
SAPA_FOGBAND
  5
2170
 10
160.694
 20
109.929
 30
0.000000
  70
    32
  0
VERTEX
  8
SAPA_FOGBAND
  5
2171
 10
160.646
 20
109.990
 30
0.000000
  70
    32
  0
VERTEX
  8
SAPA_FOGBAND
  5
2172
 10
160.603
 20
110.053
 30
0.000000
  70
    32
  0
VERTEX
  8
SAPA_FOGBAND
  5
2173
 10
160.565
 20
110.117
 30
0.000000
  70
    32
  0
VERTEX
  8
SAPA_FOGBAND
  5
2174
 10
160.532
 20
110.182
 30
0.000000
  70
    32
  0
VERTEX
  8
SAPA_FOGBAND
  5
2175
 10
160.503
 20
110.249
 30
0.000000
  70
    32
  0
VERTEX
  8
SAPA_FOGBAND
  5
2176
 10
160.480
 20
110.316
 30
0.000000
  70
    32
  0
VERTEX
  8
SAPA_FOGBAND
  5
2177
 10
160.462
 20
110.383
 30
0.000000
  70
    32
  0
VERTEX
  8
SAPA_FOGBAND
  5
2178
 10
160.449
 20
110.452
 30
0.000000
  70
    32
  0
VERTEX
  8
SAPA_FOGBAND
  5
2179
 10
160.441
 20
110.520
 30
0.000000
  70
    32
  0
VERTEX
  8
SAPA_FOGBAND
  5
217A
 10
160.438
 20
110.589
 30
0.000000
  70
    32
  0
VERTEX
  8
SAPA_FOGBAND
  5
217B
 10
160.441
 20
110.658
 30
0.000000
  70
    32
  0
VERTEX
  8
SAPA_FOGBAND
  5
217C
 10
160.449
 20
110.726
 30
0.000000
  70
    32
  0
VERTEX
  8
SAPA_FOGBAND
  5
217D
 10
160.462
 20
110.794
 30
0.000000
  70
    32
  0
VERTEX
  8
SAPA_FOGBAND
  5
217E
 10
160.480
 20
110.862
 30
0.000000
  70
    32
  0
VERTEX
  8
SAPA_FOGBAND
  5
217F
 10
160.503
 20
110.929
 30
0.000000
  70
    32
  0
VERTEX
  8
SAPA_FOGBAND
  5
2180
 10
160.532
 20
110.995
 30
0.000000
  70
    32
  0
VERTEX
  8
SAPA_FOGBAND
  5
2181
 10
160.565
 20
111.060
 30
0.000000
  70
    32
  0
VERTEX
  8
SAPA_FOGBAND
  5
2182
 10
160.603
 20
111.125
 30
0.000000
  70
    32
  0
VERTEX
  8
SAPA_FOGBAND
  5
2183
 10
160.646
 20
111.187
 30
0.000000
  70
    32
  0
VERTEX
  8
SAPA_FOGBAND
  5
2184
 10
160.694
 20
111.249
 30
0.000000
  70
    32
  0
VERTEX
  8
SAPA_FOGBAND
  5
2185
 10
160.747
 20
111.309
 30
0.000000
  70
    32
  0
VERTEX
  8
SAPA_FOGBAND
  5
2186
 10
160.804
 20
111.367
 30
0.000000
  70
    32
  0
VERTEX
  8
SAPA_FOGBAND
  5
2187
 10
160.865
 20
111.423
 30
0.000000
  70
    32
  0
VERTEX
  8
SAPA_FOGBAND
  5
2188
 10
160.930
 20
111.477
 30
0.000000
  70
    32
  0
VERTEX
  8
SAPA_FOGBAND
  5
2189
 10
161.000
 20
111.529
 30
0.000000
  70
    32
  0
VERTEX
  8
SAPA_FOGBAND
  5
218A
 10
161.073
 20
111.579
 30
0.000000
  70
    32
  0
VERTEX
  8
SAPA_FOGBAND
  5
218B
 10
161.150
 20
111.626
 30
0.000000
  70
    32
  0
VERTEX
  8
SAPA_FOGBAND
  5
218C
 10
161.231
 20
111.671
 30
0.000000
  70
    32
  0
VERTEX
  8
SAPA_FOGBAND
  5
218D
 10
161.315
 20
111.713
 30
0.000000
  70
    32
  0
VERTEX
  8
SAPA_FOGBAND
  5
218E
 10
161.402
 20
111.753
 30
0.000000
  70
    32
  0
VERTEX
  8
SAPA_FOGBAND
  5
218F
 10
161.492
 20
111.790
 30
0.000000
  70
    32
  0
VERTEX
  8
SAPA_FOGBAND
  5
2190
 10
161.584
 20
111.823
 30
0.000000
  70
    32
  0
VERTEX
  8
SAPA_FOGBAND
  5
2191
 10
161.679
 20
111.854
 30
0.000000
  70
    32
  0
VERTEX
  8
SAPA_FOGBAND
  5
2192
 10
161.776
 20
111.882
 30
0.000000
  70
    32
  0
VERTEX
  8
SAPA_FOGBAND
  5
2193
 10
161.876
 20
111.907
 30
0.000000
  70
    32
  0
VERTEX
  8
SAPA_FOGBAND
  5
2194
 10
161.977
 20
111.929
 30
0.000000
  70
    32
  0
VERTEX
  8
SAPA_FOGBAND
  5
2195
 10
162.079
 20
111.947
 30
0.000000
  70
    32
  0
VERTEX
  8
SAPA_FOGBAND
  5
2196
 10
162.183
 20
111.962
 30
0.000000
  70
    32
  0
VERTEX
  8
SAPA_FOGBAND
  5
2197
 10
162.288
 20
111.974
 30
0.000000
  70
    32
  0
VERTEX
  8
SAPA_FOGBAND
  5
2198
 10
162.394
 20
111.982
 30
0.000000
  70
    32
  0
VERTEX
  8
SAPA_FOGBAND
  5
2199
 10
162.500
 20
111.987
 30
0.000000
  70
    32
  0
VERTEX
  8
SAPA_FOGBAND
  5
219A
 10
162.606
 20
111.989
 30
0.000000
  70
    32
  0
VERTEX
  8
SAPA_FOGBAND
  5
219B
 10
162.712
 20
111.987
 30
0.000000
  70
    32
  0
VERTEX
  8
SAPA_FOGBAND
  5
219C
 10
162.818
 20
111.982
 30
0.000000
  70
    32
  0
VERTEX
  8
SAPA_FOGBAND
  5
219D
 10
162.924
 20
111.974
 30
0.000000
  70
    32
  0
VERTEX
  8
SAPA_FOGBAND
  5
219E
 10
163.029
 20
111.962
 30
0.000000
  70
    32
  0
VERTEX
  8
SAPA_FOGBAND
  5
219F
 10
163.133
 20
111.947
 30
0.000000
  70
    32
  0
VERTEX
  8
SAPA_FOGBAND
  5
21A0
 10
163.235
 20
111.929
 30
0.000000
  70
    32
  0
VERTEX
  8
SAPA_FOGBAND
  5
21A1
 10
163.336
 20
111.907
 30
0.000000
  70
    32
  0
VERTEX
  8
SAPA_FOGBAND
  5
21A2
 10
163.436
 20
111.882
 30
0.000000
  70
    32
  0
VERTEX
  8
SAPA_FOGBAND
  5
21A3
 10
163.533
 20
111.854
 30
0.000000
  70
    32
  0
VERTEX
  8
SAPA_FOGBAND
  5
21A4
 10
163.628
 20
111.823
 30
0.000000
  70
    32
  0
VERTEX
  8
SAPA_FOGBAND
  5
21A5
 10
163.720
 20
111.790
 30
0.000000
  70
    32
  0
VERTEX
  8
SAPA_FOGBAND
  5
21A6
 10
163.810
 20
111.753
 30
0.000000
  70
    32
  0
VERTEX
  8
SAPA_FOGBAND
  5
21A7
 10
163.897
 20
111.713
 30
0.000000
  70
    32
  0
VERTEX
  8
SAPA_FOGBAND
  5
21A8
 10
163.981
 20
111.671
 30
0.000000
  70
    32
  0
VERTEX
  8
SAPA_FOGBAND
  5
21A9
 10
164.062
 20
111.626
 30
0.000000
  70
    32
  0
VERTEX
  8
SAPA_FOGBAND
  5
21AA
 10
164.139
 20
111.579
 30
0.000000
  70
    32
  0
VERTEX
  8
SAPA_FOGBAND
  5
21AB
 10
164.212
 20
111.529
 30
0.000000
  70
    32
  0
VERTEX
  8
SAPA_FOGBAND
  5
21AC
 10
164.282
 20
111.477
 30
0.000000
  70
    32
  0
VERTEX
  8
SAPA_FOGBAND
  5
21AD
 10
164.347
 20
111.423
 30
0.000000
  70
    32
  0
VERTEX
  8
SAPA_FOGBAND
  5
21AE
 10
164.408
 20
111.367
 30
0.000000
  70
    32
  0
VERTEX
  8
SAPA_FOGBAND
  5
21AF
 10
164.465
 20
111.309
 30
0.000000
  70
    32
  0
VERTEX
  8
SAPA_FOGBAND
  5
21B0
 10
164.518
 20
111.249
 30
0.000000
  70
    32
  0
VERTEX
  8
SAPA_FOGBAND
  5
21B1
 10
164.566
 20
111.187
 30
0.000000
  70
    32
  0
VERTEX
  8
SAPA_FOGBAND
  5
21B2
 10
164.609
 20
111.125
 30
0.000000
  70
    32
  0
VERTEX
  8
SAPA_FOGBAND
  5
21B3
 10
164.647
 20
111.060
 30
0.000000
  70
    32
  0
VERTEX
  8
SAPA_FOGBAND
  5
21B4
 10
164.680
 20
110.995
 30
0.000000
  70
    32
  0
VERTEX
  8
SAPA_FOGBAND
  5
21B5
 10
164.709
 20
110.929
 30
0.000000
  70
    32
  0
VERTEX
  8
SAPA_FOGBAND
  5
21B6
 10
164.732
 20
110.862
 30
0.000000
  70
    32
  0
VERTEX
  8
SAPA_FOGBAND
  5
21B7
 10
164.750
 20
110.794
 30
0.000000
  70
    32
  0
VERTEX
  8
SAPA_FOGBAND
  5
21B8
 10
164.763
 20
110.726
 30
0.000000
  70
    32
  0
VERTEX
  8
SAPA_FOGBAND
  5
21B9
 10
164.771
 20
110.658
 30
0.000000
  70
    32
  0
VERTEX
  8
SAPA_FOGBAND
  5
21BA
 10
164.774
 20
110.589
 30
0.000000
  70
    32
  0
SEQEND
  8
SAPA_FOGBAND
  5
21BB
  0
POLYLINE
  5
1374
  8
SAPA_FOGBAND
 62
     2
 10
174.29118859026704
 20
112.323591996152
 30
0.0
 66
     1
 70
     8
  0
VERTEX
  8
SAPA_FOGBAND
  5
21BC
 10
174.291
 20
112.324
 30
0.000000
  70
    32
  0
VERTEX
  8
SAPA_FOGBAND
  5
21BD
 10
174.287
 20
112.235
 30
0.000000
  70
    32
  0
VERTEX
  8
SAPA_FOGBAND
  5
21BE
 10
174.276
 20
112.147
 30
0.000000
  70
    32
  0
VERTEX
  8
SAPA_FOGBAND
  5
21BF
 10
174.258
 20
112.059
 30
0.000000
  70
    32
  0
VERTEX
  8
SAPA_FOGBAND
  5
21C0
 10
174.232
 20
111.972
 30
0.000000
  70
    32
  0
VERTEX
  8
SAPA_FOGBAND
  5
21C1
 10
174.199
 20
111.886
 30
0.000000
  70
    32
  0
VERTEX
  8
SAPA_FOGBAND
  5
21C2
 10
174.158
 20
111.801
 30
0.000000
  70
    32
  0
VERTEX
  8
SAPA_FOGBAND
  5
21C3
 10
174.111
 20
111.717
 30
0.000000
  70
    32
  0
VERTEX
  8
SAPA_FOGBAND
  5
21C4
 10
174.056
 20
111.635
 30
0.000000
  70
    32
  0
VERTEX
  8
SAPA_FOGBAND
  5
21C5
 10
173.995
 20
111.554
 30
0.000000
  70
    32
  0
VERTEX
  8
SAPA_FOGBAND
  5
21C6
 10
173.927
 20
111.475
 30
0.000000
  70
    32
  0
VERTEX
  8
SAPA_FOGBAND
  5
21C7
 10
173.852
 20
111.398
 30
0.000000
  70
    32
  0
VERTEX
  8
SAPA_FOGBAND
  5
21C8
 10
173.771
 20
111.324
 30
0.000000
  70
    32
  0
VERTEX
  8
SAPA_FOGBAND
  5
21C9
 10
173.684
 20
111.251
 30
0.000000
  70
    32
  0
VERTEX
  8
SAPA_FOGBAND
  5
21CA
 10
173.591
 20
111.182
 30
0.000000
  70
    32
  0
VERTEX
  8
SAPA_FOGBAND
  5
21CB
 10
173.492
 20
111.115
 30
0.000000
  70
    32
  0
VERTEX
  8
SAPA_FOGBAND
  5
21CC
 10
173.388
 20
111.051
 30
0.000000
  70
    32
  0
VERTEX
  8
SAPA_FOGBAND
  5
21CD
 10
173.278
 20
110.990
 30
0.000000
  70
    32
  0
VERTEX
  8
SAPA_FOGBAND
  5
21CE
 10
173.163
 20
110.932
 30
0.000000
  70
    32
  0
VERTEX
  8
SAPA_FOGBAND
  5
21CF
 10
173.044
 20
110.878
 30
0.000000
  70
    32
  0
VERTEX
  8
SAPA_FOGBAND
  5
21D0
 10
172.920
 20
110.827
 30
0.000000
  70
    32
  0
VERTEX
  8
SAPA_FOGBAND
  5
21D1
 10
172.792
 20
110.780
 30
0.000000
  70
    32
  0
VERTEX
  8
SAPA_FOGBAND
  5
21D2
 10
172.660
 20
110.736
 30
0.000000
  70
    32
  0
VERTEX
  8
SAPA_FOGBAND
  5
21D3
 10
172.525
 20
110.696
 30
0.000000
  70
    32
  0
VERTEX
  8
SAPA_FOGBAND
  5
21D4
 10
172.387
 20
110.661
 30
0.000000
  70
    32
  0
VERTEX
  8
SAPA_FOGBAND
  5
21D5
 10
172.245
 20
110.629
 30
0.000000
  70
    32
  0
VERTEX
  8
SAPA_FOGBAND
  5
21D6
 10
172.102
 20
110.601
 30
0.000000
  70
    32
  0
VERTEX
  8
SAPA_FOGBAND
  5
21D7
 10
171.956
 20
110.578
 30
0.000000
  70
    32
  0
VERTEX
  8
SAPA_FOGBAND
  5
21D8
 10
171.808
 20
110.558
 30
0.000000
  70
    32
  0
VERTEX
  8
SAPA_FOGBAND
  5
21D9
 10
171.659
 20
110.543
 30
0.000000
  70
    32
  0
VERTEX
  8
SAPA_FOGBAND
  5
21DA
 10
171.508
 20
110.532
 30
0.000000
  70
    32
  0
VERTEX
  8
SAPA_FOGBAND
  5
21DB
 10
171.357
 20
110.526
 30
0.000000
  70
    32
  0
VERTEX
  8
SAPA_FOGBAND
  5
21DC
 10
171.206
 20
110.524
 30
0.000000
  70
    32
  0
VERTEX
  8
SAPA_FOGBAND
  5
21DD
 10
171.055
 20
110.526
 30
0.000000
  70
    32
  0
VERTEX
  8
SAPA_FOGBAND
  5
21DE
 10
170.904
 20
110.532
 30
0.000000
  70
    32
  0
VERTEX
  8
SAPA_FOGBAND
  5
21DF
 10
170.753
 20
110.543
 30
0.000000
  70
    32
  0
VERTEX
  8
SAPA_FOGBAND
  5
21E0
 10
170.604
 20
110.558
 30
0.000000
  70
    32
  0
VERTEX
  8
SAPA_FOGBAND
  5
21E1
 10
170.456
 20
110.578
 30
0.000000
  70
    32
  0
VERTEX
  8
SAPA_FOGBAND
  5
21E2
 10
170.310
 20
110.601
 30
0.000000
  70
    32
  0
VERTEX
  8
SAPA_FOGBAND
  5
21E3
 10
170.167
 20
110.629
 30
0.000000
  70
    32
  0
VERTEX
  8
SAPA_FOGBAND
  5
21E4
 10
170.025
 20
110.661
 30
0.000000
  70
    32
  0
VERTEX
  8
SAPA_FOGBAND
  5
21E5
 10
169.887
 20
110.696
 30
0.000000
  70
    32
  0
VERTEX
  8
SAPA_FOGBAND
  5
21E6
 10
169.752
 20
110.736
 30
0.000000
  70
    32
  0
VERTEX
  8
SAPA_FOGBAND
  5
21E7
 10
169.620
 20
110.780
 30
0.000000
  70
    32
  0
VERTEX
  8
SAPA_FOGBAND
  5
21E8
 10
169.492
 20
110.827
 30
0.000000
  70
    32
  0
VERTEX
  8
SAPA_FOGBAND
  5
21E9
 10
169.368
 20
110.878
 30
0.000000
  70
    32
  0
VERTEX
  8
SAPA_FOGBAND
  5
21EA
 10
169.249
 20
110.932
 30
0.000000
  70
    32
  0
VERTEX
  8
SAPA_FOGBAND
  5
21EB
 10
169.134
 20
110.990
 30
0.000000
  70
    32
  0
VERTEX
  8
SAPA_FOGBAND
  5
21EC
 10
169.024
 20
111.051
 30
0.000000
  70
    32
  0
VERTEX
  8
SAPA_FOGBAND
  5
21ED
 10
168.920
 20
111.115
 30
0.000000
  70
    32
  0
VERTEX
  8
SAPA_FOGBAND
  5
21EE
 10
168.821
 20
111.182
 30
0.000000
  70
    32
  0
VERTEX
  8
SAPA_FOGBAND
  5
21EF
 10
168.728
 20
111.251
 30
0.000000
  70
    32
  0
VERTEX
  8
SAPA_FOGBAND
  5
21F0
 10
168.641
 20
111.324
 30
0.000000
  70
    32
  0
VERTEX
  8
SAPA_FOGBAND
  5
21F1
 10
168.560
 20
111.398
 30
0.000000
  70
    32
  0
VERTEX
  8
SAPA_FOGBAND
  5
21F2
 10
168.485
 20
111.475
 30
0.000000
  70
    32
  0
VERTEX
  8
SAPA_FOGBAND
  5
21F3
 10
168.417
 20
111.554
 30
0.000000
  70
    32
  0
VERTEX
  8
SAPA_FOGBAND
  5
21F4
 10
168.356
 20
111.635
 30
0.000000
  70
    32
  0
VERTEX
  8
SAPA_FOGBAND
  5
21F5
 10
168.301
 20
111.717
 30
0.000000
  70
    32
  0
VERTEX
  8
SAPA_FOGBAND
  5
21F6
 10
168.254
 20
111.801
 30
0.000000
  70
    32
  0
VERTEX
  8
SAPA_FOGBAND
  5
21F7
 10
168.213
 20
111.886
 30
0.000000
  70
    32
  0
VERTEX
  8
SAPA_FOGBAND
  5
21F8
 10
168.180
 20
111.972
 30
0.000000
  70
    32
  0
VERTEX
  8
SAPA_FOGBAND
  5
21F9
 10
168.154
 20
112.059
 30
0.000000
  70
    32
  0
VERTEX
  8
SAPA_FOGBAND
  5
21FA
 10
168.136
 20
112.147
 30
0.000000
  70
    32
  0
VERTEX
  8
SAPA_FOGBAND
  5
21FB
 10
168.124
 20
112.235
 30
0.000000
  70
    32
  0
VERTEX
  8
SAPA_FOGBAND
  5
21FC
 10
168.121
 20
112.324
 30
0.000000
  70
    32
  0
VERTEX
  8
SAPA_FOGBAND
  5
21FD
 10
168.124
 20
112.412
 30
0.000000
  70
    32
  0
VERTEX
  8
SAPA_FOGBAND
  5
21FE
 10
168.136
 20
112.500
 30
0.000000
  70
    32
  0
VERTEX
  8
SAPA_FOGBAND
  5
21FF
 10
168.154
 20
112.588
 30
0.000000
  70
    32
  0
VERTEX
  8
SAPA_FOGBAND
  5
2200
 10
168.180
 20
112.675
 30
0.000000
  70
    32
  0
VERTEX
  8
SAPA_FOGBAND
  5
2201
 10
168.213
 20
112.761
 30
0.000000
  70
    32
  0
VERTEX
  8
SAPA_FOGBAND
  5
2202
 10
168.254
 20
112.846
 30
0.000000
  70
    32
  0
VERTEX
  8
SAPA_FOGBAND
  5
2203
 10
168.301
 20
112.930
 30
0.000000
  70
    32
  0
VERTEX
  8
SAPA_FOGBAND
  5
2204
 10
168.356
 20
113.012
 30
0.000000
  70
    32
  0
VERTEX
  8
SAPA_FOGBAND
  5
2205
 10
168.417
 20
113.093
 30
0.000000
  70
    32
  0
VERTEX
  8
SAPA_FOGBAND
  5
2206
 10
168.485
 20
113.172
 30
0.000000
  70
    32
  0
VERTEX
  8
SAPA_FOGBAND
  5
2207
 10
168.560
 20
113.249
 30
0.000000
  70
    32
  0
VERTEX
  8
SAPA_FOGBAND
  5
2208
 10
168.641
 20
113.324
 30
0.000000
  70
    32
  0
VERTEX
  8
SAPA_FOGBAND
  5
2209
 10
168.728
 20
113.396
 30
0.000000
  70
    32
  0
VERTEX
  8
SAPA_FOGBAND
  5
220A
 10
168.821
 20
113.465
 30
0.000000
  70
    32
  0
VERTEX
  8
SAPA_FOGBAND
  5
220B
 10
168.920
 20
113.532
 30
0.000000
  70
    32
  0
VERTEX
  8
SAPA_FOGBAND
  5
220C
 10
169.024
 20
113.596
 30
0.000000
  70
    32
  0
VERTEX
  8
SAPA_FOGBAND
  5
220D
 10
169.134
 20
113.657
 30
0.000000
  70
    32
  0
VERTEX
  8
SAPA_FOGBAND
  5
220E
 10
169.249
 20
113.715
 30
0.000000
  70
    32
  0
VERTEX
  8
SAPA_FOGBAND
  5
220F
 10
169.368
 20
113.769
 30
0.000000
  70
    32
  0
VERTEX
  8
SAPA_FOGBAND
  5
2210
 10
169.492
 20
113.820
 30
0.000000
  70
    32
  0
VERTEX
  8
SAPA_FOGBAND
  5
2211
 10
169.620
 20
113.868
 30
0.000000
  70
    32
  0
VERTEX
  8
SAPA_FOGBAND
  5
2212
 10
169.752
 20
113.911
 30
0.000000
  70
    32
  0
VERTEX
  8
SAPA_FOGBAND
  5
2213
 10
169.887
 20
113.951
 30
0.000000
  70
    32
  0
VERTEX
  8
SAPA_FOGBAND
  5
2214
 10
170.025
 20
113.987
 30
0.000000
  70
    32
  0
VERTEX
  8
SAPA_FOGBAND
  5
2215
 10
170.167
 20
114.018
 30
0.000000
  70
    32
  0
VERTEX
  8
SAPA_FOGBAND
  5
2216
 10
170.310
 20
114.046
 30
0.000000
  70
    32
  0
VERTEX
  8
SAPA_FOGBAND
  5
2217
 10
170.456
 20
114.070
 30
0.000000
  70
    32
  0
VERTEX
  8
SAPA_FOGBAND
  5
2218
 10
170.604
 20
114.089
 30
0.000000
  70
    32
  0
VERTEX
  8
SAPA_FOGBAND
  5
2219
 10
170.753
 20
114.104
 30
0.000000
  70
    32
  0
VERTEX
  8
SAPA_FOGBAND
  5
221A
 10
170.904
 20
114.115
 30
0.000000
  70
    32
  0
VERTEX
  8
SAPA_FOGBAND
  5
221B
 10
171.055
 20
114.121
 30
0.000000
  70
    32
  0
VERTEX
  8
SAPA_FOGBAND
  5
221C
 10
171.206
 20
114.124
 30
0.000000
  70
    32
  0
VERTEX
  8
SAPA_FOGBAND
  5
221D
 10
171.357
 20
114.121
 30
0.000000
  70
    32
  0
VERTEX
  8
SAPA_FOGBAND
  5
221E
 10
171.508
 20
114.115
 30
0.000000
  70
    32
  0
VERTEX
  8
SAPA_FOGBAND
  5
221F
 10
171.659
 20
114.104
 30
0.000000
  70
    32
  0
VERTEX
  8
SAPA_FOGBAND
  5
2220
 10
171.808
 20
114.089
 30
0.000000
  70
    32
  0
VERTEX
  8
SAPA_FOGBAND
  5
2221
 10
171.956
 20
114.070
 30
0.000000
  70
    32
  0
VERTEX
  8
SAPA_FOGBAND
  5
2222
 10
172.102
 20
114.046
 30
0.000000
  70
    32
  0
VERTEX
  8
SAPA_FOGBAND
  5
2223
 10
172.245
 20
114.018
 30
0.000000
  70
    32
  0
VERTEX
  8
SAPA_FOGBAND
  5
2224
 10
172.387
 20
113.987
 30
0.000000
  70
    32
  0
VERTEX
  8
SAPA_FOGBAND
  5
2225
 10
172.525
 20
113.951
 30
0.000000
  70
    32
  0
VERTEX
  8
SAPA_FOGBAND
  5
2226
 10
172.660
 20
113.911
 30
0.000000
  70
    32
  0
VERTEX
  8
SAPA_FOGBAND
  5
2227
 10
172.792
 20
113.868
 30
0.000000
  70
    32
  0
VERTEX
  8
SAPA_FOGBAND
  5
2228
 10
172.920
 20
113.820
 30
0.000000
  70
    32
  0
VERTEX
  8
SAPA_FOGBAND
  5
2229
 10
173.044
 20
113.769
 30
0.000000
  70
    32
  0
VERTEX
  8
SAPA_FOGBAND
  5
222A
 10
173.163
 20
113.715
 30
0.000000
  70
    32
  0
VERTEX
  8
SAPA_FOGBAND
  5
222B
 10
173.278
 20
113.657
 30
0.000000
  70
    32
  0
VERTEX
  8
SAPA_FOGBAND
  5
222C
 10
173.388
 20
113.596
 30
0.000000
  70
    32
  0
VERTEX
  8
SAPA_FOGBAND
  5
222D
 10
173.492
 20
113.532
 30
0.000000
  70
    32
  0
VERTEX
  8
SAPA_FOGBAND
  5
222E
 10
173.591
 20
113.465
 30
0.000000
  70
    32
  0
VERTEX
  8
SAPA_FOGBAND
  5
222F
 10
173.684
 20
113.396
 30
0.000000
  70
    32
  0
VERTEX
  8
SAPA_FOGBAND
  5
2230
 10
173.771
 20
113.324
 30
0.000000
  70
    32
  0
VERTEX
  8
SAPA_FOGBAND
  5
2231
 10
173.852
 20
113.249
 30
0.000000
  70
    32
  0
VERTEX
  8
SAPA_FOGBAND
  5
2232
 10
173.927
 20
113.172
 30
0.000000
  70
    32
  0
VERTEX
  8
SAPA_FOGBAND
  5
2233
 10
173.995
 20
113.093
 30
0.000000
  70
    32
  0
VERTEX
  8
SAPA_FOGBAND
  5
2234
 10
174.056
 20
113.012
 30
0.000000
  70
    32
  0
VERTEX
  8
SAPA_FOGBAND
  5
2235
 10
174.111
 20
112.930
 30
0.000000
  70
    32
  0
VERTEX
  8
SAPA_FOGBAND
  5
2236
 10
174.158
 20
112.846
 30
0.000000
  70
    32
  0
VERTEX
  8
SAPA_FOGBAND
  5
2237
 10
174.199
 20
112.761
 30
0.000000
  70
    32
  0
VERTEX
  8
SAPA_FOGBAND
  5
2238
 10
174.232
 20
112.675
 30
0.000000
  70
    32
  0
VERTEX
  8
SAPA_FOGBAND
  5
2239
 10
174.258
 20
112.588
 30
0.000000
  70
    32
  0
VERTEX
  8
SAPA_FOGBAND
  5
223A
 10
174.276
 20
112.500
 30
0.000000
  70
    32
  0
VERTEX
  8
SAPA_FOGBAND
  5
223B
 10
174.287
 20
112.412
 30
0.000000
  70
    32
  0
VERTEX
  8
SAPA_FOGBAND
  5
223C
 10
174.291
 20
112.324
 30
0.000000
  70
    32
  0
SEQEND
  8
SAPA_FOGBAND
  5
223D
  0
POLYLINE
  5
1375
  8
SAPA_FOGBAND
 62
     2
 66
     1
 10
0.0
 20
0.0
 30
0.0
 70
     1
  0
VERTEX
  5
1FDE
  8
SAPA_FOGBAND
 62
     2
 10
163.7622736322279
 20
107.02359199615201
 30
0.0
  0
VERTEX
  5
1FDF
  8
SAPA_FOGBAND
 62
     2
 10
177.44273828152649
 20
107.02359199615201
 30
0.0
 42
0.427966335106886
  0
VERTEX
  5
1FE0
  8
SAPA_FOGBAND
 62
     2
 10
177.7424108492466
 20
107.33760456751131
 30
0.0
  0
VERTEX
  5
1FE1
  8
SAPA_FOGBAND
 62
     2
 10
177.2561109411669
 20
115.5376045675112
 30
0.0
 42
0.4005932428724212
  0
VERTEX
  5
1FE2
  8
SAPA_FOGBAND
 62
     2
 10
176.9564383734469
 20
115.823591996152
 30
0.0
  0
VERTEX
  5
1FE3
  8
SAPA_FOGBAND
 62
     2
 10
175.1427382815265
 20
115.823591996152
 30
0.0
  0
VERTEX
  5
1FE4
  8
SAPA_FOGBAND
 62
     2
 10
175.1427382815265
 20
117.52359199615201
 30
0.0
 42
0.4142135623730951
  0
VERTEX
  5
1FE5
  8
SAPA_FOGBAND
 62
     2
 10
174.84273828152661
 20
117.823591996152
 30
0.0
  0
VERTEX
  5
1FE6
  8
SAPA_FOGBAND
 62
     2
 10
167.42395751790059
 20
117.823591996152
 30
0.0
 42
0.1379343940649207
  0
VERTEX
  5
1FE7
  8
SAPA_FOGBAND
 62
     2
 10
166.90273920885221
 20
117.6770153812972
 30
0.0
  0
VERTEX
  5
1FE8
  8
SAPA_FOGBAND
 62
     2
 10
154.98212912700231
 20
110.2697971433889
 30
0.0
 42
0.2613472755167645
  0
VERTEX
  5
1FE9
  8
SAPA_FOGBAND
 62
     2
 10
154.7427382815265
 20
109.8430854508163
 30
0.0
  0
VERTEX
  5
1FEA
  8
SAPA_FOGBAND
 62
     2
 10
154.7427382815265
 20
108.8483888336531
 30
0.0
 42
0.3915187749346393
  0
VERTEX
  5
1FEB
  8
SAPA_FOGBAND
 62
     2
 10
155.66471598129999
 20
107.85143721964801
 30
0.0
  0
VERTEX
  5
1FEC
  8
SAPA_FOGBAND
 62
     2
 10
163.72326248211459
 20
107.0251161891494
 30
0.0
 42
0.0195279011117891
  0
SEQEND
  5
1FED
  8
SAPA_FOGBAND
 62
     2
  0
POLYLINE
  5
1376
  8
SAPA_FOGBAND
 66
     1
 10
0.0
 20
0.0
 30
0.0
  0
VERTEX
  5
1FEE
  8
SAPA_FOGBAND
 10
103.27251453439121
 20
56.699999922587203
 30
0.0
  0
VERTEX
  5
1FEF
  8
SAPA_FOGBAND
 10
104.0193682225145
 20
56.699999922587203
 30
0.0
 42
-0.4142135623730951
  0
VERTEX
  5
1FF0
  8
SAPA_FOGBAND
 10
105.0193682225145
 20
55.699999922587189
 30
0.0
  0
VERTEX
  5
1FF1
  8
SAPA_FOGBAND
 10
105.0193682225145
 20
53.699999922586052
 30
0.0
 42
-0.210994618603313
  0
VERTEX
  5
1FF2
  8
SAPA_FOGBAND
 10
104.3664928644065
 20
52.221739053040579
 30
0.0
 42
0.6850821948890394
  0
VERTEX
  5
1FF3
  8
SAPA_FOGBAND
 10
104.5685615607094
 20
51.699999922587409
 30
0.0
  0
VERTEX
  5
1FF4
  8
SAPA_FOGBAND
 10
109.5193682225145
 20
51.699999922586947
 30
0.0
 42
0.4142135623730951
  0
VERTEX
  5
1FF5
  8
SAPA_FOGBAND
 10
110.0193682225145
 20
52.199999922586962
 30
0.0
  0
VERTEX
  5
1FF6
  8
SAPA_FOGBAND
 10
110.0193682225145
 20
52.878485676258428
 30
0.0
 42
0.1911782893730882
  0
VERTEX
  5
1FF7
  8
SAPA_FOGBAND
 10
109.88329980183551
 20
53.22134688079003
 30
0.0
  0
VERTEX
  5
1FF8
  8
SAPA_FOGBAND
 10
108.8554366431934
 20
55.373831420357298
 30
0.0
 42
-0.1911782893730934
  0
VERTEX
  5
1FF9
  8
SAPA_FOGBAND
 10
108.7193682225145
 20
55.716692624888907
 30
0.0
  0
VERTEX
  5
1FFA
  8
SAPA_FOGBAND
 10
108.7193682225145
 20
57.681441916538567
 30
0.0
 42
-1.10281772163574
  0
VERTEX
  5
1FFB
  8
SAPA_FOGBAND
 10
109.00291135262469
 20
57.71531308226615
 30
0.0
  0
VERTEX
  5
1FFC
  8
SAPA_FOGBAND
 10
109.1023018694636
 20
56.883292759303266
 30
0.0
 42
1.2698202119393449
  0
VERTEX
  5
1FFD
  8
SAPA_FOGBAND
 10
109.9278785310099
 20
57.51432822420189
 30
0.0
  0
VERTEX
  5
1FFE
  8
SAPA_FOGBAND
 10
108.7091364343588
 20
59.714743706715808
 30
0.0
 42
-0.0289221077391889
  0
VERTEX
  5
1FFF
  8
SAPA_FOGBAND
 10
107.901205921312
 20
60.44854564590711
 30
0.0
  0
VERTEX
  5
2000
  8
SAPA_FOGBAND
 10
107.37183216584491
 20
60.517224630944867
 30
0.0
 42
0.7235853709615765
  0
VERTEX
  5
2001
  8
SAPA_FOGBAND
 10
106.8029372685485
 20
60.483209534786333
 30
0.0
  0
VERTEX
  5
2002
  8
SAPA_FOGBAND
 10
106.0856280824907
 20
60.25947913827207
 30
0.0
 42
-0.770098478139891
  0
VERTEX
  5
2003
  8
SAPA_FOGBAND
 10
105.1188063596806
 20
60.25947913827207
 30
0.0
  0
VERTEX
  5
2004
  8
SAPA_FOGBAND
 10
104.7173323050921
 20
60.483209534786333
 30
0.0
 42
0.7700984781398929
  0
VERTEX
  5
2005
  8
SAPA_FOGBAND
 10
104.1372392714061
 20
60.483209534786333
 30
0.0
  0
VERTEX
  5
2006
  8
SAPA_FOGBAND
 10
103.4199300853483
 20
60.25947913827207
 30
0.0
 42
-0.770098478139891
  0
VERTEX
  5
2007
  8
SAPA_FOGBAND
 10
102.4531083625383
 20
60.25947913827207
 30
0.0
  0
VERTEX
  5
2008
  8
SAPA_FOGBAND
 10
102.0516343079497
 20
60.483209534786333
 30
0.0
 42
0.7700984781398929
  0
VERTEX
  5
2009
  8
SAPA_FOGBAND
 10
101.4715412742637
 20
60.483209534786333
 30
0.0
  0
VERTEX
  5
200A
  8
SAPA_FOGBAND
 10
100.7542320882059
 20
60.259479138272077
 30
0.0
 42
-0.770098478139891
  0
VERTEX
  5
200B
  8
SAPA_FOGBAND
 10
99.7874103653959
 20
60.259479138272077
 30
0.0
  0
VERTEX
  5
200C
  8
SAPA_FOGBAND
 10
99.385936310807352
 20
60.483209534786333
 30
0.0
 42
0.756464078513634
  0
VERTEX
  5
200D
  8
SAPA_FOGBAND
 10
98.808655897543346
 20
60.493157336735621
 30
0.0
  0
VERTEX
  5
200E
  8
SAPA_FOGBAND
 10
97.613529837357675
 20
58.945723248861157
 30
0.0
 42
0.0628847524128564
  0
VERTEX
  5
200F
  8
SAPA_FOGBAND
 10
97.519368222514487
 20
58.199999922587182
 30
0.0
  0
VERTEX
  5
2010
  8
SAPA_FOGBAND
 10
97.519368222514487
 20
56.899999922587469
 30
0.0
 42
0.4142135623730898
  0
VERTEX
  5
2011
  8
SAPA_FOGBAND
 10
97.71936822251449
 20
56.699999922587459
 30
0.0
  0
VERTEX
  5
2012
  8
SAPA_FOGBAND
 10
99.810295205046913
 20
56.699999922587459
 30
0.0
 42
-0.4142135623730898
  0
VERTEX
  5
2013
  8
SAPA_FOGBAND
 10
100.0102952050469
 20
56.499999922587477
 30
0.0
  0
VERTEX
  5
2014
  8
SAPA_FOGBAND
 10
100.0102952050469
 20
55.496755532720101
 30
0.0
  0
VERTEX
  5
2015
  8
SAPA_FOGBAND
 10
99.781162050533254
 20
55.4342646723982
 30
0.0
 42
0.4533118639271922
  0
VERTEX
  5
2016
  8
SAPA_FOGBAND
 10
99.649408196357086
 20
55.163819984604238
 30
0.0
  0
VERTEX
  5
2017
  8
SAPA_FOGBAND
 10
100.0846932396647
 20
54.128141778113637
 30
0.0
 42
0.3019343619406289
  0
VERTEX
  5
2018
  8
SAPA_FOGBAND
 10
100.7300139133357
 20
53.699363510526076
 30
0.0
  0
VERTEX
  5
2019
  8
SAPA_FOGBAND
 10
102.30924224677629
 20
53.699363510526076
 30
0.0
 42
0.3019343619406177
  0
VERTEX
  5
201A
  8
SAPA_FOGBAND
 10
102.9545629204472
 20
54.128141778113623
 30
0.0
  0
VERTEX
  5
201B
  8
SAPA_FOGBAND
 10
103.3898036697349
 20
55.163714595384121
 30
0.0
 42
0.4597386409251887
  0
VERTEX
  5
201C
  8
SAPA_FOGBAND
 10
103.25393345940761
 20
55.435235018959602
 30
0.0
  0
VERTEX
  5
201D
  8
SAPA_FOGBAND
 10
103.0078514043656
 20
55.496755532720101
 30
0.0
  0
VERTEX
  5
201E
  8
SAPA_FOGBAND
 10
103.0078514043656
 20
56.499999922587477
 30
0.0
 42
-0.4142135623730898
  0
VERTEX
  5
201F
  8
SAPA_FOGBAND
 10
103.2078514043656
 20
56.699999922587459
 30
0.0
  0
VERTEX
  5
2020
  8
SAPA_FOGBAND
 10
104.00000028723871
 20
56.699999922587459
 30
0.0
  0
SEQEND
  5
2021
  8
SAPA_FOGBAND
  0
POLYLINE
  5
1377
  8
SAPA_FOGBAND
 66
     1
 10
0.0
 20
0.0
 30
0.0
  0
VERTEX
  5
2022
  8
SAPA_FOGBAND
 10
99.922978953825975
 20
56.66523421915177
 30
0.0
  0
VERTEX
  5
2023
  8
SAPA_FOGBAND
 10
99.834802423048004
 20
56.725367389135201
 30
0.0
 42
-0.7379874617471908
  0
VERTEX
  5
2024
  8
SAPA_FOGBAND
 10
99.947486171827066
 20
57.090601685699497
 30
0.0
  0
VERTEX
  5
2025
  8
SAPA_FOGBAND
 10
103.0840479092826
 20
57.090601685699511
 30
0.0
 42
-0.7665515235804982
  0
VERTEX
  5
2026
  8
SAPA_FOGBAND
 10
103.1843859999934
 20
56.71759224216391
 30
0.0
  0
VERTEX
  5
2027
  8
SAPA_FOGBAND
 10
103.10751331365471
 20
56.673009366123061
 30
0.0
  0
SEQEND
  5
2028
  8
SAPA_FOGBAND
  0
POLYLINE
  5
1378
  8
SAPA_FOGBAND
 66
     1
 10
0.0
 20
0.0
 30
0.0
 70
     1
  0
VERTEX
  5
2029
  8
SAPA_FOGBAND
 10
102.26952732552979
 20
56.288687499202609
 30
0.0
 42
0.4142135623730951
  0
VERTEX
  5
202A
  8
SAPA_FOGBAND
 10
102.0695273255298
 20
56.488687499202612
 30
0.0
  0
VERTEX
  5
202B
  8
SAPA_FOGBAND
 10
100.9692091194992
 20
56.488687499202612
 30
0.0
 42
0.4142135623730951
  0
VERTEX
  5
202C
  8
SAPA_FOGBAND
 10
100.76920911949919
 20
56.288687499202609
 30
0.0
  0
VERTEX
  5
202D
  8
SAPA_FOGBAND
 10
100.76920911949919
 20
55.199681716556519
 30
0.0
 42
0.9999999999999998
  0
VERTEX
  5
202E
  8
SAPA_FOGBAND
 10
102.26952732552979
 20
55.199681716556519
 30
0.0
  0
SEQEND
  5
202F
  8
SAPA_FOGBAND
  0
LINE
  5
1388
  8
SAPA_MATT
 10
126.9992524027262
 20
111.7999998134859
 30
0.0
 11
126.9992524027262
 21
110.1999998106606
 31
0.0
  0
LINE
  5
1389
  8
SAPA_MATT
 10
143.99925240272529
 20
137.99999981065989
 30
0.0
 11
143.99925240272529
 21
135.99999981387771
 31
0.0
  0
LINE
  5
138A
  8
SAPA_MATT
 10
126.9992524027262
 20
137.99999981065989
 30
0.0
 11
126.9992524027262
 21
135.99999981387771
 31
0.0
  0
LINE
  5
138B
  8
SAPA_MATT
 10
143.99925240272529
 20
106.9999998118677
 30
0.0
 11
143.99925240272529
 21
105.1999998118666
 31
0.0
  0
LINE
  5
138C
  8
SAPA_MATT
 10
126.9992524027262
 20
106.9999998118677
 30
0.0
 11
126.9992524027263
 21
102.6758059073712
 31
0.0
  0
LINE
  5
138D
  8
SAPA_MATT
 10
126.9992524027263
 20
73.799999813214882
 30
0.0
 11
126.9992524027263
 21
72.199999810387808
 31
0.0
  0
LINE
  5
138E
  8
SAPA_MATT
 10
143.99925240272529
 20
78.799999812005254
 30
0.0
 11
143.99925240272529
 21
76.999999812005981
 31
0.0
  0
LINE
  5
138F
  8
SAPA_MATT
 10
126.9992524027263
 20
81.324193716500645
 30
0.0
 11
126.9992524027263
 21
76.9999998120078
 31
0.0
  0
POLYLINE
  5
1390
  8
SAPA_MATT
 66
     1
 10
0.0
 20
0.0
 30
0.0
  0
VERTEX
  5
2033
  8
SAPA_MATT
 10
146.99925240272989
 20
151.99999973884979
 30
0.0
  0
VERTEX
  5
2034
  8
SAPA_MATT
 10
123.99925240272989
 20
151.99999973884979
 30
0.0
  0
SEQEND
  5
2035
  8
SAPA_MATT
  0
LINE
  5
1391
  8
SAPA_MATT
 10
143.9992524027254
 20
53.999999809997817
 30
0.0
 11
143.9992524027254
 21
51.99999981321379
 31
0.0
  0
LINE
  5
1392
  8
SAPA_MATT
 10
126.9992524027263
 20
53.999999809997817
 30
0.0
 11
126.9992524027263
 21
51.99999981321379
 31
0.0
  0
VIEWPORT
  5
C4
 67
     1
  8
0
 10
160.5543545598442
 20
116.00969601843509
 30
0.0
 40
404.96977709277462
 41
256.8421457311839
 68
     1
 69
     1
1001
ACAD
1000
MVIEW
1002
{
1070
    16
1010
0.0
1020
0.0
1030
0.0
1010
0.0
1020
0.0
1030
1.0
1040
0.0
1040
256.8421457311839
1040
160.5543545598442
1040
116.00969601843509
1040
50.0
1040
0.0
1040
0.0
1070
     0
1070
   100
1070
     1
1070
     1
1070
     0
1070
     0
1070
     0
1070
     0
1040
0.0
1040
0.0
1040
0.0
1040
10.0
1040
10.0
1040
10.0
1040
10.0
1070
     0
1002
{
1002
}
1002
}
  0
ENDSEC
  0
EOF
