  0
SECTION
  2
HEADER
  9
$ACADVER
  1
AC1021
  9
$ACADMAINTVER
 70
    50
  9
$DWGCODEPAGE
  3
ANSI_1252
  9
$INSBASE
 10
0.0
 20
0.0
 30
0.0
  9
$EXTMIN
 10
-49.95580226927086
 20
-2969.069266356701
 30
0.0
  9
$EXTMAX
 10
1828.710779239831
 20
3333.471647510175
 30
0.0
  9
$LIMMIN
 10
0.0
 20
0.0
  9
$LIMMAX
 10
790.0
 20
790.0
  9
$ORTHOMODE
 70
     0
  9
$REGENMODE
 70
     1
  9
$FILLMODE
 70
     1
  9
$QTEXTMODE
 70
     0
  9
$MIRRTEXT
 70
     1
  9
$LTSCALE
 40
4.0
  9
$ATTMODE
 70
     1
  9
$TEXTSIZE
 40
3.5
  9
$TRACEWID
 40
0.05
  9
$TEXTSTYLE
  7
ISO
  9
$CLAYER
  8
sapa_elevation
  9
$CELTYPE
  6
BYLAYER
  9
$CECOLOR
 62
   256
  9
$CELTSCALE
 40
1.0
  9
$DISPSILH
 70
     1
  9
$DIMSCALE
 40
0.0
  9
$DIMASZ
 40
3.0
  9
$DIMEXO
 40
1.5
  9
$DIMDLI
 40
10.0
  9
$DIMRND
 40
0.0
  9
$DIMDLE
 40
0.0
  9
$DIMEXE
 40
1.5
  9
$DIMTP
 40
0.0
  9
$DIMTM
 40
0.0
  9
$DIMTXT
 40
3.0
  9
$DIMCEN
 40
-5.0
  9
$DIMTSZ
 40
0.0
  9
$DIMTOL
 70
     0
  9
$DIMLIM
 70
     0
  9
$DIMTIH
 70
     0
  9
$DIMTOH
 70
     0
  9
$DIMSE1
 70
     0
  9
$DIMSE2
 70
     0
  9
$DIMTAD
 70
     1
  9
$DIMZIN
 70
     8
  9
$DIMBLK
  1

  9
$DIMASO
 70
     1
  9
$DIMSHO
 70
     1
  9
$DIMPOST
  1

  9
$DIMAPOST
  1

  9
$DIMALT
 70
     0
  9
$DIMALTD
 70
     0
  9
$DIMALTF
 40
25.4
  9
$DIMLFAC
 40
-1.0
  9
$DIMTOFL
 70
     1
  9
$DIMTVP
 40
0.0
  9
$DIMTIX
 70
     0
  9
$DIMSOXD
 70
     0
  9
$DIMSAH
 70
     0
  9
$DIMBLK1
  1

  9
$DIMBLK2
  1

  9
$DIMSTYLE
  2
MASKIN
  9
$DIMCLRD
 70
   256
  9
$DIMCLRE
 70
   256
  9
$DIMCLRT
 70
     2
  9
$DIMTFAC
 40
1.0
  9
$DIMGAP
 40
1.0
  9
$DIMJUST
 70
     0
  9
$DIMSD1
 70
     0
  9
$DIMSD2
 70
     0
  9
$DIMTOLJ
 70
     1
  9
$DIMTZIN
 70
     8
  9
$DIMALTZ
 70
     8
  9
$DIMALTTZ
 70
     8
  9
$DIMUPT
 70
     0
  9
$DIMDEC
 70
     8
  9
$DIMTDEC
 70
     8
  9
$DIMALTU
 70
     2
  9
$DIMALTTD
 70
     0
  9
$DIMTXSTY
  7
ISO
  9
$DIMAUNIT
 70
     0
  9
$DIMADEC
 70
     2
  9
$DIMALTRND
 40
0.0
  9
$DIMAZIN
 70
     2
  9
$DIMDSEP
 70
    46
  9
$DIMATFIT
 70
     3
  9
$DIMFRAC
 70
     0
  9
$DIMLDRBLK
  1

  9
$DIMLUNIT
 70
     2
  9
$DIMLWD
 70
    -2
  9
$DIMLWE
 70
    -2
  9
$DIMTMOVE
 70
     0
  9
$DIMFXL
 40
1.5
  9
$DIMFXLON
 70
     0
  9
$DIMJOGANG
 40
1.570796326794896
  9
$DIMTFILL
 70
     0
  9
$DIMTFILLCLR
 70
     0
  9
$DIMARCSYM
 70
     0
  9
$DIMLTYPE
  6

  9
$DIMLTEX1
  6

  9
$DIMLTEX2
  6

  9
$LUNITS
 70
     2
  9
$LUPREC
 70
     8
  9
$SKETCHINC
 40
0.1
  9
$FILLETRAD
 40
0.0
  9
$AUNITS
 70
     0
  9
$AUPREC
 70
     8
  9
$MENU
  1
ACAD
  9
$ELEVATION
 40
0.0
  9
$PELEVATION
 40
0.0
  9
$THICKNESS
 40
0.0
  9
$LIMCHECK
 70
     0
  9
$CHAMFERA
 40
0.0
  9
$CHAMFERB
 40
0.0
  9
$CHAMFERC
 40
0.0
  9
$CHAMFERD
 40
0.0
  9
$SKPOLY
 70
     0
  9
$TDCREATE
 40
2455918.402240440
  9
$TDUCREATE
 40
2455918.318907106
  9
$TDUPDATE
 40
2457606.454701076
  9
$TDUUPDATE
 40
2457606.371367743
  9
$TDINDWG
 40
0.0598754745
  9
$TDUSRTIMER
 40
0.0598752894
  9
$USRTIMER
 70
     1
  9
$ANGBASE
 50
0.0
  9
$ANGDIR
 70
     0
  9
$PDMODE
 70
     0
  9
$PDSIZE
 40
0.0
  9
$PLINEWID
 40
0.0
  9
$SPLFRAME
 70
     0
  9
$SPLINETYPE
 70
     6
  9
$SPLINESEGS
 70
     8
  9
$HANDSEED
  5
1CA
  9
$SURFTAB1
 70
     6
  9
$SURFTAB2
 70
     6
  9
$SURFTYPE
 70
     6
  9
$SURFU
 70
     6
  9
$SURFV
 70
     6
  9
$UCSBASE
  2

  9
$UCSNAME
  2

  9
$UCSORG
 10
0.0
 20
0.0
 30
0.0
  9
$UCSXDIR
 10
1.0
 20
0.0
 30
0.0
  9
$UCSYDIR
 10
0.0
 20
1.0
 30
0.0
  9
$UCSORTHOREF
  2

  9
$UCSORTHOVIEW
 70
     0
  9
$UCSORGTOP
 10
0.0
 20
0.0
 30
0.0
  9
$UCSORGBOTTOM
 10
0.0
 20
0.0
 30
0.0
  9
$UCSORGLEFT
 10
0.0
 20
0.0
 30
0.0
  9
$UCSORGRIGHT
 10
0.0
 20
0.0
 30
0.0
  9
$UCSORGFRONT
 10
0.0
 20
0.0
 30
0.0
  9
$UCSORGBACK
 10
0.0
 20
0.0
 30
0.0
  9
$PUCSBASE
  2

  9
$PUCSNAME
  2

  9
$PUCSORG
 10
0.0
 20
0.0
 30
0.0
  9
$PUCSXDIR
 10
1.0
 20
0.0
 30
0.0
  9
$PUCSYDIR
 10
0.0
 20
1.0
 30
0.0
  9
$PUCSORTHOREF
  2

  9
$PUCSORTHOVIEW
 70
     0
  9
$PUCSORGTOP
 10
0.0
 20
0.0
 30
0.0
  9
$PUCSORGBOTTOM
 10
0.0
 20
0.0
 30
0.0
  9
$PUCSORGLEFT
 10
0.0
 20
0.0
 30
0.0
  9
$PUCSORGRIGHT
 10
0.0
 20
0.0
 30
0.0
  9
$PUCSORGFRONT
 10
0.0
 20
0.0
 30
0.0
  9
$PUCSORGBACK
 10
0.0
 20
0.0
 30
0.0
  9
$USERI1
 70
     0
  9
$USERI2
 70
     0
  9
$USERI3
 70
     0
  9
$USERI4
 70
     0
  9
$USERI5
 70
     0
  9
$USERR1
 40
0.0
  9
$USERR2
 40
0.0
  9
$USERR3
 40
0.0
  9
$USERR4
 40
0.0
  9
$USERR5
 40
0.0
  9
$WORLDVIEW
 70
     1
  9
$SHADEDGE
 70
     3
  9
$SHADEDIF
 70
    70
  9
$TILEMODE
 70
     1
  9
$MAXACTVP
 70
    16
  9
$PINSBASE
 10
0.0
 20
0.0
 30
0.0
  9
$PLIMCHECK
 70
     0
  9
$PEXTMIN
 10
5.869999703752308
 20
-0.0000001723469722
 30
0.0
  9
$PEXTMAX
 10
185.8683605469043
 20
282.999999827653
 30
0.0
  9
$PLIMMIN
 10
-14.40651499994891
 20
-4.253669647431024
  9
$PLIMMAX
 10
195.5668126367698
 20
292.6723252256159
  9
$UNITMODE
 70
     0
  9
$VISRETAIN
 70
     1
  9
$PLINEGEN
 70
     0
  9
$PSLTSCALE
 70
     1
  9
$TREEDEPTH
 70
  3020
  9
$CMLSTYLE
  2
STANDARD
  9
$CMLJUST
 70
     0
  9
$CMLSCALE
 40
1.0
  9
$PROXYGRAPHICS
 70
     1
  9
$MEASUREMENT
 70
     1
  9
$CELWEIGHT
370
    -1
  9
$ENDCAPS
280
     0
  9
$JOINSTYLE
280
     0
  9
$LWDISPLAY
290
     0
  9
$INSUNITS
 70
     0
  9
$HYPERLINKBASE
  1

  9
$STYLESHEET
  1

  9
$XEDIT
290
     1
  9
$CEPSNTYPE
380
     0
  9
$PSTYLEMODE
290
     1
  9
$FINGERPRINTGUID
  2
{A4DAE479-FDA9-4BFB-BF07-2E05BAFA1489}
  9
$VERSIONGUID
  2
{05EEDFDC-F046-45AD-AB4D-0E4BC1E995EB}
  9
$EXTNAMES
290
     1
  9
$PSVPSCALE
 40
100.0
  9
$OLESTARTUP
290
     0
  9
$SORTENTS
280
   127
  9
$INDEXCTL
280
     0
  9
$HIDETEXT
280
     1
  9
$XCLIPFRAME
290
     0
  9
$HALOGAP
280
     0
  9
$OBSCOLOR
 70
   257
  9
$OBSLTYPE
280
     0
  9
$INTERSECTIONDISPLAY
280
     0
  9
$INTERSECTIONCOLOR
 70
   257
  9
$DIMASSOC
280
     2
  9
$PROJECTNAME
  1

  9
$CAMERADISPLAY
290
     0
  9
$LENSLENGTH
 40
50.0
  9
$CAMERAHEIGHT
 40
0.0
  9
$STEPSPERSEC
 40
2.0
  9
$STEPSIZE
 40
6.0
  9
$3DDWFPREC
 40
2.0
  9
$PSOLWIDTH
 40
0.25
  9
$PSOLHEIGHT
 40
4.0
  9
$LOFTANG1
 40
1.570796326794896
  9
$LOFTANG2
 40
1.570796326794896
  9
$LOFTMAG1
 40
0.0
  9
$LOFTMAG2
 40
0.0
  9
$LOFTPARAM
 70
     7
  9
$LOFTNORMALS
280
     1
  9
$LATITUDE
 40
37.795
  9
$LONGITUDE
 40
-122.394
  9
$NORTHDIRECTION
 40
0.0
  9
$TIMEZONE
 70
 -8000
  9
$LIGHTGLYPHDISPLAY
280
     1
  9
$TILEMODELIGHTSYNCH
280
     1
  9
$CMATERIAL
347
32
  9
$SOLIDHIST
280
     1
  9
$SHOWHIST
280
     1
  9
$DWFFRAME
280
     2
  9
$DGNFRAME
280
     0
  9
$REALWORLDSCALE
290
     1
  9
$INTERFERECOLOR
 62
     1
  9
$INTERFEREOBJVS
345
3E
  9
$INTERFEREVPVS
346
3F
  9
$CSHADOW
280
     0
  9
$SHADOWPLANELOCATION
 40
0.0
  0
ENDSEC
  0
SECTION
  2
CLASSES
  0
CLASS
  1
DICTIONARYVAR
  2
AcDbDictionaryVar
  3
ObjectDBX Classes
 90
        0
 91
       10
280
     0
281
     0
  0
CLASS
  1
ACDBDICTIONARYWDFLT
  2
AcDbDictionaryWithDefault
  3
ObjectDBX Classes
 90
        0
 91
        1
280
     0
281
     0
  0
CLASS
  1
PLOTSETTINGS
  2
AcDbPlotSettings
  3
ObjectDBX Classes
 90
        0
 91
        0
280
     0
281
     0
  0
CLASS
  1
TABLESTYLE
  2
AcDbTableStyle
  3
ObjectDBX Classes
 90
     4095
 91
        1
280
     0
281
     0
  0
CLASS
  1
MATERIAL
  2
AcDbMaterial
  3
ObjectDBX Classes
 90
     1153
 91
        3
280
     0
281
     0
  0
CLASS
  1
VISUALSTYLE
  2
AcDbVisualStyle
  3
ObjectDBX Classes
 90
     4095
 91
        3
280
     0
281
     0
  0
CLASS
  1
IMAGEDEF
  2
AcDbRasterImageDef
  3
ISM
 90
        0
 91
        0
280
     0
281
     0
  0
CLASS
  1
SCALE
  2
AcDbScale
  3
ObjectDBX Classes
 90
     1153
 91
       35
280
     0
281
     0
  0
CLASS
  1
MLEADERSTYLE
  2
AcDbMLeaderStyle
  3
ACDB_MLEADERSTYLE_CLASS
 90
     4095
 91
        0
280
     0
281
     0
  0
CLASS
  1
EXACXREFPANELOBJECT
  2
ExAcXREFPanelObject
  3
EXAC_ESW
 90
     1025
 91
        0
280
     0
281
     0
  0
CLASS
  1
NPOCOLLECTION
  2
AcDbImpNonPersistentObjectsCollection
  3
ObjectDBX Classes
 90
     1153
 91
        0
280
     0
281
     0
  0
CLASS
  1
CELLSTYLEMAP
  2
AcDbCellStyleMap
  3
ObjectDBX Classes
 90
     1152
 91
        1
280
     0
281
     0
  0
CLASS
  1
SORTENTSTABLE
  2
AcDbSortentsTable
  3
ObjectDBX Classes
 90
        0
 91
        0
280
     0
281
     0
  0
CLASS
  1
ACDBSECTIONVIEWSTYLE
  2
AcDbSectionViewStyle
  3
ObjectDBX Classes
 90
     1025
 91
        0
280
     0
281
     0
  0
CLASS
  1
ACDBDETAILVIEWSTYLE
  2
AcDbDetailViewStyle
  3
ObjectDBX Classes
 90
     1025
 91
        0
280
     0
281
     0
  0
CLASS
  1
EXACTERMXREFMAP
  2
ExAcTermXrefMap
  3
EXAC_SERVICE
 90
     1025
 91
        0
280
     0
281
     0
  0
ENDSEC
  0
SECTION
  2
TABLES
  0
TABLE
  2
VPORT
  5
22
330
0
100
AcDbSymbolTable
 70
     1
  0
VPORT
  5
23
330
22
100
AcDbSymbolTableRecord
100
AcDbViewportTableRecord
  2
*Active
 70
     0
 10
0.0
 20
0.0
 11
1.0
 21
1.0
 12
1913.660905529965
 22
4241.095045296612
 13
0.0
 23
0.0
 14
1.0
 24
1.0
 15
0.0
 25
0.0
 16
0.0
 26
0.0
 36
1.0
 17
0.0
 27
0.0
 37
0.0
 40
6647.695152634061
 41
1.607076350093109
 42
50.0
 43
0.0
 44
0.0
 50
0.0
 51
0.0
 71
     0
 72
   100
 73
     1
 74
     1
 75
     0
 76
     0
 77
     0
 78
     0
281
     0
 65
     1
110
0.0
120
0.0
130
0.0
111
1.0
121
0.0
131
0.0
112
0.0
122
1.0
132
0.0
 79
     0
146
0.0
348
24
 60
     3
 61
     5
292
     1
282
     1
141
0.0
142
0.0
 63
   250
421
  3355443
1001
ACAD_NAV_VCDISPLAY
1070
     3
  0
ENDTAB
  0
TABLE
  2
LTYPE
  5
1D
330
0
100
AcDbSymbolTable
 70
     2
  0
LTYPE
  5
1E
330
1D
100
AcDbSymbolTableRecord
100
AcDbLinetypeTableRecord
  2
BYBLOCK
 70
     0
  3

 72
    65
 73
     0
 40
0.0
  0
LTYPE
  5
1F
330
1D
100
AcDbSymbolTableRecord
100
AcDbLinetypeTableRecord
  2
BYLAYER
 70
     0
  3

 72
    65
 73
     0
 40
0.0
  0
LTYPE
  5
C
330
1D
100
AcDbSymbolTableRecord
100
AcDbLinetypeTableRecord
  2
CONTINUOUS
 70
     0
  3
Solid line
 72
    65
 73
     0
 40
0.0
  0
LTYPE
  5
64
330
1D
100
AcDbSymbolTableRecord
100
AcDbLinetypeTableRecord
  2
DASHED
 70
     0
  3
__ __ __ __ __ __ __ __ __ __ __ __ __ __ __
 72
    65
 73
     2
 40
0.75
 49
0.5
 74
     0
 49
-0.25
 74
     0
  0
ENDTAB
  0
TABLE
  2
LAYER
  5
17
102
{ACAD_XDICTIONARY
360
18
102
}
330
0
100
AcDbSymbolTable
 70
     2
  0
LAYER
  5
4
102
{ACAD_XDICTIONARY
360
5
102
}
330
17
100
AcDbSymbolTableRecord
100
AcDbLayerTableRecord
  2
0
 70
     1
 62
    -7
  6
CONTINUOUS
370
    -3
390
7
347
A
  0
LAYER
  5
38
102
{ACAD_XDICTIONARY
360
39
102
}
330
17
100
AcDbSymbolTableRecord
100
AcDbLayerTableRecord
  2
sapa_elevation
 70
     0
 62
     7
  6
CONTINUOUS
370
    -3
390
7
347
A
  0
ENDTAB
  0
TABLE
  2
STYLE
  5
1A
330
0
100
AcDbSymbolTable
 70
     2
  0
STYLE
  5
1B
330
1A
100
AcDbSymbolTableRecord
100
AcDbTextStyleTableRecord
  2
STANDARD
 70
     0
 40
0.0
 41
1.0
 50
0.0
 71
     0
 42
0.2
  3
txt
  4

  0
STYLE
  5
2B
330
1A
100
AcDbSymbolTableRecord
100
AcDbTextStyleTableRecord
  2
ISO
 70
     0
 40
0.0
 41
1.0
 50
0.0
 71
     0
 42
3.5
  3
isocpeur.ttf
  4

1001
ACAD
1000
ISOCPEUR
1071
       34
  0
ENDTAB
  0
TABLE
  2
VIEW
  5
20
330
0
100
AcDbSymbolTable
 70
     0
  0
ENDTAB
  0
TABLE
  2
UCS
  5
21
330
0
100
AcDbSymbolTable
 70
     0
  0
ENDTAB
  0
TABLE
  2
APPID
  5
27
330
0
100
AcDbSymbolTable
 70
     4
  0
APPID
  5
28
330
27
100
AcDbSymbolTableRecord
100
AcDbRegAppTableRecord
  2
ACAD
 70
     0
  0
APPID
  5
2C
330
27
100
AcDbSymbolTableRecord
100
AcDbRegAppTableRecord
  2
ACAD_DSTYLE_DIMJOGGED_JOGANGLE_SYMBOL
 70
     0
  0
APPID
  5
11
330
27
100
AcDbSymbolTableRecord
100
AcDbRegAppTableRecord
  2
ACAD_PSEXT
 70
     0
  0
APPID
  5
26
330
27
100
AcDbSymbolTableRecord
100
AcDbRegAppTableRecord
  2
ACAD_NAV_VCDISPLAY
 70
     0
  0
ENDTAB
  0
TABLE
  2
DIMSTYLE
  5
29
330
0
100
AcDbSymbolTable
 70
     2
100
AcDbDimStyleTable
 71
     2
340
2A
340
2D
  0
DIMSTYLE
105
2D
330
29
100
AcDbSymbolTableRecord
100
AcDbDimStyleTableRecord
  2
Standard
 70
     0
340
1B
  0
DIMSTYLE
105
2A
330
29
100
AcDbSymbolTableRecord
100
AcDbDimStyleTableRecord
  2
MASKIN
 70
     0
 40
0.0
 41
3.0
 42
1.5
 43
10.0
 44
1.5
 49
1.5
 50
90.0
 73
     0
 74
     0
 77
     1
 78
     8
 79
     2
140
3.0
141
-5.0
144
-1.0
147
1.0
171
     0
172
     1
176
   256
177
   256
178
     2
179
     2
271
     8
272
     8
274
     0
284
     8
285
     8
286
     8
340
2B
1001
ACAD_DSTYLE_DIMJOGGED_JOGANGLE_SYMBOL
1070
   384
1040
1.570796326794896
  0
ENDTAB
  0
TABLE
  2
BLOCK_RECORD
  5
1
330
0
100
AcDbSymbolTable
 70
     0
  0
BLOCK_RECORD
  5
2
330
1
100
AcDbSymbolTableRecord
100
AcDbBlockTableRecord
  2
*MODEL_SPACE
340
E
 70
     0
280
     1
281
     0
  0
BLOCK_RECORD
  5
12
330
1
100
AcDbSymbolTableRecord
100
AcDbBlockTableRecord
  2
*Paper_Space
340
15
 70
     0
280
     1
281
     0
  0
ENDTAB
  0
ENDSEC
  0
SECTION
  2
BLOCKS
  0
BLOCK
  5
3
330
2
100
AcDbEntity
  8
0
100
AcDbBlockBegin
  2
*MODEL_SPACE
 70
     0
 10
0.0
 20
0.0
 30
0.0
  3
*MODEL_SPACE
  1

  0
ENDBLK
  5
D
330
2
100
AcDbEntity
  8
0
100
AcDbBlockEnd
  0
BLOCK
  5
13
330
12
100
AcDbEntity
 67
     1
  8
0
100
AcDbBlockBegin
  2
*Paper_Space
 70
     0
 10
0.0
 20
0.0
 30
0.0
  3
*Paper_Space
  1

  0
ENDBLK
  5
14
330
12
100
AcDbEntity
 67
     1
  8
0
100
AcDbBlockEnd
  0
ENDSEC
  0
SECTION
  2
ENTITIES
  0
LINE
  5
63
330
2
100
AcDbEntity
  8
sapa_elevation
  6
DASHED
 48
5.0
100
AcDbLine
 10
1151.0
 20
1296.0
 30
0.0
 11
1146.0
 21
1301.0
 31
0.0
  0
LINE
  5
65
330
2
100
AcDbEntity
  8
sapa_elevation
  6
DASHED
 48
5.0
100
AcDbLine
 10
1156.0
 20
1301.0
 30
0.0
 11
1151.0
 21
1296.0
 31
0.0
  0
LINE
  5
66
330
2
100
AcDbEntity
  8
sapa_elevation
  6
DASHED
 48
5.0
100
AcDbLine
 10
1151.0
 20
1306.0
 30
0.0
 11
1156.0
 21
1301.0
 31
0.0
  0
LINE
  5
67
330
2
100
AcDbEntity
  8
sapa_elevation
  6
DASHED
 48
5.0
100
AcDbLine
 10
1146.0
 20
1301.0
 30
0.0
 11
1151.0
 21
1306.0
 31
0.0
  0
LINE
  5
68
330
2
100
AcDbEntity
  8
sapa_elevation
  6
DASHED
 48
5.0
100
AcDbLine
 10
1136.0
 20
1301.0
 30
0.0
 11
1131.0
 21
1306.0
 31
0.0
  0
LINE
  5
69
330
2
100
AcDbEntity
  8
sapa_elevation
  6
DASHED
 48
5.0
100
AcDbLine
 10
1131.0
 20
1296.0
 30
0.0
 11
1136.0
 21
1301.0
 31
0.0
  0
LINE
  5
6A
330
2
100
AcDbEntity
  8
sapa_elevation
  6
DASHED
 48
5.0
100
AcDbLine
 10
1126.0
 20
1301.0
 30
0.0
 11
1131.0
 21
1296.0
 31
0.0
  0
LINE
  5
6B
330
2
100
AcDbEntity
  8
sapa_elevation
  6
DASHED
 48
5.0
100
AcDbLine
 10
1131.0
 20
1306.0
 30
0.0
 11
1126.0
 21
1301.0
 31
0.0
  0
LINE
  5
6C
330
2
100
AcDbEntity
  8
sapa_elevation
  6
DASHED
 48
5.0
100
AcDbLine
 10
1126.0
 20
1321.0
 30
0.0
 11
1131.0
 21
1326.0
 31
0.0
  0
LINE
  5
6D
330
2
100
AcDbEntity
  8
sapa_elevation
  6
DASHED
 48
5.0
100
AcDbLine
 10
1131.0
 20
1316.0
 30
0.0
 11
1126.0
 21
1321.0
 31
0.0
  0
LINE
  5
6E
330
2
100
AcDbEntity
  8
sapa_elevation
  6
DASHED
 48
5.0
100
AcDbLine
 10
1136.0
 20
1321.0
 30
0.0
 11
1131.0
 21
1316.0
 31
0.0
  0
LINE
  5
6F
330
2
100
AcDbEntity
  8
sapa_elevation
  6
DASHED
 48
5.0
100
AcDbLine
 10
1131.0
 20
1326.0
 30
0.0
 11
1136.0
 21
1321.0
 31
0.0
  0
LINE
  5
70
330
2
100
AcDbEntity
  8
sapa_elevation
  6
DASHED
 48
5.0
100
AcDbLine
 10
1151.0
 20
1326.0
 30
0.0
 11
1146.0
 21
1321.0
 31
0.0
  0
LINE
  5
71
330
2
100
AcDbEntity
  8
sapa_elevation
  6
DASHED
 48
5.0
100
AcDbLine
 10
1151.0
 20
1316.0
 30
0.0
 11
1146.0
 21
1321.0
 31
0.0
  0
LINE
  5
72
330
2
100
AcDbEntity
  8
sapa_elevation
  6
DASHED
 48
5.0
100
AcDbLine
 10
1156.0
 20
1321.0
 30
0.0
 11
1151.0
 21
1316.0
 31
0.0
  0
LINE
  5
73
330
2
100
AcDbEntity
  8
sapa_elevation
  6
DASHED
 48
5.0
100
AcDbLine
 10
1151.0
 20
1326.0
 30
0.0
 11
1156.0
 21
1321.0
 31
0.0
  0
LINE
  5
74
330
2
100
AcDbEntity
  8
sapa_elevation
  6
DASHED
 48
5.0
100
AcDbLine
 10
1151.0
 20
1336.0
 30
0.0
 11
1146.0
 21
1341.0
 31
0.0
  0
LINE
  5
75
330
2
100
AcDbEntity
  8
sapa_elevation
  6
DASHED
 48
5.0
100
AcDbLine
 10
1156.0
 20
1341.0
 30
0.0
 11
1151.0
 21
1336.0
 31
0.0
  0
LINE
  5
76
330
2
100
AcDbEntity
  8
sapa_elevation
  6
DASHED
 48
5.0
100
AcDbLine
 10
1151.0
 20
1346.0
 30
0.0
 11
1156.0
 21
1341.0
 31
0.0
  0
LINE
  5
77
330
2
100
AcDbEntity
  8
sapa_elevation
  6
DASHED
 48
5.0
100
AcDbLine
 10
1146.0
 20
1341.0
 30
0.0
 11
1151.0
 21
1346.0
 31
0.0
  0
LINE
  5
78
330
2
100
AcDbEntity
  8
sapa_elevation
  6
DASHED
 48
5.0
100
AcDbLine
 10
1131.0
 20
1336.0
 30
0.0
 11
1126.0
 21
1341.0
 31
0.0
  0
LINE
  5
79
330
2
100
AcDbEntity
  8
sapa_elevation
  6
DASHED
 48
5.0
100
AcDbLine
 10
1136.0
 20
1341.0
 30
0.0
 11
1131.0
 21
1336.0
 31
0.0
  0
LINE
  5
7A
330
2
100
AcDbEntity
  8
sapa_elevation
  6
DASHED
 48
5.0
100
AcDbLine
 10
1131.0
 20
1346.0
 30
0.0
 11
1136.0
 21
1341.0
 31
0.0
  0
LINE
  5
7B
330
2
100
AcDbEntity
  8
sapa_elevation
  6
DASHED
 48
5.0
100
AcDbLine
 10
1131.0
 20
1346.0
 30
0.0
 11
1126.0
 21
1341.0
 31
0.0
  0
LINE
  5
7C
330
2
100
AcDbEntity
  8
sapa_elevation
  6
DASHED
 48
5.0
100
AcDbLine
 10
1156.0
 20
1361.0
 30
0.0
 11
1151.0
 21
1356.0
 31
0.0
  0
LINE
  5
7D
330
2
100
AcDbEntity
  8
sapa_elevation
  6
DASHED
 48
5.0
100
AcDbLine
 10
1146.0
 20
1361.0
 30
0.0
 11
1151.0
 21
1356.0
 31
0.0
  0
LINE
  5
7E
330
2
100
AcDbEntity
  8
sapa_elevation
  6
DASHED
 48
5.0
100
AcDbLine
 10
1131.0
 20
1356.0
 30
0.0
 11
1136.0
 21
1361.0
 31
0.0
  0
LINE
  5
7F
330
2
100
AcDbEntity
  8
sapa_elevation
  6
DASHED
 48
5.0
100
AcDbLine
 10
1126.0
 20
1361.0
 30
0.0
 11
1131.0
 21
1356.0
 31
0.0
  0
LINE
  5
80
330
2
100
AcDbEntity
  8
sapa_elevation
  6
DASHED
 48
5.0
100
AcDbLine
 10
1116.0
 20
1301.0
 30
0.0
 11
1111.0
 21
1296.0
 31
0.0
  0
LINE
  5
81
330
2
100
AcDbEntity
  8
sapa_elevation
  6
DASHED
 48
5.0
100
AcDbLine
 10
1111.0
 20
1306.0
 30
0.0
 11
1116.0
 21
1301.0
 31
0.0
  0
LINE
  5
82
330
2
100
AcDbEntity
  8
sapa_elevation
  6
DASHED
 48
5.0
100
AcDbLine
 10
1116.0
 20
1321.0
 30
0.0
 11
1111.0
 21
1316.0
 31
0.0
  0
LINE
  5
83
330
2
100
AcDbEntity
  8
sapa_elevation
  6
DASHED
 48
5.0
100
AcDbLine
 10
1111.0
 20
1326.0
 30
0.0
 11
1116.0
 21
1321.0
 31
0.0
  0
LINE
  5
84
330
2
100
AcDbEntity
  8
sapa_elevation
  6
DASHED
 48
5.0
100
AcDbLine
 10
1111.0
 20
1336.0
 30
0.0
 11
1116.0
 21
1341.0
 31
0.0
  0
LINE
  5
85
330
2
100
AcDbEntity
  8
sapa_elevation
  6
DASHED
 48
5.0
100
AcDbLine
 10
1111.0
 20
1346.0
 30
0.0
 11
1116.0
 21
1341.0
 31
0.0
  0
LINE
  5
86
330
2
100
AcDbEntity
  8
sapa_elevation
  6
DASHED
 48
5.0
100
AcDbLine
 10
1106.0
 20
1301.0
 30
0.0
 11
1111.0
 21
1296.0
 31
0.0
  0
LINE
  5
87
330
2
100
AcDbEntity
  8
sapa_elevation
  6
DASHED
 48
5.0
100
AcDbLine
 10
1111.0
 20
1306.0
 30
0.0
 11
1106.0
 21
1301.0
 31
0.0
  0
LINE
  5
88
330
2
100
AcDbEntity
  8
sapa_elevation
  6
DASHED
 48
5.0
100
AcDbLine
 10
1106.0
 20
1321.0
 30
0.0
 11
1111.0
 21
1316.0
 31
0.0
  0
LINE
  5
89
330
2
100
AcDbEntity
  8
sapa_elevation
  6
DASHED
 48
5.0
100
AcDbLine
 10
1111.0
 20
1326.0
 30
0.0
 11
1106.0
 21
1321.0
 31
0.0
  0
LINE
  5
8A
330
2
100
AcDbEntity
  8
sapa_elevation
  6
DASHED
 48
5.0
100
AcDbLine
 10
1106.0
 20
1341.0
 30
0.0
 11
1111.0
 21
1336.0
 31
0.0
  0
LINE
  5
8B
330
2
100
AcDbEntity
  8
sapa_elevation
  6
DASHED
 48
5.0
100
AcDbLine
 10
1111.0
 20
1346.0
 30
0.0
 11
1106.0
 21
1341.0
 31
0.0
  0
LINE
  5
8C
330
2
100
AcDbEntity
  8
sapa_elevation
  6
DASHED
 48
5.0
100
AcDbLine
 10
1111.0
 20
1356.0
 30
0.0
 11
1116.0
 21
1361.0
 31
0.0
  0
LINE
  5
8D
330
2
100
AcDbEntity
  8
sapa_elevation
  6
DASHED
 48
5.0
100
AcDbLine
 10
1106.0
 20
1361.0
 30
0.0
 11
1111.0
 21
1356.0
 31
0.0
  0
LINE
  5
8E
330
2
100
AcDbEntity
  8
sapa_elevation
  6
DASHED
 48
5.0
100
AcDbLine
 10
1156.0
 20
1361.0
 30
0.0
 11
1151.0
 21
1366.0
 31
0.0
  0
LINE
  5
8F
330
2
100
AcDbEntity
  8
sapa_elevation
  6
DASHED
 48
5.0
100
AcDbLine
 10
1146.0
 20
1361.0
 30
0.0
 11
1151.0
 21
1366.0
 31
0.0
  0
LINE
  5
90
330
2
100
AcDbEntity
  8
sapa_elevation
  6
DASHED
 48
5.0
100
AcDbLine
 10
1131.0
 20
1366.0
 30
0.0
 11
1136.0
 21
1361.0
 31
0.0
  0
LINE
  5
91
330
2
100
AcDbEntity
  8
sapa_elevation
  6
DASHED
 48
5.0
100
AcDbLine
 10
1126.0
 20
1361.0
 30
0.0
 11
1131.0
 21
1366.0
 31
0.0
  0
LINE
  5
92
330
2
100
AcDbEntity
  8
sapa_elevation
  6
DASHED
 48
5.0
100
AcDbLine
 10
1111.0
 20
1366.0
 30
0.0
 11
1116.0
 21
1361.0
 31
0.0
  0
LWPOLYLINE
  5
93
330
2
100
AcDbEntity
  8
sapa_elevation
 48
5.0
100
AcDbPolyline
 90
        8
 70
     1
 43
0.0
 10
1178.0
 20
1431.0
 10
1181.0
 20
1428.0
 10
1181.0
 20
1120.0
 10
1178.0
 20
1117.0
 10
1047.0
 20
1117.0
 10
1044.0
 20
1120.0
 10
1044.0
 20
1428.0
 10
1047.0
 20
1431.0
  0
LINE
  5
94
330
2
100
AcDbEntity
  8
sapa_elevation
  6
DASHED
 48
5.0
100
AcDbLine
 10
1106.399999999999
 20
1177.0
 30
0.0
 11
1120.7
 21
1177.0
 31
0.0
  0
LINE
  5
95
330
2
100
AcDbEntity
  8
sapa_elevation
  6
DASHED
 48
5.0
100
AcDbLine
 10
1112.5
 20
1184.3
 30
0.0
 11
1112.5
 21
1170.0
 31
0.0
  0
LWPOLYLINE
  5
96
330
2
100
AcDbEntity
  8
sapa_elevation
  6
DASHED
 48
5.0
100
AcDbPolyline
 90
       24
 70
     1
 43
0.0
 10
1104.5
 20
1137.0
 10
1092.5
 20
1141.0
 10
1076.5
 20
1157.0
 10
1072.5
 20
1169.0
 10
1072.5
 20
1173.0
 10
1072.5
 20
1181.0
 10
1072.5
 20
1185.0
 10
1076.5
 20
1197.0
 10
1092.5
 20
1213.0
 10
1104.5
 20
1217.0
 10
1108.5
 20
1217.0
 10
1116.5
 20
1217.0
 10
1120.5
 20
1217.0
 10
1132.5
 20
1213.0
 10
1148.5
 20
1197.0
 10
1152.5
 20
1185.0
 10
1152.5
 20
1181.0
 10
1152.5
 20
1173.0
 10
1152.5
 20
1169.0
 10
1148.5
 20
1157.0
 10
1132.5
 20
1141.0
 10
1120.5
 20
1137.0
 10
1116.5
 20
1137.0
 10
1108.5
 20
1137.0
  0
LINE
  5
97
330
2
100
AcDbEntity
  8
sapa_elevation
  6
DASHED
 48
5.0
100
AcDbLine
 10
1106.0
 20
1361.0
 30
0.0
 11
1111.0
 21
1366.0
 31
0.0
  0
LINE
  5
98
330
2
100
AcDbEntity
  8
sapa_elevation
  6
DASHED
 48
5.0
100
AcDbLine
 10
1108.5
 20
1408.0
 30
0.0
 11
1108.5
 21
1406.0
 31
0.0
  0
LINE
  5
99
330
2
100
AcDbEntity
  8
sapa_elevation
  6
DASHED
 48
5.0
100
AcDbLine
 10
1108.5
 20
1406.0
 30
0.0
 11
1116.5
 21
1406.0
 31
0.0
  0
POLYLINE
  5
9A
330
2
100
AcDbEntity
  8
sapa_elevation
100
AcDb2dPolyline
 66
     1
 10
0.0
 20
0.0
 30
0.0
  0
VERTEX
  5
9B
330
9A
100
AcDbEntity
  8
sapa_elevation
100
AcDbVertex
100
AcDb2dVertex
 10
1025.0
 20
2974.0
 30
0.0
  0
VERTEX
  5
9C
330
9A
100
AcDbEntity
  8
sapa_elevation
100
AcDbVertex
100
AcDb2dVertex
 10
1200.0
 20
2974.0
 30
0.0
  0
SEQEND
  5
9D
330
9A
100
AcDbEntity
  8
sapa_elevation
  0
LINE
  5
9E
330
2
100
AcDbEntity
  8
sapa_elevation
  6
DASHED
 48
5.0
100
AcDbLine
 10
1116.5
 20
1406.0
 30
0.0
 11
1116.5
 21
1408.0
 31
0.0
  0
LINE
  5
9F
330
2
100
AcDbEntity
  8
sapa_elevation
  6
DASHED
 48
5.0
100
AcDbLine
 10
1105.5
 20
1406.0
 30
0.0
 11
1105.5
 21
1408.0
 31
0.0
  0
LINE
  5
A0
330
2
100
AcDbEntity
  8
sapa_elevation
  6
DASHED
 48
5.0
100
AcDbLine
 10
1105.5
 20
1408.0
 30
0.0
 11
1097.5
 21
1408.0
 31
0.0
  0
LINE
  5
A1
330
2
100
AcDbEntity
  8
sapa_elevation
  6
DASHED
 48
5.0
100
AcDbLine
 10
1097.5
 20
1408.0
 30
0.0
 11
1097.5
 21
1406.0
 31
0.0
  0
LINE
  5
A2
330
2
100
AcDbEntity
  8
sapa_elevation
  6
DASHED
 48
5.0
100
AcDbLine
 10
1097.5
 20
1406.0
 30
0.0
 11
1105.5
 21
1406.0
 31
0.0
  0
LINE
  5
A3
330
2
100
AcDbEntity
  8
sapa_elevation
  6
DASHED
 48
5.0
100
AcDbLine
 10
1119.5
 20
1408.0
 30
0.0
 11
1119.5
 21
1406.0
 31
0.0
  0
LINE
  5
A4
330
2
100
AcDbEntity
  8
sapa_elevation
  6
DASHED
 48
5.0
100
AcDbLine
 10
1119.5
 20
1406.0
 30
0.0
 11
1127.5
 21
1406.0
 31
0.0
  0
LINE
  5
A5
330
2
100
AcDbEntity
  8
sapa_elevation
  6
DASHED
 48
5.0
100
AcDbLine
 10
1127.5
 20
1406.0
 30
0.0
 11
1127.5
 21
1408.0
 31
0.0
  0
POLYLINE
  5
A6
330
2
100
AcDbEntity
  8
sapa_elevation
100
AcDb2dPolyline
 66
     1
 10
0.0
 20
0.0
 30
0.0
  0
VERTEX
  5
A7
330
A6
100
AcDbEntity
  8
sapa_elevation
100
AcDbVertex
100
AcDb2dVertex
 10
45.0
 20
2974.0
 30
0.0
  0
VERTEX
  5
A8
330
A6
100
AcDbEntity
  8
sapa_elevation
100
AcDbVertex
100
AcDb2dVertex
 10
1025.0
 20
2974.0
 30
0.0
  0
SEQEND
  5
A9
330
A6
100
AcDbEntity
  8
sapa_elevation
  0
LINE
  5
AA
330
2
100
AcDbEntity
  8
sapa_elevation
  6
DASHED
 48
5.0
100
AcDbLine
 10
1116.5
 20
1408.0
 30
0.0
 11
1108.5
 21
1408.0
 31
0.0
  0
LINE
  5
AB
330
2
100
AcDbEntity
  8
sapa_elevation
  6
DASHED
 48
5.0
100
AcDbLine
 10
1108.5
 20
1402.0
 30
0.0
 11
1116.5
 21
1402.0
 31
0.0
  0
LINE
  5
AC
330
2
100
AcDbEntity
  8
sapa_elevation
  6
DASHED
 48
5.0
100
AcDbLine
 10
1108.5
 20
1404.0
 30
0.0
 11
1108.5
 21
1402.0
 31
0.0
  0
LINE
  5
AD
330
2
100
AcDbEntity
  8
sapa_elevation
  6
DASHED
 48
5.0
100
AcDbLine
 10
1116.5
 20
1402.0
 30
0.0
 11
1116.5
 21
1404.0
 31
0.0
  0
LINE
  5
AE
330
2
100
AcDbEntity
  8
sapa_elevation
  6
DASHED
 48
5.0
100
AcDbLine
 10
1116.5
 20
1404.0
 30
0.0
 11
1108.5
 21
1404.0
 31
0.0
  0
LINE
  5
AF
330
2
100
AcDbEntity
  8
sapa_elevation
  6
DASHED
 48
5.0
100
AcDbLine
 10
1108.5
 20
1396.0
 30
0.0
 11
1108.5
 21
1394.0
 31
0.0
  0
LINE
  5
B0
330
2
100
AcDbEntity
  8
sapa_elevation
  6
DASHED
 48
5.0
100
AcDbLine
 10
1108.5
 20
1392.0
 30
0.0
 11
1108.5
 21
1390.0
 31
0.0
  0
LINE
  5
B1
330
2
100
AcDbEntity
  8
sapa_elevation
  6
DASHED
 48
5.0
100
AcDbLine
 10
1108.5
 20
1400.0
 30
0.0
 11
1116.5
 21
1400.0
 31
0.0
  0
LINE
  5
B2
330
2
100
AcDbEntity
  8
sapa_elevation
  6
DASHED
 48
5.0
100
AcDbLine
 10
1116.5
 20
1400.0
 30
0.0
 11
1116.5
 21
1398.0
 31
0.0
  0
LINE
  5
B3
330
2
100
AcDbEntity
  8
sapa_elevation
  6
DASHED
 48
5.0
100
AcDbLine
 10
1116.5
 20
1396.0
 30
0.0
 11
1116.5
 21
1394.0
 31
0.0
  0
LINE
  5
B4
330
2
100
AcDbEntity
  8
sapa_elevation
  6
DASHED
 48
5.0
100
AcDbLine
 10
1116.5
 20
1392.0
 30
0.0
 11
1116.5
 21
1390.0
 31
0.0
  0
LINE
  5
B5
330
2
100
AcDbEntity
  8
sapa_elevation
  6
DASHED
 48
5.0
100
AcDbLine
 10
1116.5
 20
1390.0
 30
0.0
 11
1108.5
 21
1390.0
 31
0.0
  0
LINE
  5
B6
330
2
100
AcDbEntity
  8
sapa_elevation
  6
DASHED
 48
5.0
100
AcDbLine
 10
1108.5
 20
1392.0
 30
0.0
 11
1116.5
 21
1392.0
 31
0.0
  0
LINE
  5
B7
330
2
100
AcDbEntity
  8
sapa_elevation
  6
DASHED
 48
5.0
100
AcDbLine
 10
1116.5
 20
1394.0
 30
0.0
 11
1108.5
 21
1394.0
 31
0.0
  0
LINE
  5
B8
330
2
100
AcDbEntity
  8
sapa_elevation
  6
DASHED
 48
5.0
100
AcDbLine
 10
1108.5
 20
1396.0
 30
0.0
 11
1116.5
 21
1396.0
 31
0.0
  0
LINE
  5
B9
330
2
100
AcDbEntity
  8
sapa_elevation
  6
DASHED
 48
5.0
100
AcDbLine
 10
1116.5
 20
1398.0
 30
0.0
 11
1108.5
 21
1398.0
 31
0.0
  0
LINE
  5
BA
330
2
100
AcDbEntity
  8
sapa_elevation
  6
DASHED
 48
5.0
100
AcDbLine
 10
1105.5
 20
1404.0
 30
0.0
 11
1105.5
 21
1402.0
 31
0.0
  0
LINE
  5
BB
330
2
100
AcDbEntity
  8
sapa_elevation
  6
DASHED
 48
5.0
100
AcDbLine
 10
1105.5
 20
1400.0
 30
0.0
 11
1105.5
 21
1398.0
 31
0.0
  0
LINE
  5
BC
330
2
100
AcDbEntity
  8
sapa_elevation
  6
DASHED
 48
5.0
100
AcDbLine
 10
1105.5
 20
1396.0
 30
0.0
 11
1105.5
 21
1394.0
 31
0.0
  0
LINE
  5
BD
330
2
100
AcDbEntity
  8
sapa_elevation
  6
DASHED
 48
5.0
100
AcDbLine
 10
1105.5
 20
1392.0
 30
0.0
 11
1105.5
 21
1390.0
 31
0.0
  0
LINE
  5
BE
330
2
100
AcDbEntity
  8
sapa_elevation
  6
DASHED
 48
5.0
100
AcDbLine
 10
1097.5
 20
1404.0
 30
0.0
 11
1097.5
 21
1402.0
 31
0.0
  0
LINE
  5
BF
330
2
100
AcDbEntity
  8
sapa_elevation
  6
DASHED
 48
5.0
100
AcDbLine
 10
1097.5
 20
1400.0
 30
0.0
 11
1097.5
 21
1398.0
 31
0.0
  0
LINE
  5
C0
330
2
100
AcDbEntity
  8
sapa_elevation
  6
DASHED
 48
5.0
100
AcDbLine
 10
1097.5
 20
1396.0
 30
0.0
 11
1097.5
 21
1394.0
 31
0.0
  0
LINE
  5
C1
330
2
100
AcDbEntity
  8
sapa_elevation
  6
DASHED
 48
5.0
100
AcDbLine
 10
1097.5
 20
1392.0
 30
0.0
 11
1097.5
 21
1390.0
 31
0.0
  0
LINE
  5
C2
330
2
100
AcDbEntity
  8
sapa_elevation
  6
DASHED
 48
5.0
100
AcDbLine
 10
1119.5
 20
1404.0
 30
0.0
 11
1119.5
 21
1402.0
 31
0.0
  0
LINE
  5
C3
330
2
100
AcDbEntity
  8
sapa_elevation
  6
DASHED
 48
5.0
100
AcDbLine
 10
1119.5
 20
1400.0
 30
0.0
 11
1119.5
 21
1398.0
 31
0.0
  0
LINE
  5
C4
330
2
100
AcDbEntity
  8
sapa_elevation
  6
DASHED
 48
5.0
100
AcDbLine
 10
1119.5
 20
1396.0
 30
0.0
 11
1119.5
 21
1394.0
 31
0.0
  0
LINE
  5
C5
330
2
100
AcDbEntity
  8
sapa_elevation
  6
DASHED
 48
5.0
100
AcDbLine
 10
1119.5
 20
1392.0
 30
0.0
 11
1119.5
 21
1390.0
 31
0.0
  0
LINE
  5
C6
330
2
100
AcDbEntity
  8
sapa_elevation
  6
DASHED
 48
5.0
100
AcDbLine
 10
1127.5
 20
1390.0
 30
0.0
 11
1127.5
 21
1392.0
 31
0.0
  0
LINE
  5
C7
330
2
100
AcDbEntity
  8
sapa_elevation
  6
DASHED
 48
5.0
100
AcDbLine
 10
1127.5
 20
1394.0
 30
0.0
 11
1127.5
 21
1396.0
 31
0.0
  0
LINE
  5
C8
330
2
100
AcDbEntity
  8
sapa_elevation
  6
DASHED
 48
5.0
100
AcDbLine
 10
1127.5
 20
1398.0
 30
0.0
 11
1127.5
 21
1400.0
 31
0.0
  0
LINE
  5
C9
330
2
100
AcDbEntity
  8
sapa_elevation
  6
DASHED
 48
5.0
100
AcDbLine
 10
1127.5
 20
1402.0
 30
0.0
 11
1127.5
 21
1404.0
 31
0.0
  0
LINE
  5
CA
330
2
100
AcDbEntity
  8
sapa_elevation
  6
DASHED
 48
5.0
100
AcDbLine
 10
1127.5
 20
1404.0
 30
0.0
 11
1119.5
 21
1404.0
 31
0.0
  0
LINE
  5
CB
330
2
100
AcDbEntity
  8
sapa_elevation
  6
DASHED
 48
5.0
100
AcDbLine
 10
1119.5
 20
1402.0
 30
0.0
 11
1127.5
 21
1402.0
 31
0.0
  0
LINE
  5
CC
330
2
100
AcDbEntity
  8
sapa_elevation
  6
DASHED
 48
5.0
100
AcDbLine
 10
1127.5
 20
1400.0
 30
0.0
 11
1119.5
 21
1400.0
 31
0.0
  0
LINE
  5
CD
330
2
100
AcDbEntity
  8
sapa_elevation
  6
DASHED
 48
5.0
100
AcDbLine
 10
1119.5
 20
1398.0
 30
0.0
 11
1127.5
 21
1398.0
 31
0.0
  0
LINE
  5
CE
330
2
100
AcDbEntity
  8
sapa_elevation
  6
DASHED
 48
5.0
100
AcDbLine
 10
1127.5
 20
1396.0
 30
0.0
 11
1119.5
 21
1396.0
 31
0.0
  0
LINE
  5
CF
330
2
100
AcDbEntity
  8
sapa_elevation
  6
DASHED
 48
5.0
100
AcDbLine
 10
1119.5
 20
1394.0
 30
0.0
 11
1127.5
 21
1394.0
 31
0.0
  0
LINE
  5
D0
330
2
100
AcDbEntity
  8
sapa_elevation
  6
DASHED
 48
5.0
100
AcDbLine
 10
1127.5
 20
1392.0
 30
0.0
 11
1119.5
 21
1392.0
 31
0.0
  0
LINE
  5
D1
330
2
100
AcDbEntity
  8
sapa_elevation
  6
DASHED
 48
5.0
100
AcDbLine
 10
1119.5
 20
1390.0
 30
0.0
 11
1127.5
 21
1390.0
 31
0.0
  0
LINE
  5
D2
330
2
100
AcDbEntity
  8
sapa_elevation
  6
DASHED
 48
5.0
100
AcDbLine
 10
1105.5
 20
1404.0
 30
0.0
 11
1097.5
 21
1404.0
 31
0.0
  0
LINE
  5
D3
330
2
100
AcDbEntity
  8
sapa_elevation
  6
DASHED
 48
5.0
100
AcDbLine
 10
1097.5
 20
1402.0
 30
0.0
 11
1105.5
 21
1402.0
 31
0.0
  0
LINE
  5
D4
330
2
100
AcDbEntity
  8
sapa_elevation
  6
DASHED
 48
5.0
100
AcDbLine
 10
1105.5
 20
1400.0
 30
0.0
 11
1097.5
 21
1400.0
 31
0.0
  0
LINE
  5
D5
330
2
100
AcDbEntity
  8
sapa_elevation
  6
DASHED
 48
5.0
100
AcDbLine
 10
1097.5
 20
1398.0
 30
0.0
 11
1105.5
 21
1398.0
 31
0.0
  0
LINE
  5
D6
330
2
100
AcDbEntity
  8
sapa_elevation
  6
DASHED
 48
5.0
100
AcDbLine
 10
1105.5
 20
1396.0
 30
0.0
 11
1097.5
 21
1396.0
 31
0.0
  0
LINE
  5
D7
330
2
100
AcDbEntity
  8
sapa_elevation
  6
DASHED
 48
5.0
100
AcDbLine
 10
1097.5
 20
1394.0
 30
0.0
 11
1105.5
 21
1394.0
 31
0.0
  0
LINE
  5
D8
330
2
100
AcDbEntity
  8
sapa_elevation
  6
DASHED
 48
5.0
100
AcDbLine
 10
1105.5
 20
1392.0
 30
0.0
 11
1097.5
 21
1392.0
 31
0.0
  0
LINE
  5
D9
330
2
100
AcDbEntity
  8
sapa_elevation
  6
DASHED
 48
5.0
100
AcDbLine
 10
1097.5
 20
1390.0
 30
0.0
 11
1105.5
 21
1390.0
 31
0.0
  0
LINE
  5
DA
330
2
100
AcDbEntity
  8
sapa_elevation
  6
DASHED
 48
5.0
100
AcDbLine
 10
1094.5
 20
1404.0
 30
0.0
 11
1086.5
 21
1404.0
 31
0.0
  0
LINE
  5
DB
330
2
100
AcDbEntity
  8
sapa_elevation
  6
DASHED
 48
5.0
100
AcDbLine
 10
1086.5
 20
1402.0
 30
0.0
 11
1086.5
 21
1404.0
 31
0.0
  0
LINE
  5
DC
330
2
100
AcDbEntity
  8
sapa_elevation
  6
DASHED
 48
5.0
100
AcDbLine
 10
1086.5
 20
1400.0
 30
0.0
 11
1086.5
 21
1398.0
 31
0.0
  0
LINE
  5
DD
330
2
100
AcDbEntity
  8
sapa_elevation
  6
DASHED
 48
5.0
100
AcDbLine
 10
1086.5
 20
1396.0
 30
0.0
 11
1086.5
 21
1394.0
 31
0.0
  0
LINE
  5
DE
330
2
100
AcDbEntity
  8
sapa_elevation
  6
DASHED
 48
5.0
100
AcDbLine
 10
1094.5
 20
1394.0
 30
0.0
 11
1094.5
 21
1396.0
 31
0.0
  0
LINE
  5
DF
330
2
100
AcDbEntity
  8
sapa_elevation
  6
DASHED
 48
5.0
100
AcDbLine
 10
1094.5
 20
1398.0
 30
0.0
 11
1094.5
 21
1400.0
 31
0.0
  0
LINE
  5
E0
330
2
100
AcDbEntity
  8
sapa_elevation
  6
DASHED
 48
5.0
100
AcDbLine
 10
1094.5
 20
1402.0
 30
0.0
 11
1094.5
 21
1404.0
 31
0.0
  0
LINE
  5
E1
330
2
100
AcDbEntity
  8
sapa_elevation
  6
DASHED
 48
5.0
100
AcDbLine
 10
1094.5
 20
1402.0
 30
0.0
 11
1086.5
 21
1402.0
 31
0.0
  0
LINE
  5
E2
330
2
100
AcDbEntity
  8
sapa_elevation
  6
DASHED
 48
5.0
100
AcDbLine
 10
1086.5
 20
1400.0
 30
0.0
 11
1094.5
 21
1400.0
 31
0.0
  0
LINE
  5
E3
330
2
100
AcDbEntity
  8
sapa_elevation
  6
DASHED
 48
5.0
100
AcDbLine
 10
1094.5
 20
1398.0
 30
0.0
 11
1086.5
 21
1398.0
 31
0.0
  0
LINE
  5
E4
330
2
100
AcDbEntity
  8
sapa_elevation
  6
DASHED
 48
5.0
100
AcDbLine
 10
1086.5
 20
1396.0
 30
0.0
 11
1094.5
 21
1396.0
 31
0.0
  0
LINE
  5
E5
330
2
100
AcDbEntity
  8
sapa_elevation
  6
DASHED
 48
5.0
100
AcDbLine
 10
1094.5
 20
1394.0
 30
0.0
 11
1086.5
 21
1394.0
 31
0.0
  0
LINE
  5
E6
330
2
100
AcDbEntity
  8
sapa_elevation
  6
DASHED
 48
5.0
100
AcDbLine
 10
1130.5
 20
1404.0
 30
0.0
 11
1130.5
 21
1402.0
 31
0.0
  0
LINE
  5
E7
330
2
100
AcDbEntity
  8
sapa_elevation
  6
DASHED
 48
5.0
100
AcDbLine
 10
1130.5
 20
1400.0
 30
0.0
 11
1130.5
 21
1398.0
 31
0.0
  0
LINE
  5
E8
330
2
100
AcDbEntity
  8
sapa_elevation
  6
DASHED
 48
5.0
100
AcDbLine
 10
1130.5
 20
1396.0
 30
0.0
 11
1130.5
 21
1394.0
 31
0.0
  0
LINE
  5
E9
330
2
100
AcDbEntity
  8
sapa_elevation
  6
DASHED
 48
5.0
100
AcDbLine
 10
1138.5
 20
1394.0
 30
0.0
 11
1138.5
 21
1396.0
 31
0.0
  0
LINE
  5
EA
330
2
100
AcDbEntity
  8
sapa_elevation
  6
DASHED
 48
5.0
100
AcDbLine
 10
1138.5
 20
1398.0
 30
0.0
 11
1138.5
 21
1400.0
 31
0.0
  0
LINE
  5
EB
330
2
100
AcDbEntity
  8
sapa_elevation
  6
DASHED
 48
5.0
100
AcDbLine
 10
1138.5
 20
1402.0
 30
0.0
 11
1138.5
 21
1404.0
 31
0.0
  0
LINE
  5
EC
330
2
100
AcDbEntity
  8
sapa_elevation
  6
DASHED
 48
5.0
100
AcDbLine
 10
1130.5
 20
1404.0
 30
0.0
 11
1138.5
 21
1404.0
 31
0.0
  0
LINE
  5
ED
330
2
100
AcDbEntity
  8
sapa_elevation
  6
DASHED
 48
5.0
100
AcDbLine
 10
1138.5
 20
1402.0
 30
0.0
 11
1130.5
 21
1402.0
 31
0.0
  0
LINE
  5
EE
330
2
100
AcDbEntity
  8
sapa_elevation
  6
DASHED
 48
5.0
100
AcDbLine
 10
1130.5
 20
1400.0
 30
0.0
 11
1138.5
 21
1400.0
 31
0.0
  0
LINE
  5
EF
330
2
100
AcDbEntity
  8
sapa_elevation
  6
DASHED
 48
5.0
100
AcDbLine
 10
1138.5
 20
1398.0
 30
0.0
 11
1130.5
 21
1398.0
 31
0.0
  0
LINE
  5
F0
330
2
100
AcDbEntity
  8
sapa_elevation
  6
DASHED
 48
5.0
100
AcDbLine
 10
1130.5
 20
1396.0
 30
0.0
 11
1138.5
 21
1396.0
 31
0.0
  0
LINE
  5
F1
330
2
100
AcDbEntity
  8
sapa_elevation
  6
DASHED
 48
5.0
100
AcDbLine
 10
1138.5
 20
1394.0
 30
0.0
 11
1130.5
 21
1394.0
 31
0.0
  0
LINE
  5
F2
330
2
100
AcDbEntity
  8
sapa_elevation
  6
DASHED
 48
5.0
100
AcDbLine
 10
1072.0
 20
1356.0
 30
0.0
 11
1074.0
 21
1358.0
 31
0.0
  0
LINE
  5
F3
330
2
100
AcDbEntity
  8
sapa_elevation
  6
DASHED
 48
5.0
100
AcDbLine
 10
1074.0
 20
1358.0
 30
0.0
 11
1076.0
 21
1356.0
 31
0.0
  0
LINE
  5
F4
330
2
100
AcDbEntity
  8
sapa_elevation
  6
DASHED
 48
5.0
100
AcDbLine
 10
1074.0
 20
1354.0
 30
0.0
 11
1076.0
 21
1356.0
 31
0.0
  0
LINE
  5
F5
330
2
100
AcDbEntity
  8
sapa_elevation
  6
DASHED
 48
5.0
100
AcDbLine
 10
1072.0
 20
1356.0
 30
0.0
 11
1074.0
 21
1354.0
 31
0.0
  0
LINE
  5
F6
330
2
100
AcDbEntity
  8
sapa_elevation
  6
DASHED
 48
5.0
100
AcDbLine
 10
1072.0
 20
1336.0
 30
0.0
 11
1074.0
 21
1338.0
 31
0.0
  0
LINE
  5
F7
330
2
100
AcDbEntity
  8
sapa_elevation
  6
DASHED
 48
5.0
100
AcDbLine
 10
1119.5
 20
1408.0
 30
0.0
 11
1127.5
 21
1408.0
 31
0.0
  0
LINE
  5
F8
330
2
100
AcDbEntity
  8
sapa_elevation
  6
DASHED
 48
5.0
100
AcDbLine
 10
1074.0
 20
1338.0
 30
0.0
 11
1076.0
 21
1336.0
 31
0.0
  0
LINE
  5
F9
330
2
100
AcDbEntity
  8
sapa_elevation
  6
DASHED
 48
5.0
100
AcDbLine
 10
1074.0
 20
1334.0
 30
0.0
 11
1076.0
 21
1336.0
 31
0.0
  0
LINE
  5
FA
330
2
100
AcDbEntity
  8
sapa_elevation
  6
DASHED
 48
5.0
100
AcDbLine
 10
1074.0
 20
1334.0
 30
0.0
 11
1072.0
 21
1336.0
 31
0.0
  0
LINE
  5
FB
330
2
100
AcDbEntity
  8
sapa_elevation
  6
DASHED
 48
5.0
100
AcDbLine
 10
1074.0
 20
1318.0
 30
0.0
 11
1076.0
 21
1316.0
 31
0.0
  0
LINE
  5
FC
330
2
100
AcDbEntity
  8
sapa_elevation
  6
DASHED
 48
5.0
100
AcDbLine
 10
1108.5
 20
1400.0
 30
0.0
 11
1108.5
 21
1398.0
 31
0.0
  0
LINE
  5
FD
330
2
100
AcDbEntity
  8
sapa_elevation
  6
DASHED
 48
5.0
100
AcDbLine
 10
1076.0
 20
1316.0
 30
0.0
 11
1074.0
 21
1314.0
 31
0.0
  0
LINE
  5
FE
330
2
100
AcDbEntity
  8
sapa_elevation
  6
DASHED
 48
5.0
100
AcDbLine
 10
1074.0
 20
1314.0
 30
0.0
 11
1072.0
 21
1316.0
 31
0.0
  0
LINE
  5
FF
330
2
100
AcDbEntity
  8
sapa_elevation
  6
DASHED
 48
5.0
100
AcDbLine
 10
1074.0
 20
1318.0
 30
0.0
 11
1072.0
 21
1316.0
 31
0.0
  0
LINE
  5
100
330
2
100
AcDbEntity
  8
sapa_elevation
  6
DASHED
 48
5.0
100
AcDbLine
 10
1076.0
 20
1296.0
 30
0.0
 11
1074.0
 21
1298.0
 31
0.0
  0
LINE
  5
101
330
2
100
AcDbEntity
  8
sapa_elevation
  6
DASHED
 48
5.0
100
AcDbLine
 10
1074.0
 20
1298.0
 30
0.0
 11
1072.0
 21
1296.0
 31
0.0
  0
LINE
  5
102
330
2
100
AcDbEntity
  8
sapa_elevation
  6
DASHED
 48
5.0
100
AcDbLine
 10
1072.0
 20
1296.0
 30
0.0
 11
1074.0
 21
1294.0
 31
0.0
  0
LINE
  5
103
330
2
100
AcDbEntity
  8
sapa_elevation
  6
DASHED
 48
5.0
100
AcDbLine
 10
1074.0
 20
1294.0
 30
0.0
 11
1076.0
 21
1296.0
 31
0.0
  0
LINE
  5
104
330
2
100
AcDbEntity
  8
sapa_elevation
100
AcDbLine
 10
75.0
 20
0.0
 30
0.0
 11
995.0
 21
-100.0
 31
0.0
  0
LINE
  5
105
330
2
100
AcDbEntity
  8
sapa_elevation
100
AcDbLine
 10
995.0
 20
50.0
 30
0.0
 11
995.0
 21
0.0
 31
0.0
  0
LINE
  5
106
330
2
100
AcDbEntity
  8
sapa_elevation
100
AcDbLine
 10
75.0
 20
50.0
 30
0.0
 11
75.0
 21
0.0
 31
0.0
  0
LINE
  5
107
330
2
100
AcDbEntity
  8
sapa_elevation
100
AcDbLine
 10
920.0
 20
50.0
 30
0.0
 11
920.0
 21
0.0
 31
0.0
  0
LINE
  5
108
330
2
100
AcDbEntity
  8
sapa_elevation
100
AcDbLine
 10
150.0
 20
50.0
 30
0.0
 11
150.0
 21
0.0
 31
0.0
  0
LINE
  5
109
330
2
100
AcDbEntity
  8
sapa_elevation
100
AcDbLine
 10
1222.0
 20
50.0
 30
0.0
 11
1222.0
 21
0.0
 31
0.0
  0
LINE
  5
10A
330
2
100
AcDbEntity
  8
sapa_elevation
100
AcDbLine
 10
1633.0
 20
50.0
 30
0.0
 11
1633.0
 21
0.0
 31
0.0
  0
LINE
  5
10B
330
2
100
AcDbEntity
  8
sapa_elevation
100
AcDbLine
 10
0.0
 20
50.0
 30
0.0
 11
0.0
 21
0.0
 31
0.0
  0
LINE
  5
10C
330
2
100
AcDbEntity
  8
sapa_elevation
100
AcDbLine
 10
1700.0
 20
50.0
 30
0.0
 11
1700.0
 21
0.0
 31
0.0
  0
LINE
  5
10D
330
2
100
AcDbEntity
  8
sapa_elevation
100
AcDbLine
 10
1700.0
 20
0.0
 30
0.0
 11
0.0
 21
0.0
 31
0.0
  0
LINE
  5
10E
330
2
100
AcDbEntity
  8
sapa_elevation
100
AcDbLine
 10
1700.0
 20
50.0
 30
0.0
 11
0.0
 21
50.0
 31
0.0
  0
POLYLINE
  5
10F
330
2
100
AcDbEntity
  8
sapa_elevation
100
AcDb2dPolyline
 66
     1
 10
0.0
 20
0.0
 30
0.0
  0
VERTEX
  5
110
330
10F
100
AcDbEntity
  8
sapa_elevation
100
AcDbVertex
100
AcDb2dVertex
 10
142.0
 20
1174.0
 30
0.0
  0
VERTEX
  5
111
330
10F
100
AcDbEntity
  8
sapa_elevation
100
AcDbVertex
100
AcDb2dVertex
 10
928.0
 20
1174.0
 30
0.0
  0
SEQEND
  5
112
330
10F
100
AcDbEntity
  8
sapa_elevation
  0
POLYLINE
  5
113
330
2
100
AcDbEntity
  8
sapa_elevation
100
AcDb2dPolyline
 66
     1
 10
0.0
 20
0.0
 30
0.0
  0
VERTEX
  5
114
330
113
100
AcDbEntity
  8
sapa_elevation
100
AcDbVertex
100
AcDb2dVertex
 10
928.0
 20
1100.0
 30
0.0
  0
VERTEX
  5
115
330
113
100
AcDbEntity
  8
sapa_elevation
100
AcDbVertex
100
AcDb2dVertex
 10
142.0
 20
1100.0
 30
0.0
  0
SEQEND
  5
116
330
113
100
AcDbEntity
  8
sapa_elevation
  0
POLYLINE
  5
117
330
2
100
AcDbEntity
  8
sapa_elevation
100
AcDb2dPolyline
 66
     1
 10
0.0
 20
0.0
 30
0.0
  0
VERTEX
  5
118
330
117
100
AcDbEntity
  8
sapa_elevation
100
AcDbVertex
100
AcDb2dVertex
 10
142.0
 20
377.0
 30
0.0
  0
VERTEX
  5
119
330
117
100
AcDbEntity
  8
sapa_elevation
100
AcDbVertex
100
AcDb2dVertex
 10
928.0
 20
377.0
 30
0.0
  0
SEQEND
  5
11A
330
117
100
AcDbEntity
  8
sapa_elevation
  0
POLYLINE
  5
11B
330
2
100
AcDbEntity
  8
sapa_elevation
100
AcDb2dPolyline
 66
     1
 10
0.0
 20
0.0
 30
0.0
  0
VERTEX
  5
11C
330
11B
100
AcDbEntity
  8
sapa_elevation
100
AcDbVertex
100
AcDb2dVertex
 10
1017.0
 20
288.0
 30
0.0
  0
VERTEX
  5
11D
330
11B
100
AcDbEntity
  8
sapa_elevation
100
AcDbVertex
100
AcDb2dVertex
 10
53.0
 20
288.0
 30
0.0
  0
SEQEND
  5
11E
330
11B
100
AcDbEntity
  8
sapa_elevation
  0
POLYLINE
  5
11F
330
2
100
AcDbEntity
  8
sapa_elevation
100
AcDb2dPolyline
 66
     1
 10
0.0
 20
0.0
 30
0.0
  0
VERTEX
  5
120
330
11F
100
AcDbEntity
  8
sapa_elevation
100
AcDbVertex
100
AcDb2dVertex
 10
928.0
 20
2332.0
 30
0.0
  0
VERTEX
  5
121
330
11F
100
AcDbEntity
  8
sapa_elevation
100
AcDbVertex
100
AcDb2dVertex
 10
142.0
 20
2332.0
 30
0.0
  0
SEQEND
  5
122
330
11F
100
AcDbEntity
  8
sapa_elevation
  0
POLYLINE
  5
123
330
2
100
AcDbEntity
  8
sapa_elevation
100
AcDb2dPolyline
 66
     1
 10
0.0
 20
0.0
 30
0.0
  0
VERTEX
  5
124
330
123
100
AcDbEntity
  8
sapa_elevation
100
AcDbVertex
100
AcDb2dVertex
 10
53.0
 20
2421.0
 30
0.0
  0
VERTEX
  5
125
330
123
100
AcDbEntity
  8
sapa_elevation
100
AcDbVertex
100
AcDb2dVertex
 10
1017.0
 20
2421.0
 30
0.0
  0
SEQEND
  5
126
330
123
100
AcDbEntity
  8
sapa_elevation
  0
POLYLINE
  5
127
330
2
100
AcDbEntity
  8
sapa_elevation
100
AcDb2dPolyline
 66
     1
 10
0.0
 20
0.0
 30
0.0
  0
VERTEX
  5
128
330
127
100
AcDbEntity
  8
sapa_elevation
100
AcDbVertex
100
AcDb2dVertex
 10
928.0
 20
377.0
 30
0.0
  0
VERTEX
  5
129
330
127
100
AcDbEntity
  8
sapa_elevation
100
AcDbVertex
100
AcDb2dVertex
 10
928.0
 20
1100.0
 30
0.0
  0
SEQEND
  5
12A
330
127
100
AcDbEntity
  8
sapa_elevation
  0
POLYLINE
  5
12B
330
2
100
AcDbEntity
  8
sapa_elevation
100
AcDb2dPolyline
 66
     1
 10
0.0
 20
0.0
 30
0.0
  0
VERTEX
  5
12C
330
12B
100
AcDbEntity
  8
sapa_elevation
100
AcDbVertex
100
AcDb2dVertex
 10
928.0
 20
1174.0
 30
0.0
  0
VERTEX
  5
12D
330
12B
100
AcDbEntity
  8
sapa_elevation
100
AcDbVertex
100
AcDb2dVertex
 10
928.0
 20
2332.0
 30
0.0
  0
SEQEND
  5
12E
330
12B
100
AcDbEntity
  8
sapa_elevation
  0
POLYLINE
  5
12F
330
2
100
AcDbEntity
  8
sapa_elevation
100
AcDb2dPolyline
 66
     1
 10
0.0
 20
0.0
 30
0.0
  0
VERTEX
  5
130
330
12F
100
AcDbEntity
  8
sapa_elevation
100
AcDbVertex
100
AcDb2dVertex
 10
1017.0
 20
2421.0
 30
0.0
  0
VERTEX
  5
131
330
12F
100
AcDbEntity
  8
sapa_elevation
100
AcDbVertex
100
AcDb2dVertex
 10
1017.0
 20
288.0
 30
0.0
  0
SEQEND
  5
132
330
12F
100
AcDbEntity
  8
sapa_elevation
  0
POLYLINE
  5
133
330
2
100
AcDbEntity
  8
sapa_elevation
100
AcDb2dPolyline
 66
     1
 10
0.0
 20
0.0
 30
0.0
  0
VERTEX
  5
134
330
133
100
AcDbEntity
  8
sapa_elevation
100
AcDbVertex
100
AcDb2dVertex
 10
142.0
 20
2332.0
 30
0.0
  0
VERTEX
  5
135
330
133
100
AcDbEntity
  8
sapa_elevation
100
AcDbVertex
100
AcDb2dVertex
 10
142.0
 20
1174.0
 30
0.0
  0
SEQEND
  5
136
330
133
100
AcDbEntity
  8
sapa_elevation
  0
POLYLINE
  5
137
330
2
100
AcDbEntity
  8
sapa_elevation
100
AcDb2dPolyline
 66
     1
 10
0.0
 20
0.0
 30
0.0
  0
VERTEX
  5
138
330
137
100
AcDbEntity
  8
sapa_elevation
100
AcDbVertex
100
AcDb2dVertex
 10
142.0
 20
1100.0
 30
0.0
  0
VERTEX
  5
139
330
137
100
AcDbEntity
  8
sapa_elevation
100
AcDbVertex
100
AcDb2dVertex
 10
142.0
 20
377.0
 30
0.0
  0
SEQEND
  5
13A
330
137
100
AcDbEntity
  8
sapa_elevation
  0
POLYLINE
  5
13B
330
2
100
AcDbEntity
  8
sapa_elevation
100
AcDb2dPolyline
 66
     1
 10
0.0
 20
0.0
 30
0.0
  0
VERTEX
  5
13C
330
13B
100
AcDbEntity
  8
sapa_elevation
100
AcDbVertex
100
AcDb2dVertex
 10
53.0
 20
288.0
 30
0.0
  0
VERTEX
  5
13D
330
13B
100
AcDbEntity
  8
sapa_elevation
100
AcDbVertex
100
AcDb2dVertex
 10
53.0
 20
2421.0
 30
0.0
  0
SEQEND
  5
13E
330
13B
100
AcDbEntity
  8
sapa_elevation
  0
POLYLINE
  5
13F
330
2
100
AcDbEntity
  8
sapa_elevation
100
AcDb2dPolyline
 66
     1
 10
0.0
 20
0.0
 30
0.0
  0
VERTEX
  5
140
330
13F
100
AcDbEntity
  8
sapa_elevation
100
AcDbVertex
100
AcDb2dVertex
 10
45.0
 20
2429.0
 30
0.0
  0
VERTEX
  5
141
330
13F
100
AcDbEntity
  8
sapa_elevation
100
AcDbVertex
100
AcDb2dVertex
 10
1025.0
 20
2429.0
 30
0.0
  0
SEQEND
  5
142
330
13F
100
AcDbEntity
  8
sapa_elevation
  0
POLYLINE
  5
143
330
2
100
AcDbEntity
  8
sapa_elevation
100
AcDb2dPolyline
 66
     1
 10
0.0
 20
0.0
 30
0.0
  0
VERTEX
  5
144
330
143
100
AcDbEntity
  8
sapa_elevation
100
AcDbVertex
100
AcDb2dVertex
 10
1025.0
 20
2429.0
 30
0.0
  0
VERTEX
  5
145
330
143
100
AcDbEntity
  8
sapa_elevation
100
AcDbVertex
100
AcDb2dVertex
 10
1025.0
 20
294.0
 30
0.0
  0
SEQEND
  5
146
330
143
100
AcDbEntity
  8
sapa_elevation
  0
POLYLINE
  5
147
330
2
100
AcDbEntity
  8
sapa_elevation
100
AcDb2dPolyline
 66
     1
 10
0.0
 20
0.0
 30
0.0
  0
VERTEX
  5
148
330
147
100
AcDbEntity
  8
sapa_elevation
100
AcDbVertex
100
AcDb2dVertex
 10
45.0
 20
294.0
 30
0.0
  0
VERTEX
  5
149
330
147
100
AcDbEntity
  8
sapa_elevation
100
AcDbVertex
100
AcDb2dVertex
 10
45.0
 20
2429.0
 30
0.0
  0
SEQEND
  5
14A
330
147
100
AcDbEntity
  8
sapa_elevation
  0
POLYLINE
  5
14B
330
2
100
AcDbEntity
  8
sapa_elevation
100
AcDb2dPolyline
 66
     1
 10
0.0
 20
0.0
 30
0.0
  0
VERTEX
  5
14C
330
14B
100
AcDbEntity
  8
sapa_elevation
100
AcDbVertex
100
AcDb2dVertex
 10
1025.0
 20
275.0
 30
0.0
  0
VERTEX
  5
14D
330
14B
100
AcDbEntity
  8
sapa_elevation
100
AcDbVertex
100
AcDb2dVertex
 10
45.0
 20
275.0
 30
0.0
  0
SEQEND
  5
14E
330
14B
100
AcDbEntity
  8
sapa_elevation
  0
POLYLINE
  5
14F
330
2
100
AcDbEntity
  8
sapa_elevation
100
AcDb2dPolyline
 66
     1
 10
0.0
 20
0.0
 30
0.0
  0
VERTEX
  5
150
330
14F
100
AcDbEntity
  8
sapa_elevation
100
AcDbVertex
100
AcDb2dVertex
 10
1222.0
 20
1100.0
 30
0.0
  0
VERTEX
  5
151
330
14F
100
AcDbEntity
  8
sapa_elevation
100
AcDbVertex
100
AcDb2dVertex
 10
1222.0
 20
274.0
 30
0.0
  0
SEQEND
  5
152
330
14F
100
AcDbEntity
  8
sapa_elevation
  0
POLYLINE
  5
153
330
2
100
AcDbEntity
  8
sapa_elevation
100
AcDb2dPolyline
 66
     1
 10
0.0
 20
0.0
 30
0.0
  0
VERTEX
  5
154
330
153
100
AcDbEntity
  8
sapa_elevation
100
AcDbVertex
100
AcDb2dVertex
 10
1222.0
 20
1174.0
 30
0.0
  0
VERTEX
  5
155
330
153
100
AcDbEntity
  8
sapa_elevation
100
AcDbVertex
100
AcDb2dVertex
 10
1633.0
 20
1174.0
 30
0.0
  0
SEQEND
  5
156
330
153
100
AcDbEntity
  8
sapa_elevation
  0
POLYLINE
  5
157
330
2
100
AcDbEntity
  8
sapa_elevation
100
AcDb2dPolyline
 66
     1
 10
0.0
 20
0.0
 30
0.0
  0
VERTEX
  5
158
330
157
100
AcDbEntity
  8
sapa_elevation
100
AcDbVertex
100
AcDb2dVertex
 10
1633.0
 20
1100.0
 30
0.0
  0
VERTEX
  5
159
330
157
100
AcDbEntity
  8
sapa_elevation
100
AcDbVertex
100
AcDb2dVertex
 10
1222.0
 20
1100.0
 30
0.0
  0
SEQEND
  5
15A
330
157
100
AcDbEntity
  8
sapa_elevation
  0
POLYLINE
  5
15B
330
2
100
AcDbEntity
  8
sapa_elevation
100
AcDb2dPolyline
 66
     1
 10
0.0
 20
0.0
 30
0.0
  0
VERTEX
  5
15C
330
15B
100
AcDbEntity
  8
sapa_elevation
100
AcDbVertex
100
AcDb2dVertex
 10
1222.0
 20
2422.0
 30
0.0
  0
VERTEX
  5
15D
330
15B
100
AcDbEntity
  8
sapa_elevation
100
AcDbVertex
100
AcDb2dVertex
 10
1222.0
 20
1174.0
 30
0.0
  0
SEQEND
  5
15E
330
15B
100
AcDbEntity
  8
sapa_elevation
  0
POLYLINE
  5
15F
330
2
100
AcDbEntity
  8
sapa_elevation
100
AcDb2dPolyline
 66
     1
 10
0.0
 20
0.0
 30
0.0
  0
VERTEX
  5
160
330
15F
100
AcDbEntity
  8
sapa_elevation
100
AcDbVertex
100
AcDb2dVertex
 10
1222.0
 20
2496.0
 30
0.0
  0
VERTEX
  5
161
330
15F
100
AcDbEntity
  8
sapa_elevation
100
AcDbVertex
100
AcDb2dVertex
 10
1633.0
 20
2496.0
 30
0.0
  0
SEQEND
  5
162
330
15F
100
AcDbEntity
  8
sapa_elevation
  0
POLYLINE
  5
163
330
2
100
AcDbEntity
  8
sapa_elevation
100
AcDb2dPolyline
 66
     1
 10
0.0
 20
0.0
 30
0.0
  0
VERTEX
  5
164
330
163
100
AcDbEntity
  8
sapa_elevation
100
AcDbVertex
100
AcDb2dVertex
 10
1633.0
 20
2422.0
 30
0.0
  0
VERTEX
  5
165
330
163
100
AcDbEntity
  8
sapa_elevation
100
AcDbVertex
100
AcDb2dVertex
 10
1222.0
 20
2422.0
 30
0.0
  0
SEQEND
  5
166
330
163
100
AcDbEntity
  8
sapa_elevation
  0
POLYLINE
  5
167
330
2
100
AcDbEntity
  8
sapa_elevation
100
AcDb2dPolyline
 66
     1
 10
0.0
 20
0.0
 30
0.0
  0
VERTEX
  5
168
330
167
100
AcDbEntity
  8
sapa_elevation
100
AcDbVertex
100
AcDb2dVertex
 10
1222.0
 20
2974.0
 30
0.0
  0
VERTEX
  5
169
330
167
100
AcDbEntity
  8
sapa_elevation
100
AcDbVertex
100
AcDb2dVertex
 10
1222.0
 20
2496.0
 30
0.0
  0
SEQEND
  5
16A
330
167
100
AcDbEntity
  8
sapa_elevation
  0
POLYLINE
  5
16B
330
2
100
AcDbEntity
  8
sapa_elevation
100
AcDb2dPolyline
 66
     1
 10
0.0
 20
0.0
 30
0.0
  0
VERTEX
  5
16C
330
16B
100
AcDbEntity
  8
sapa_elevation
100
AcDbVertex
100
AcDb2dVertex
 10
1003.0
 20
2907.0
 30
0.0
  0
VERTEX
  5
16D
330
16B
100
AcDbEntity
  8
sapa_elevation
100
AcDbVertex
100
AcDb2dVertex
 10
67.0
 20
2907.0
 30
0.0
  0
SEQEND
  5
16E
330
16B
100
AcDbEntity
  8
sapa_elevation
  0
POLYLINE
  5
16F
330
2
100
AcDbEntity
  8
sapa_elevation
100
AcDb2dPolyline
 66
     1
 10
0.0
 20
0.0
 30
0.0
  0
VERTEX
  5
170
330
16F
100
AcDbEntity
  8
sapa_elevation
100
AcDbVertex
100
AcDb2dVertex
 10
45.0
 20
274.0
 30
0.0
  0
VERTEX
  5
171
330
16F
100
AcDbEntity
  8
sapa_elevation
100
AcDbVertex
100
AcDb2dVertex
 10
1025.0
 20
274.0
 30
0.0
  0
SEQEND
  5
172
330
16F
100
AcDbEntity
  8
sapa_elevation
  0
POLYLINE
  5
173
330
2
100
AcDbEntity
  8
sapa_elevation
100
AcDb2dPolyline
 66
     1
 10
0.0
 20
0.0
 30
0.0
  0
VERTEX
  5
174
330
173
100
AcDbEntity
  8
sapa_elevation
100
AcDbVertex
100
AcDb2dVertex
 10
1222.0
 20
341.0
 30
0.0
  0
VERTEX
  5
175
330
173
100
AcDbEntity
  8
sapa_elevation
100
AcDbVertex
100
AcDb2dVertex
 10
1633.0
 20
341.0
 30
0.0
  0
SEQEND
  5
176
330
173
100
AcDbEntity
  8
sapa_elevation
  0
POLYLINE
  5
177
330
2
100
AcDbEntity
  8
sapa_elevation
100
AcDb2dPolyline
 66
     1
 10
0.0
 20
0.0
 30
0.0
  0
VERTEX
  5
178
330
177
100
AcDbEntity
  8
sapa_elevation
100
AcDbVertex
100
AcDb2dVertex
 10
1633.0
 20
274.0
 30
0.0
  0
VERTEX
  5
179
330
177
100
AcDbEntity
  8
sapa_elevation
100
AcDbVertex
100
AcDb2dVertex
 10
1200.0
 20
274.0
 30
0.0
  0
SEQEND
  5
17A
330
177
100
AcDbEntity
  8
sapa_elevation
  0
POLYLINE
  5
17B
330
2
100
AcDbEntity
  8
sapa_elevation
100
AcDb2dPolyline
 66
     1
 10
0.0
 20
0.0
 30
0.0
  0
VERTEX
  5
17C
330
17B
100
AcDbEntity
  8
sapa_elevation
100
AcDbVertex
100
AcDb2dVertex
 10
67.0
 20
2907.0
 30
0.0
  0
VERTEX
  5
17D
330
17B
100
AcDbEntity
  8
sapa_elevation
100
AcDbVertex
100
AcDb2dVertex
 10
67.0
 20
2496.0
 30
0.0
  0
VERTEX
  5
17E
330
17B
100
AcDbEntity
  8
sapa_elevation
100
AcDbVertex
100
AcDb2dVertex
 10
67.0
 20
2496.0
 30
0.0
  0
SEQEND
  5
17F
330
17B
100
AcDbEntity
  8
sapa_elevation
  0
LINE
  5
180
330
2
100
AcDbEntity
  8
sapa_elevation
100
AcDbLine
 10
1003.0
 20
2496.0
 30
0.0
 11
1003.0
 21
2974.0
 31
0.0
  0
POLYLINE
  5
181
330
2
100
AcDbEntity
  8
sapa_elevation
100
AcDb2dPolyline
 66
     1
 10
0.0
 20
0.0
 30
0.0
  0
VERTEX
  5
182
330
181
100
AcDbEntity
  8
sapa_elevation
100
AcDbVertex
100
AcDb2dVertex
 10
67.0
 20
2496.0
 30
0.0
  0
VERTEX
  5
183
330
181
100
AcDbEntity
  8
sapa_elevation
100
AcDbVertex
100
AcDb2dVertex
 10
1003.0
 20
2496.0
 30
0.0
  0
SEQEND
  5
184
330
181
100
AcDbEntity
  8
sapa_elevation
  0
POLYLINE
  5
185
330
2
100
AcDbEntity
  8
sapa_elevation
100
AcDb2dPolyline
 66
     1
 10
0.0
 20
0.0
 30
0.0
  0
VERTEX
  5
186
330
185
100
AcDbEntity
  8
sapa_elevation
100
AcDbVertex
100
AcDb2dVertex
 10
1025.0
 20
2429.0
 30
0.0
  0
VERTEX
  5
187
330
185
100
AcDbEntity
  8
sapa_elevation
100
AcDbVertex
100
AcDb2dVertex
 10
45.0
 20
2429.0
 30
0.0
  0
SEQEND
  5
188
330
185
100
AcDbEntity
  8
sapa_elevation
  0
POLYLINE
  5
189
330
2
100
AcDbEntity
  8
sapa_elevation
100
AcDb2dPolyline
 66
     1
 10
0.0
 20
0.0
 30
0.0
  0
VERTEX
  5
18A
330
189
100
AcDbEntity
  8
sapa_elevation
100
AcDbVertex
100
AcDb2dVertex
 10
1200.0
 20
274.0
 30
0.0
  0
VERTEX
  5
18B
330
189
100
AcDbEntity
  8
sapa_elevation
100
AcDbVertex
100
AcDb2dVertex
 10
1025.0
 20
274.0
 30
0.0
  0
VERTEX
  5
18C
330
189
100
AcDbEntity
  8
sapa_elevation
100
AcDbVertex
100
AcDb2dVertex
 10
1025.0
 20
2429.0
 30
0.0
  0
SEQEND
  5
18D
330
189
100
AcDbEntity
  8
sapa_elevation
  0
POLYLINE
  5
18E
330
2
100
AcDbEntity
  8
sapa_elevation
100
AcDb2dPolyline
 66
     1
 10
0.0
 20
0.0
 30
0.0
  0
VERTEX
  5
18F
330
18E
100
AcDbEntity
  8
sapa_elevation
100
AcDbVertex
100
AcDb2dVertex
 10
1633.0
 20
2907.0
 30
0.0
  0
VERTEX
  5
190
330
18E
100
AcDbEntity
  8
sapa_elevation
100
AcDbVertex
100
AcDb2dVertex
 10
1222.0
 20
2907.0
 30
0.0
  0
SEQEND
  5
191
330
18E
100
AcDbEntity
  8
sapa_elevation
  0
POLYLINE
  5
192
330
2
100
AcDbEntity
  8
sapa_elevation
100
AcDb2dPolyline
 66
     1
 10
0.0
 20
0.0
 30
0.0
  0
VERTEX
  5
193
330
192
100
AcDbEntity
  8
sapa_elevation
100
AcDbVertex
100
AcDb2dVertex
 10
1200.0
 20
2974.0
 30
0.0
  0
VERTEX
  5
194
330
192
100
AcDbEntity
  8
sapa_elevation
100
AcDbVertex
100
AcDb2dVertex
 10
1633.0
 20
2974.0
 30
0.0
  0
SEQEND
  5
195
330
192
100
AcDbEntity
  8
sapa_elevation
  0
POLYLINE
  5
196
330
2
100
AcDbEntity
  8
sapa_elevation
100
AcDb2dPolyline
 66
     1
 10
0.0
 20
0.0
 30
0.0
  0
VERTEX
  5
197
330
196
100
AcDbEntity
  8
sapa_elevation
100
AcDbVertex
100
AcDb2dVertex
 10
45.0
 20
2429.0
 30
0.0
  0
VERTEX
  5
198
330
196
100
AcDbEntity
  8
sapa_elevation
100
AcDbVertex
100
AcDb2dVertex
 10
45.0
 20
274.0
 30
0.0
  0
VERTEX
  5
199
330
196
100
AcDbEntity
  8
sapa_elevation
100
AcDbVertex
100
AcDb2dVertex
 10
0.0
 20
274.0
 30
0.0
  0
VERTEX
  5
19A
330
196
100
AcDbEntity
  8
sapa_elevation
100
AcDbVertex
100
AcDb2dVertex
 10
0.0
 20
2974.0
 30
0.0
  0
VERTEX
  5
19B
330
196
100
AcDbEntity
  8
sapa_elevation
100
AcDbVertex
100
AcDb2dVertex
 10
45.0
 20
2974.0
 30
0.0
  0
SEQEND
  5
19C
330
196
100
AcDbEntity
  8
sapa_elevation
  0
POLYLINE
  5
19D
330
2
100
AcDbEntity
  8
sapa_elevation
100
AcDb2dPolyline
 66
     1
 10
0.0
 20
0.0
 30
0.0
  0
VERTEX
  5
19E
330
19D
100
AcDbEntity
  8
sapa_elevation
100
AcDbVertex
100
AcDb2dVertex
 10
1633.0
 20
341.0
 30
0.0
  0
VERTEX
  5
19F
330
19D
100
AcDbEntity
  8
sapa_elevation
100
AcDbVertex
100
AcDb2dVertex
 10
1633.0
 20
1100.0
 30
0.0
  0
SEQEND
  5
1A0
330
19D
100
AcDbEntity
  8
sapa_elevation
  0
POLYLINE
  5
1A1
330
2
100
AcDbEntity
  8
sapa_elevation
100
AcDb2dPolyline
 66
     1
 10
0.0
 20
0.0
 30
0.0
  0
VERTEX
  5
1A2
330
1A1
100
AcDbEntity
  8
sapa_elevation
100
AcDbVertex
100
AcDb2dVertex
 10
1633.0
 20
1174.0
 30
0.0
  0
VERTEX
  5
1A3
330
1A1
100
AcDbEntity
  8
sapa_elevation
100
AcDbVertex
100
AcDb2dVertex
 10
1633.0
 20
2422.0
 30
0.0
  0
SEQEND
  5
1A4
330
1A1
100
AcDbEntity
  8
sapa_elevation
  0
POLYLINE
  5
1A5
330
2
100
AcDbEntity
  8
sapa_elevation
100
AcDb2dPolyline
 66
     1
 10
0.0
 20
0.0
 30
0.0
  0
VERTEX
  5
1A6
330
1A5
100
AcDbEntity
  8
sapa_elevation
100
AcDbVertex
100
AcDb2dVertex
 10
1633.0
 20
2496.0
 30
0.0
  0
VERTEX
  5
1A7
330
1A5
100
AcDbEntity
  8
sapa_elevation
100
AcDbVertex
100
AcDb2dVertex
 10
1633.0
 20
2907.0
 30
0.0
  0
SEQEND
  5
1A8
330
1A5
100
AcDbEntity
  8
sapa_elevation
  0
POLYLINE
  5
1A9
330
2
100
AcDbEntity
  8
sapa_elevation
100
AcDb2dPolyline
 66
     1
 10
0.0
 20
0.0
 30
0.0
  0
VERTEX
  5
1AA
330
1A9
100
AcDbEntity
  8
sapa_elevation
100
AcDbVertex
100
AcDb2dVertex
 10
1633.0
 20
2974.0
 30
0.0
  0
VERTEX
  5
1AB
330
1A9
100
AcDbEntity
  8
sapa_elevation
100
AcDbVertex
100
AcDb2dVertex
 10
1700.0
 20
2974.0
 30
0.0
  0
VERTEX
  5
1AC
330
1A9
100
AcDbEntity
  8
sapa_elevation
100
AcDbVertex
100
AcDb2dVertex
 10
1700.0
 20
274.0
 30
0.0
  0
VERTEX
  5
1AD
330
1A9
100
AcDbEntity
  8
sapa_elevation
100
AcDbVertex
100
AcDb2dVertex
 10
1633.0
 20
274.0
 30
0.0
  0
SEQEND
  5
1AE
330
1A9
100
AcDbEntity
  8
sapa_elevation
  0
ENDSEC
  0
SECTION
  2
OBJECTS
  0
DICTIONARY
  5
9
330
0
100
AcDbDictionary
281
     1
  3
ACAD_COLOR
350
34
  3
ACAD_GROUP
350
2F
  3
ACAD_LAYOUT
350
F
  3
ACAD_MATERIAL
350
B
  3
ACAD_MLEADERSTYLE
350
37
  3
ACAD_MLINESTYLE
350
30
  3
ACAD_PLOTSETTINGS
350
31
  3
ACAD_PLOTSTYLENAME
350
8
  3
ACAD_SCALELIST
350
35
  3
ACAD_TABLESTYLE
350
36
  3
ACAD_VISUALSTYLE
350
25
  3
ACDB_RECOMPOSE_DATA
350
1BB
  3
AcDbVariableDictionary
350
1AF
  3
AcDsDecomposeData
350
1C1
  0
DICTIONARY
  5
18
330
17
100
AcDbDictionary
280
     1
281
     1
  3
ACAD_LAYERSTATES
360
19
  0
DICTIONARY
  5
5
330
4
100
AcDbDictionary
280
     1
281
     1
  3
ADSK_XREC_LAYER_RECONCILED
360
6
  0
DICTIONARY
  5
39
330
38
100
AcDbDictionary
280
     1
281
     1
  3
ADSK_XREC_LAYER_RECONCILED
360
3A
  0
DICTIONARY
  5
34
102
{ACAD_REACTORS
330
9
102
}
330
9
100
AcDbDictionary
281
     1
  0
DICTIONARY
  5
2F
102
{ACAD_REACTORS
330
9
102
}
330
9
100
AcDbDictionary
281
     1
  0
DICTIONARY
  5
F
102
{ACAD_REACTORS
330
9
102
}
330
9
100
AcDbDictionary
281
     1
  3
Model
350
E
  3
Web
350
15
  0
DICTIONARY
  5
B
102
{ACAD_REACTORS
330
9
102
}
330
9
100
AcDbDictionary
281
     1
  3
ByBlock
350
33
  3
ByLayer
350
32
  3
Global
350
A
  0
DICTIONARY
  5
37
102
{ACAD_REACTORS
330
9
102
}
330
9
100
AcDbDictionary
281
     1
  0
DICTIONARY
  5
30
102
{ACAD_REACTORS
330
9
102
}
330
9
100
AcDbDictionary
281
     1
  3
STANDARD
350
3B
  0
DICTIONARY
  5
31
102
{ACAD_REACTORS
330
9
102
}
330
9
100
AcDbDictionary
281
     1
  0
ACDBDICTIONARYWDFLT
  5
8
102
{ACAD_REACTORS
330
9
102
}
330
9
100
AcDbDictionary
281
     1
  3
Normal
350
7
100
AcDbDictionaryWithDefault
340
7
  0
DICTIONARY
  5
35
102
{ACAD_REACTORS
330
9
102
}
330
9
100
AcDbDictionary
281
     1
  3
*A1
350
40
  3
*A10
350
41
  3
*A11
350
42
  3
*A12
350
43
  3
*A13
350
44
  3
*A14
350
45
  3
*A15
350
46
  3
*A16
350
47
  3
*A2
350
48
  3
*A3
350
49
  3
*A4
350
4A
  3
*A5
350
4B
  3
*A6
350
4C
  3
*A7
350
4D
  3
*A8
350
4E
  3
*A9
350
4F
  3
A0
350
50
  3
A1
350
51
  3
A2
350
52
  3
A3
350
53
  3
A4
350
54
  3
A5
350
55
  3
A6
350
56
  3
A7
350
57
  3
A8
350
58
  3
A9
350
59
  3
B0
350
5A
  3
B1
350
5B
  3
B2
350
5C
  3
B3
350
5D
  3
B4
350
5E
  3
B5
350
5F
  3
B6
350
60
  3
B7
350
61
  3
B8
350
62
  0
DICTIONARY
  5
36
102
{ACAD_REACTORS
330
9
102
}
330
9
100
AcDbDictionary
281
     1
  3
Standard
350
3C
  0
DICTIONARY
  5
25
102
{ACAD_REACTORS
330
9
102
}
330
9
100
AcDbDictionary
281
     1
  3
2dWireframe
350
24
  3
Realistic
350
3E
  3
Wireframe
350
3F
  0
XRECORD
  5
1BB
102
{ACAD_REACTORS
330
9
102
}
330
9
100
AcDbXrecord
280
     1
 90
        1
330
3C
  0
DICTIONARY
  5
1AF
102
{ACAD_REACTORS
330
9
102
}
330
9
100
AcDbDictionary
281
     1
  3
CANNOSCALE
350
1B6
  3
CMLEADERSTYLE
350
1B1
  3
CTABLESTYLE
350
1B0
  3
CVIEWDETAILSTYLE
350
1B2
  3
CVIEWSECTIONSTYLE
350
1B3
  3
LAYEREVAL
350
1B8
  3
LAYERNOTIFY
350
1B9
  3
LIGHTINGUNITS
350
1B7
  3
MSLTSCALE
350
1B5
  3
UPDATETHUMBNAIL
350
1B4
  0
DICTIONARY
  5
1C1
102
{ACAD_REACTORS
330
9
102
}
330
9
100
AcDbDictionary
281
     1
  3
AcDsRecords
350
1C3
  3
AcDsSchemas
350
1C2
1001
ACAD
1070
     2
  0
DICTIONARY
  5
19
102
{ACAD_REACTORS
330
18
102
}
330
18
100
AcDbDictionary
281
     1
  0
XRECORD
  5
6
102
{ACAD_REACTORS
330
5
102
}
330
5
100
AcDbXrecord
280
     1
290
     1
  0
XRECORD
  5
3A
102
{ACAD_REACTORS
330
39
102
}
330
39
100
AcDbXrecord
280
     1
290
     1
  0
LAYOUT
  5
E
102
{ACAD_XDICTIONARY
360
10
102
}
102
{ACAD_REACTORS
330
F
102
}
330
F
100
AcDbPlotSettings
  1

  2
DWF6 ePlot.pc3
  4
ISO_full_bleed_A4_(210.00_x_297.00_MM)
  6

 40
6.0
 41
5.0
 42
7.0
 43
5.0
 44
210.0
 45
297.0
 46
0.0
 47
0.0
 48
0.0
 49
0.0
140
0.0
141
0.0
142
1.0
143
1.929958503202149
 70
 11952
 72
     1
 73
     1
 74
     0
  7
sapa1.ctb
 75
     0
147
0.5181458556444709
 76
     0
 77
     2
 78
   300
148
-209.4861090460728
149
-189.6933865316904
100
AcDbLayout
  1
Model
 70
     1
 71
     0
 10
0.0
 20
0.0
 11
12.0
 21
9.0
 12
0.0
 22
0.0
 32
0.0
 14
0.0
 24
0.0
 34
0.0
 15
0.0
 25
0.0
 35
0.0
146
0.0
 13
0.0
 23
0.0
 33
0.0
 16
1.0
 26
0.0
 36
0.0
 17
0.0
 27
1.0
 37
0.0
 76
     0
330
2
331
23
1001
ACAD_PSEXT
1000
DWF6 ePlot.pc3
1000
DWF6 ePlot
1000
File
1000

1070
     0
  0
LAYOUT
  5
15
102
{ACAD_XDICTIONARY
360
16
102
}
102
{ACAD_REACTORS
330
F
102
}
330
F
100
AcDbPlotSettings
  1

  2
frontp04.pc3
  4
A4
  6

 40
4.233333110809326
 41
4.233341693878173
 42
4.233322143554687
 43
4.23333740234375
 44
209.9733276367187
 45
296.9259948730469
 46
12.0
 47
0.0
 48
0.0
 49
0.0
140
0.0
141
0.0
142
1.0
143
1.0
 70
   688
 72
     1
 73
     0
 74
     1
  7
sapa2.ctb
 75
    16
147
1.0
 76
     1
 77
     2
 78
   300
148
-1.826818110860415
149
0.0203279535528509
100
AcDbLayout
  1
Web
 70
     1
 71
     1
 10
-14.40651499994891
 20
-4.253669647431024
 11
195.5668126367698
 21
292.6723252256159
 12
0.0
 22
0.0
 32
0.0
 14
5.869999703752308
 24
-0.0000001723469722
 34
0.0
 15
185.8683605469043
 25
282.999999827653
 35
0.0
146
0.0
 13
0.0
 23
0.0
 33
0.0
 16
1.0
 26
0.0
 36
0.0
 17
0.0
 27
1.0
 37
0.0
 76
     0
330
12
1001
ACAD_PSEXT
1000
frontp04.pc3
1000
HP LaserJet 4200 PCL6
1000
Sapa Building System
1000
HP Laserjet 4200n, pcl 6
1070
     0
  0
MATERIAL
  5
33
102
{ACAD_REACTORS
330
B
102
}
330
B
100
AcDbMaterial
  1
ByBlock
 73
     1
 78
     1
172
     1
176
     1
270
     1
274
     1
 94
       63
  0
MATERIAL
  5
32
102
{ACAD_REACTORS
330
B
102
}
330
B
100
AcDbMaterial
  1
ByLayer
 73
     1
 78
     1
172
     1
176
     1
270
     1
274
     1
 94
       63
  0
MATERIAL
  5
A
102
{ACAD_REACTORS
330
B
102
}
330
B
100
AcDbMaterial
  1
Global
 73
     1
 78
     1
172
     1
176
     1
270
     1
274
     1
 94
       63
  0
MLINESTYLE
  5
3B
102
{ACAD_REACTORS
330
30
102
}
330
30
100
AcDbMlineStyle
  2
STANDARD
 70
     0
  3

 62
   256
 51
90.0
 52
90.0
 71
     2
 49
0.5
 62
   256
  6
BYLAYER
 49
-0.5
 62
   256
  6
BYLAYER
  0
ACDBPLACEHOLDER
  5
7
102
{ACAD_REACTORS
330
8
102
}
330
8
  0
SCALE
  5
40
102
{ACAD_REACTORS
330
35
102
}
330
35
100
AcDbScale
 70
     0
300
1/128" = 1'-0"_XREF
140
0.0078125
141
12.0
290
     0
  0
SCALE
  5
41
102
{ACAD_REACTORS
330
35
102
}
330
35
100
AcDbScale
 70
     0
300
1/2" = 1'-0"_XREF
140
0.5
141
12.0
290
     0
  0
SCALE
  5
42
102
{ACAD_REACTORS
330
35
102
}
330
35
100
AcDbScale
 70
     0
300
3/4" = 1'-0"_XREF
140
0.75
141
12.0
290
     0
  0
SCALE
  5
43
102
{ACAD_REACTORS
330
35
102
}
330
35
100
AcDbScale
 70
     0
300
1" = 1'-0"_XREF
140
1.0
141
12.0
290
     0
  0
SCALE
  5
44
102
{ACAD_REACTORS
330
35
102
}
330
35
100
AcDbScale
 70
     0
300
1-1/2" = 1'-0"_XREF
140
1.5
141
12.0
290
     0
  0
SCALE
  5
45
102
{ACAD_REACTORS
330
35
102
}
330
35
100
AcDbScale
 70
     0
300
3" = 1'-0"_XREF
140
3.0
141
12.0
290
     0
  0
SCALE
  5
46
102
{ACAD_REACTORS
330
35
102
}
330
35
100
AcDbScale
 70
     0
300
6" = 1'-0"_XREF
140
6.0
141
12.0
290
     0
  0
SCALE
  5
47
102
{ACAD_REACTORS
330
35
102
}
330
35
100
AcDbScale
 70
     0
300
1'-0" = 1'-0"_XREF
140
12.0
141
12.0
290
     0
  0
SCALE
  5
48
102
{ACAD_REACTORS
330
35
102
}
330
35
100
AcDbScale
 70
     0
300
1/64" = 1'-0"_XREF
140
0.015625
141
12.0
290
     0
  0
SCALE
  5
49
102
{ACAD_REACTORS
330
35
102
}
330
35
100
AcDbScale
 70
     0
300
1/32" = 1'-0"_XREF
140
0.03125
141
12.0
290
     0
  0
SCALE
  5
4A
102
{ACAD_REACTORS
330
35
102
}
330
35
100
AcDbScale
 70
     0
300
1/16" = 1'-0"_XREF
140
0.0625
141
12.0
290
     0
  0
SCALE
  5
4B
102
{ACAD_REACTORS
330
35
102
}
330
35
100
AcDbScale
 70
     0
300
3/32" = 1'-0"_XREF
140
0.09375
141
12.0
290
     0
  0
SCALE
  5
4C
102
{ACAD_REACTORS
330
35
102
}
330
35
100
AcDbScale
 70
     0
300
1/8" = 1'-0"_XREF
140
0.125
141
12.0
290
     0
  0
SCALE
  5
4D
102
{ACAD_REACTORS
330
35
102
}
330
35
100
AcDbScale
 70
     0
300
3/16" = 1'-0"_XREF
140
0.1875
141
12.0
290
     0
  0
SCALE
  5
4E
102
{ACAD_REACTORS
330
35
102
}
330
35
100
AcDbScale
 70
     0
300
1/4" = 1'-0"_XREF
140
0.25
141
12.0
290
     0
  0
SCALE
  5
4F
102
{ACAD_REACTORS
330
35
102
}
330
35
100
AcDbScale
 70
     0
300
3/8" = 1'-0"_XREF
140
0.375
141
12.0
290
     0
  0
SCALE
  5
50
102
{ACAD_REACTORS
330
35
102
}
330
35
100
AcDbScale
 70
     0
300
1:1
140
1.0
141
1.0
290
     1
  0
SCALE
  5
51
102
{ACAD_REACTORS
330
35
102
}
330
35
100
AcDbScale
 70
     0
300
1:2.5
140
1.0
141
2.5
290
     0
  0
SCALE
  5
52
102
{ACAD_REACTORS
330
35
102
}
330
35
100
AcDbScale
 70
     0
300
1:2
140
1.0
141
2.0
290
     0
  0
SCALE
  5
53
102
{ACAD_REACTORS
330
35
102
}
330
35
100
AcDbScale
 70
     0
300
1:4
140
1.0
141
4.0
290
     0
  0
SCALE
  5
54
102
{ACAD_REACTORS
330
35
102
}
330
35
100
AcDbScale
 70
     0
300
1:5
140
1.0
141
5.0
290
     0
  0
SCALE
  5
55
102
{ACAD_REACTORS
330
35
102
}
330
35
100
AcDbScale
 70
     0
300
1:8
140
1.0
141
8.0
290
     0
  0
SCALE
  5
56
102
{ACAD_REACTORS
330
35
102
}
330
35
100
AcDbScale
 70
     0
300
1:10
140
1.0
141
10.0
290
     0
  0
SCALE
  5
57
102
{ACAD_REACTORS
330
35
102
}
330
35
100
AcDbScale
 70
     0
300
1:16
140
1.0
141
16.0
290
     0
  0
SCALE
  5
58
102
{ACAD_REACTORS
330
35
102
}
330
35
100
AcDbScale
 70
     0
300
1:20
140
1.0
141
20.0
290
     0
  0
SCALE
  5
59
102
{ACAD_REACTORS
330
35
102
}
330
35
100
AcDbScale
 70
     0
300
1:30
140
1.0
141
30.0
290
     0
  0
SCALE
  5
5A
102
{ACAD_REACTORS
330
35
102
}
330
35
100
AcDbScale
 70
     0
300
1:40
140
1.0
141
40.0
290
     0
  0
SCALE
  5
5B
102
{ACAD_REACTORS
330
35
102
}
330
35
100
AcDbScale
 70
     0
300
1:50
140
1.0
141
50.0
290
     0
  0
SCALE
  5
5C
102
{ACAD_REACTORS
330
35
102
}
330
35
100
AcDbScale
 70
     0
300
1:100
140
1.0
141
100.0
290
     0
  0
SCALE
  5
5D
102
{ACAD_REACTORS
330
35
102
}
330
35
100
AcDbScale
 70
     0
300
2:1
140
2.0
141
1.0
290
     0
  0
SCALE
  5
5E
102
{ACAD_REACTORS
330
35
102
}
330
35
100
AcDbScale
 70
     0
300
4:1
140
4.0
141
1.0
290
     0
  0
SCALE
  5
5F
102
{ACAD_REACTORS
330
35
102
}
330
35
100
AcDbScale
 70
     0
300
5:1
140
5.0
141
1.0
290
     0
  0
SCALE
  5
60
102
{ACAD_REACTORS
330
35
102
}
330
35
100
AcDbScale
 70
     0
300
8:1
140
8.0
141
1.0
290
     0
  0
SCALE
  5
61
102
{ACAD_REACTORS
330
35
102
}
330
35
100
AcDbScale
 70
     0
300
10:1
140
10.0
141
1.0
290
     0
  0
SCALE
  5
62
102
{ACAD_REACTORS
330
35
102
}
330
35
100
AcDbScale
 70
     0
300
100:1
140
100.0
141
1.0
290
     0
  0
TABLESTYLE
  5
3C
102
{ACAD_XDICTIONARY
360
3D
102
}
102
{ACAD_REACTORS
330
36
102
}
330
36
100
AcDbTableStyle
  3
Standard
 70
     0
 71
     0
 40
1.5
 41
1.5
280
     0
281
     0
  7
STANDARD
140
4.5
170
     2
 62
     0
 63
     7
283
     0
 90
        4
 91
        0
  1

274
    -2
284
     1
 64
     0
275
    -2
285
     1
 65
     0
276
    -2
286
     1
 66
     0
277
    -2
287
     1
 67
     0
278
    -2
288
     1
 68
     0
279
    -2
289
     1
 69
     0
  7
STANDARD
140
6.0
170
     5
 62
     0
 63
     7
283
     0
 90
        4
 91
        0
  1

274
    -2
284
     1
 64
     0
275
    -2
285
     1
 65
     0
276
    -2
286
     1
 66
     0
277
    -2
287
     1
 67
     0
278
    -2
288
     1
 68
     0
279
    -2
289
     1
 69
     0
  7
STANDARD
140
4.5
170
     5
 62
     0
 63
     7
283
     0
 90
        4
 91
        0
  1

274
    -2
284
     1
 64
     0
275
    -2
285
     1
 65
     0
276
    -2
286
     1
 66
     0
277
    -2
287
     1
 67
     0
278
    -2
288
     1
 68
     0
279
    -2
289
     1
 69
     0
  0
VISUALSTYLE
  5
24
102
{ACAD_XDICTIONARY
360
1C4
102
}
102
{ACAD_REACTORS
330
25
102
}
330
25
100
AcDbVisualStyle
  2
2dWireframe
 70
     4
 71
     0
 72
     2
 73
     0
 90
        0
 40
-0.6
 41
-30.0
 62
     5
 63
     7
421
 16777215
 74
     1
 91
        4
 64
     7
 65
   257
 75
     1
175
     1
 42
1.0
 92
        0
 66
   257
 43
1.0
 76
     1
 77
     6
 78
     2
 67
     7
 79
     5
170
     0
171
     0
290
     0
174
     0
 93
        1
 44
0.0
173
     0
291
     0
 45
0.0
1001
ACAD
1000
AcDbSavedByObjectVersion
1070
     0
  0
VISUALSTYLE
  5
3E
102
{ACAD_XDICTIONARY
360
1C6
102
}
102
{ACAD_REACTORS
330
25
102
}
330
25
100
AcDbVisualStyle
  2
Realistic
 70
     8
 71
     2
 72
     2
 73
     0
 90
        0
 40
-0.6
 41
-30.0
 62
     5
 63
     7
421
 16777215
 74
     1
 91
        0
 64
     7
 65
   257
 75
     1
175
     1
 42
1.0
 92
        8
 66
     8
424
  7895160
 43
1.0
 76
     1
 77
     6
 78
     2
 67
     7
 79
     5
170
     0
171
     0
290
     0
174
     0
 93
       13
 44
0.0
173
     0
291
     0
 45
0.0
1001
ACAD
1000
AcDbSavedByObjectVersion
1070
     0
  0
VISUALSTYLE
  5
3F
102
{ACAD_XDICTIONARY
360
1C8
102
}
102
{ACAD_REACTORS
330
25
102
}
330
25
100
AcDbVisualStyle
  2
Wireframe
 70
     5
 71
     0
 72
     2
 73
     0
 90
        0
 40
-0.6
 41
-30.0
 62
     5
 63
     7
421
 16777215
 74
     1
 91
        4
 64
     7
 65
   257
 75
     1
175
     1
 42
1.0
 92
        0
 66
   257
 43
1.0
 76
     1
 77
     6
 78
     2
 67
     7
 79
     3
170
     0
171
     0
290
     0
174
     0
 93
        1
 44
0.0
173
     0
291
     0
 45
0.0
1001
ACAD
1000
AcDbSavedByObjectVersion
1070
     0
  0
DICTIONARYVAR
  5
1B6
102
{ACAD_REACTORS
330
1AF
102
}
330
1AF
100
DictionaryVariables
280
     0
  1
1:1
  0
DICTIONARYVAR
  5
1B1
102
{ACAD_REACTORS
330
1AF
102
}
330
1AF
100
DictionaryVariables
280
     0
  1
STANDARD
  0
DICTIONARYVAR
  5
1B0
102
{ACAD_REACTORS
330
1AF
102
}
330
1AF
100
DictionaryVariables
280
     0
  1
STANDARD
  0
DICTIONARYVAR
  5
1B2
102
{ACAD_REACTORS
330
1AF
102
}
330
1AF
100
DictionaryVariables
280
     0
  1

  0
DICTIONARYVAR
  5
1B3
102
{ACAD_REACTORS
330
1AF
102
}
330
1AF
100
DictionaryVariables
280
     0
  1

  0
DICTIONARYVAR
  5
1B8
102
{ACAD_REACTORS
330
1AF
102
}
330
1AF
100
DictionaryVariables
280
     0
  1
1
  0
DICTIONARYVAR
  5
1B9
102
{ACAD_REACTORS
330
1AF
102
}
330
1AF
100
DictionaryVariables
280
     0
  1
15
  0
DICTIONARYVAR
  5
1B7
102
{ACAD_REACTORS
330
1AF
102
}
330
1AF
100
DictionaryVariables
280
     0
  1
0
  0
DICTIONARYVAR
  5
1B5
102
{ACAD_REACTORS
330
1AF
102
}
330
1AF
100
DictionaryVariables
280
     0
  1
0
  0
DICTIONARYVAR
  5
1B4
102
{ACAD_REACTORS
330
1AF
102
}
330
1AF
100
DictionaryVariables
280
     0
  1
31
  0
DICTIONARY
  5
1C3
102
{ACAD_REACTORS
330
1C1
102
}
330
1C1
100
AcDbDictionary
281
     1
  0
DICTIONARY
  5
1C2
102
{ACAD_REACTORS
330
1C1
102
}
330
1C1
100
AcDbDictionary
281
     1
  3
2119678624
350
1BC
  3
2119678632
350
1BD
  3
2119678640
350
1BE
  3
2119678648
350
1BF
  3
2119678656
350
1C0
  0
DICTIONARY
  5
10
330
E
100
AcDbDictionary
280
     1
281
     1
  0
DICTIONARY
  5
16
330
15
100
AcDbDictionary
280
     1
281
     1
  0
DICTIONARY
  5
3D
330
3C
100
AcDbDictionary
280
     1
281
     1
  3
ACAD_ROUNDTRIP_2008_TABLESTYLE_CELLSTYLEMAP
360
1BA
  0
DICTIONARY
  5
1C4
330
24
100
AcDbDictionary
280
     1
281
     1
  3
ACAD_XREC_ROUNDTRIP
360
1C5
  0
DICTIONARY
  5
1C6
330
3E
100
AcDbDictionary
280
     1
281
     1
  3
ACAD_XREC_ROUNDTRIP
360
1C7
  0
DICTIONARY
  5
1C8
330
3F
100
AcDbDictionary
280
     1
281
     1
  3
ACAD_XREC_ROUNDTRIP
360
1C9
  0
XRECORD
  5
1BC
102
{ACAD_REACTORS
330
1C2
102
}
330
1C2
100
AcDbXrecord
280
     1
  1
AcDb_Thumbnail_Schema
102
{ATTRRECORD
341
1BD
  2
AcDbDs::TreatedAsObjectData
280
     1
291
     1
102
ATTRRECORD}
102
{ATTRRECORD
341
1BE
  2
AcDbDs::Legacy
280
     1
291
     1
102
ATTRRECORD}
  2
AcDbDs::ID
280
    10
 91
        8
102
{ATTRRECORD
341
1BF
  2
AcDs:Indexable
280
     1
291
     1
102
ATTRRECORD}
102
{ATTRRECORD
341
1C0
  2
AcDbDs::HandleAttribute
280
     7
282
     1
102
ATTRRECORD}
  2
Thumbnail_Data
280
    15
 91
        0
  0
XRECORD
  5
1BD
102
{ACAD_REACTORS
330
1C2
102
}
330
1C2
100
AcDbXrecord
280
     1
  1
AcDbDs::TreatedAsObjectDataSchema
  2
AcDbDs::TreatedAsObjectData
280
     1
 91
        0
  0
XRECORD
  5
1BE
102
{ACAD_REACTORS
330
1C2
102
}
330
1C2
100
AcDbXrecord
280
     1
  1
AcDbDs::LegacySchema
  2
AcDbDs::Legacy
280
     1
 91
        0
  0
XRECORD
  5
1BF
102
{ACAD_REACTORS
330
1C2
102
}
330
1C2
100
AcDbXrecord
280
     1
  1
AcDbDs::IndexedPropertySchema
  2
AcDs:Indexable
280
     1
 91
        0
  0
XRECORD
  5
1C0
102
{ACAD_REACTORS
330
1C2
102
}
330
1C2
100
AcDbXrecord
280
     1
  1
AcDbDs::HandleAttributeSchema
  2
AcDbDs::HandleAttribute
280
     7
 91
        1
284
     1
  0
CELLSTYLEMAP
  5
1BA
102
{ACAD_REACTORS
330
3D
102
}
330
3D
100
AcDbCellStyleMap
 90
        3
300
CELLSTYLE
  1
TABLEFORMAT_BEGIN
 90
        5
170
     1
 91
        0
 92
    32768
 62
   257
 93
        1
300
CONTENTFORMAT
  1
CONTENTFORMAT_BEGIN
 90
        0
 91
        0
 92
        4
 93
        0
300

 40
0.0
140
1.0
 94
        5
 62
     0
340
1B
144
6.0
309
CONTENTFORMAT_END
171
     1
301
MARGIN
  1
CELLMARGIN_BEGIN
 40
1.5
 40
1.5
 40
1.5
 40
1.5
 40
0.18
 40
0.18
309
CELLMARGIN_END
 94
        6
 95
        1
302
GRIDFORMAT
  1
GRIDFORMAT_BEGIN
 90
        0
 91
        1
 62
     0
 92
       -2
340
0
 93
        0
 40
0.045
309
GRIDFORMAT_END
 95
        2
302
GRIDFORMAT
  1
GRIDFORMAT_BEGIN
 90
        0
 91
        1
 62
     0
 92
       -2
340
0
 93
        0
 40
0.045
309
GRIDFORMAT_END
 95
        4
302
GRIDFORMAT
  1
GRIDFORMAT_BEGIN
 90
        0
 91
        1
 62
     0
 92
       -2
340
0
 93
        0
 40
0.045
309
GRIDFORMAT_END
 95
        8
302
GRIDFORMAT
  1
GRIDFORMAT_BEGIN
 90
        0
 91
        1
 62
     0
 92
       -2
340
0
 93
        0
 40
0.045
309
GRIDFORMAT_END
 95
       16
302
GRIDFORMAT
  1
GRIDFORMAT_BEGIN
 90
        0
 91
        1
 62
     0
 92
       -2
340
0
 93
        0
 40
0.045
309
GRIDFORMAT_END
 95
       32
302
GRIDFORMAT
  1
GRIDFORMAT_BEGIN
 90
        0
 91
        1
 62
     0
 92
       -2
340
0
 93
        0
 40
0.045
309
GRIDFORMAT_END
309
TABLEFORMAT_END
  1
CELLSTYLE_BEGIN
 90
        1
 91
        1
300
_TITLE
309
CELLSTYLE_END
300
CELLSTYLE
  1
TABLEFORMAT_BEGIN
 90
        5
170
     1
 91
        0
 92
        0
 62
   257
 93
        1
300
CONTENTFORMAT
  1
CONTENTFORMAT_BEGIN
 90
        0
 91
        0
 92
        4
 93
        0
300

 40
0.0
140
1.0
 94
        5
 62
     0
340
1B
144
4.5
309
CONTENTFORMAT_END
171
     1
301
MARGIN
  1
CELLMARGIN_BEGIN
 40
1.5
 40
1.5
 40
1.5
 40
1.5
 40
0.18
 40
0.18
309
CELLMARGIN_END
 94
        6
 95
        1
302
GRIDFORMAT
  1
GRIDFORMAT_BEGIN
 90
        0
 91
        1
 62
     0
 92
       -2
340
0
 93
        0
 40
0.045
309
GRIDFORMAT_END
 95
        2
302
GRIDFORMAT
  1
GRIDFORMAT_BEGIN
 90
        0
 91
        1
 62
     0
 92
       -2
340
0
 93
        0
 40
0.045
309
GRIDFORMAT_END
 95
        4
302
GRIDFORMAT
  1
GRIDFORMAT_BEGIN
 90
        0
 91
        1
 62
     0
 92
       -2
340
0
 93
        0
 40
0.045
309
GRIDFORMAT_END
 95
        8
302
GRIDFORMAT
  1
GRIDFORMAT_BEGIN
 90
        0
 91
        1
 62
     0
 92
       -2
340
0
 93
        0
 40
0.045
309
GRIDFORMAT_END
 95
       16
302
GRIDFORMAT
  1
GRIDFORMAT_BEGIN
 90
        0
 91
        1
 62
     0
 92
       -2
340
0
 93
        0
 40
0.045
309
GRIDFORMAT_END
 95
       32
302
GRIDFORMAT
  1
GRIDFORMAT_BEGIN
 90
        0
 91
        1
 62
     0
 92
       -2
340
0
 93
        0
 40
0.045
309
GRIDFORMAT_END
309
TABLEFORMAT_END
  1
CELLSTYLE_BEGIN
 90
        2
 91
        1
300
_HEADER
309
CELLSTYLE_END
300
CELLSTYLE
  1
TABLEFORMAT_BEGIN
 90
        5
170
     1
 91
        0
 92
        0
 62
   257
 93
        1
300
CONTENTFORMAT
  1
CONTENTFORMAT_BEGIN
 90
        0
 91
        0
 92
        4
 93
        0
300

 40
0.0
140
1.0
 94
        2
 62
     0
340
1B
144
4.5
309
CONTENTFORMAT_END
171
     1
301
MARGIN
  1
CELLMARGIN_BEGIN
 40
1.5
 40
1.5
 40
1.5
 40
1.5
 40
0.18
 40
0.18
309
CELLMARGIN_END
 94
        6
 95
        1
302
GRIDFORMAT
  1
GRIDFORMAT_BEGIN
 90
        0
 91
        1
 62
     0
 92
       -2
340
0
 93
        0
 40
0.045
309
GRIDFORMAT_END
 95
        2
302
GRIDFORMAT
  1
GRIDFORMAT_BEGIN
 90
        0
 91
        1
 62
     0
 92
       -2
340
0
 93
        0
 40
0.045
309
GRIDFORMAT_END
 95
        4
302
GRIDFORMAT
  1
GRIDFORMAT_BEGIN
 90
        0
 91
        1
 62
     0
 92
       -2
340
0
 93
        0
 40
0.045
309
GRIDFORMAT_END
 95
        8
302
GRIDFORMAT
  1
GRIDFORMAT_BEGIN
 90
        0
 91
        1
 62
     0
 92
       -2
340
0
 93
        0
 40
0.045
309
GRIDFORMAT_END
 95
       16
302
GRIDFORMAT
  1
GRIDFORMAT_BEGIN
 90
        0
 91
        1
 62
     0
 92
       -2
340
0
 93
        0
 40
0.045
309
GRIDFORMAT_END
 95
       32
302
GRIDFORMAT
  1
GRIDFORMAT_BEGIN
 90
        0
 91
        1
 62
     0
 92
       -2
340
0
 93
        0
 40
0.045
309
GRIDFORMAT_END
309
TABLEFORMAT_END
  1
CELLSTYLE_BEGIN
 90
        3
 91
        2
300
_DATA
309
CELLSTYLE_END
  0
XRECORD
  5
1C5
102
{ACAD_REACTORS
330
1C4
102
}
330
1C4
100
AcDbXrecord
280
     1
102
RTVSPost2010Prop28
280
     1
102
RTVSPost2010PropOp28
 70
     1
102
RTVSPost2010Prop29
280
     1
102
RTVSPost2010PropOp29
 70
     1
102
RTVSPost2010Prop30
280
     0
102
RTVSPost2010PropOp30
 70
     1
102
RTVSPost2010Prop31
280
     0
102
RTVSPost2010PropOp31
 70
     1
102
RTVSPost2010Prop32
280
     0
102
RTVSPost2010PropOp32
 70
     1
102
RTVSPost2010Prop33
280
     0
102
RTVSPost2010PropOp33
 70
     1
102
RTVSPost2010Prop34
280
     0
102
RTVSPost2010PropOp34
 70
     1
102
RTVSPost2010Prop35
280
     0
102
RTVSPost2010PropOp35
 70
     1
102
RTVSPost2010Prop36
280
     0
102
RTVSPost2010PropOp36
 70
     1
102
RTVSPost2010Prop37
 90
       50
102
RTVSPost2010PropOp37
 70
     1
102
RTVSPost2010Prop38
140
0.0
102
RTVSPost2010PropOp38
 70
     1
102
RTVSPost2010Prop39
140
1.0
102
RTVSPost2010PropOp39
 70
     1
102
RTVSPost2010Prop40
 90
        0
102
RTVSPost2010PropOp40
 70
     1
102
RTVSPost2010Prop41ColorIndex
 90
       18
102
RTVSPost2010Prop41ColorRGB
 90
        0
102
RTVSPost2010PropOp41
 70
     1
102
RTVSPost2010Prop42
 90
       50
102
RTVSPost2010PropOp42
 70
     1
102
RTVSPost2010Prop43
 90
        3
102
RTVSPost2010PropOp43
 70
     1
102
RTVSPost2010Prop44ColorIndex
 90
        5
102
RTVSPost2010Prop44ColorRGB
 90
      255
102
RTVSPost2010PropOp44
 70
     1
102
RTVSPost2010Prop45
280
     0
102
RTVSPost2010PropOp45
 70
     1
102
RTVSPost2010Prop46
 90
       50
102
RTVSPost2010PropOp46
 70
     1
102
RTVSPost2010Prop47
 90
       50
102
RTVSPost2010PropOp47
 70
     1
102
RTVSPost2010Prop48
 90
       50
102
RTVSPost2010PropOp48
 70
     1
102
RTVSPost2010Prop49
280
     0
102
RTVSPost2010PropOp49
 70
     1
102
RTVSPost2010Prop50
 90
       50
102
RTVSPost2010PropOp50
 70
     1
102
RTVSPost2010Prop51ColorIndex
 90
      256
102
RTVSPost2010Prop51ColorRGB
 90
-16777216
102
RTVSPost2010PropOp51
 70
     0
102
RTVSPost2010Prop52
140
1.0
102
RTVSPost2010PropOp52
 70
     0
102
RTVSPost2010Prop53
 90
        2
102
RTVSPost2010PropOp53
 70
     1
102
RTVSPost2010Prop54
  1
strokes_ogs.tif
102
RTVSPost2010PropOp54
 70
     1
102
RTVSPost2010Prop55
280
     0
102
RTVSPost2010PropOp55
 70
     1
102
RTVSPost2010Prop56
140
1.0
102
RTVSPost2010PropOp56
 70
     1
102
RTVSPost2010Prop57
140
1.0
102
RTVSPost2010PropOp57
 70
     1
102
RTVSPropertyOp0
 70
     1
102
RTVSPropertyOp1
 70
     1
102
RTVSPropertyOp2
 70
     1
102
RTVSPropertyOp3
 70
     1
102
RTVSPropertyOp4
 70
     1
102
RTVSPropertyOp5
 70
     1
102
RTVSPropertyOp6
 70
     1
102
RTVSPropertyOp7
 70
     1
102
RTVSPropertyOp8
 70
     1
102
RTVSPropertyOp9
 70
     1
102
RTVSPropertyOp10
 70
     1
102
RTVSPropertyOp11
 70
     1
102
RTVSPropertyOp12
 70
     1
102
RTVSPropertyOp13
 70
     1
102
RTVSPropertyOp14
 70
     1
102
RTVSPropertyOp15
 70
     1
102
RTVSPropertyOp16
 70
     1
102
RTVSPropertyOp17
 70
     1
102
RTVSPropertyOp18
 70
     1
102
RTVSPropertyOp19
 70
     1
102
RTVSPropertyOp20
 70
     1
102
RTVSPropertyOp21
 70
     1
102
RTVSPropertyOp22
 70
     1
102
RTVSPropertyOp23
 70
     1
102
RTVSPropertyOp24
 70
     1
102
RTVSPropertyOp25
 70
     1
102
RTVSPropertyOp26
 70
     1
102
RTVSPropertyOp27
 70
     1
102
RTVSPropertyOp28
 70
     1
102
RTVSPropertyOp29
 70
     1
102
RTVSPropertyOp30
 70
     1
102
RTVSPropertyOp31
 70
     1
102
RTVSPropertyOp32
 70
     1
102
RTVSPropertyOp33
 70
     1
102
RTVSPropertyOp34
 70
     1
102
RTVSPropertyOp35
 70
     1
102
RTVSPropertyOp36
 70
     1
102
RTVSPropertyOp37
 70
     1
102
RTVSPropertyOp38
 70
     1
102
RTVSPropertyOp39
 70
     1
102
RTVSPropertyOp40
 70
     1
102
RTVSPropertyOp41
 70
     1
102
RTVSPropertyOp42
 70
     1
102
RTVSPropertyOp43
 70
     1
102
RTVSPropertyOp44
 70
     1
102
RTVSPropertyOp45
 70
     1
102
RTVSPropertyOp46
 70
     1
102
RTVSPropertyOp47
 70
     1
102
RTVSPropertyOp48
 70
     1
102
RTVSPropertyOp49
 70
     1
102
RTVSPropertyOp50
 70
     1
102
RTVSPropertyOp51
 70
     0
102
RTVSPropertyOp52
 70
     0
102
RTVSPropertyOp53
 70
     1
102
RTVSPropertyOp54
 70
     1
102
RTVSPropertyOp55
 70
     1
102
RTVSPropertyOp56
 70
     1
102
RTVSPropertyOp57
 70
     1
102
RTVSPropertyOp58
 70
     1
102
RTVSPropertyOp59
 70
     1
102
RTVSPropertyOp60
 70
     1
102
RTVSPropertyOp61
 70
     1
102
RTVSPropertyOp62
 70
     1
  0
XRECORD
  5
1C7
102
{ACAD_REACTORS
330
1C6
102
}
330
1C6
100
AcDbXrecord
280
     1
102
RTVSPost2010Prop28
280
     0
102
RTVSPost2010PropOp28
 70
     1
102
RTVSPost2010Prop29
280
     1
102
RTVSPost2010PropOp29
 70
     1
102
RTVSPost2010Prop30
280
     1
102
RTVSPost2010PropOp30
 70
     1
102
RTVSPost2010Prop31
280
     0
102
RTVSPost2010PropOp31
 70
     1
102
RTVSPost2010Prop32
280
     0
102
RTVSPost2010PropOp32
 70
     1
102
RTVSPost2010Prop33
280
     0
102
RTVSPost2010PropOp33
 70
     1
102
RTVSPost2010Prop34
280
     0
102
RTVSPost2010PropOp34
 70
     1
102
RTVSPost2010Prop35
280
     0
102
RTVSPost2010PropOp35
 70
     1
102
RTVSPost2010Prop36
280
     0
102
RTVSPost2010PropOp36
 70
     1
102
RTVSPost2010Prop37
 90
       50
102
RTVSPost2010PropOp37
 70
     1
102
RTVSPost2010Prop38
140
0.0
102
RTVSPost2010PropOp38
 70
     1
102
RTVSPost2010Prop39
140
1.0
102
RTVSPost2010PropOp39
 70
     1
102
RTVSPost2010Prop40
 90
        0
102
RTVSPost2010PropOp40
 70
     1
102
RTVSPost2010Prop41ColorIndex
 90
       18
102
RTVSPost2010Prop41ColorRGB
 90
        0
102
RTVSPost2010PropOp41
 70
     1
102
RTVSPost2010Prop42
 90
       50
102
RTVSPost2010PropOp42
 70
     1
102
RTVSPost2010Prop43
 90
        3
102
RTVSPost2010PropOp43
 70
     1
102
RTVSPost2010Prop44ColorIndex
 90
        5
102
RTVSPost2010Prop44ColorRGB
 90
      255
102
RTVSPost2010PropOp44
 70
     1
102
RTVSPost2010Prop45
280
     0
102
RTVSPost2010PropOp45
 70
     1
102
RTVSPost2010Prop46
 90
       50
102
RTVSPost2010PropOp46
 70
     1
102
RTVSPost2010Prop47
 90
       50
102
RTVSPost2010PropOp47
 70
     1
102
RTVSPost2010Prop48
 90
       50
102
RTVSPost2010PropOp48
 70
     1
102
RTVSPost2010Prop49
280
     0
102
RTVSPost2010PropOp49
 70
     1
102
RTVSPost2010Prop50
 90
       50
102
RTVSPost2010PropOp50
 70
     1
102
RTVSPost2010Prop51ColorIndex
 90
      256
102
RTVSPost2010Prop51ColorRGB
 90
-16777216
102
RTVSPost2010PropOp51
 70
     0
102
RTVSPost2010Prop52
140
1.0
102
RTVSPost2010PropOp52
 70
     0
102
RTVSPost2010Prop53
 90
        2
102
RTVSPost2010PropOp53
 70
     1
102
RTVSPost2010Prop54
  1
strokes_ogs.tif
102
RTVSPost2010PropOp54
 70
     1
102
RTVSPost2010Prop55
280
     0
102
RTVSPost2010PropOp55
 70
     1
102
RTVSPost2010Prop56
140
1.0
102
RTVSPost2010PropOp56
 70
     1
102
RTVSPost2010Prop57
140
1.0
102
RTVSPost2010PropOp57
 70
     1
102
RTVSPropertyOp0
 70
     1
102
RTVSPropertyOp1
 70
     1
102
RTVSPropertyOp2
 70
     1
102
RTVSPropertyOp3
 70
     1
102
RTVSPropertyOp4
 70
     1
102
RTVSPropertyOp5
 70
     1
102
RTVSPropertyOp6
 70
     1
102
RTVSPropertyOp7
 70
     1
102
RTVSPropertyOp8
 70
     1
102
RTVSPropertyOp9
 70
     1
102
RTVSPropertyOp10
 70
     1
102
RTVSPropertyOp11
 70
     1
102
RTVSPropertyOp12
 70
     1
102
RTVSPropertyOp13
 70
     1
102
RTVSPropertyOp14
 70
     1
102
RTVSPropertyOp15
 70
     1
102
RTVSPropertyOp16
 70
     1
102
RTVSPropertyOp17
 70
     1
102
RTVSPropertyOp18
 70
     1
102
RTVSPropertyOp19
 70
     1
102
RTVSPropertyOp20
 70
     1
102
RTVSPropertyOp21
 70
     1
102
RTVSPropertyOp22
 70
     1
102
RTVSPropertyOp23
 70
     1
102
RTVSPropertyOp24
 70
     1
102
RTVSPropertyOp25
 70
     1
102
RTVSPropertyOp26
 70
     1
102
RTVSPropertyOp27
 70
     1
102
RTVSPropertyOp28
 70
     1
102
RTVSPropertyOp29
 70
     1
102
RTVSPropertyOp30
 70
     1
102
RTVSPropertyOp31
 70
     1
102
RTVSPropertyOp32
 70
     1
102
RTVSPropertyOp33
 70
     1
102
RTVSPropertyOp34
 70
     1
102
RTVSPropertyOp35
 70
     1
102
RTVSPropertyOp36
 70
     1
102
RTVSPropertyOp37
 70
     1
102
RTVSPropertyOp38
 70
     1
102
RTVSPropertyOp39
 70
     1
102
RTVSPropertyOp40
 70
     1
102
RTVSPropertyOp41
 70
     1
102
RTVSPropertyOp42
 70
     1
102
RTVSPropertyOp43
 70
     1
102
RTVSPropertyOp44
 70
     1
102
RTVSPropertyOp45
 70
     1
102
RTVSPropertyOp46
 70
     1
102
RTVSPropertyOp47
 70
     1
102
RTVSPropertyOp48
 70
     1
102
RTVSPropertyOp49
 70
     1
102
RTVSPropertyOp50
 70
     1
102
RTVSPropertyOp51
 70
     0
102
RTVSPropertyOp52
 70
     0
102
RTVSPropertyOp53
 70
     1
102
RTVSPropertyOp54
 70
     1
102
RTVSPropertyOp55
 70
     1
102
RTVSPropertyOp56
 70
     1
102
RTVSPropertyOp57
 70
     1
102
RTVSPropertyOp58
 70
     1
102
RTVSPropertyOp59
 70
     1
102
RTVSPropertyOp60
 70
     1
102
RTVSPropertyOp61
 70
     1
102
RTVSPropertyOp62
 70
     1
  0
XRECORD
  5
1C9
102
{ACAD_REACTORS
330
1C8
102
}
330
1C8
100
AcDbXrecord
280
     1
102
RTVSPost2010Prop28
280
     0
102
RTVSPost2010PropOp28
 70
     1
102
RTVSPost2010Prop29
280
     1
102
RTVSPost2010PropOp29
 70
     1
102
RTVSPost2010Prop30
280
     1
102
RTVSPost2010PropOp30
 70
     1
102
RTVSPost2010Prop31
280
     0
102
RTVSPost2010PropOp31
 70
     1
102
RTVSPost2010Prop32
280
     0
102
RTVSPost2010PropOp32
 70
     1
102
RTVSPost2010Prop33
280
     0
102
RTVSPost2010PropOp33
 70
     1
102
RTVSPost2010Prop34
280
     0
102
RTVSPost2010PropOp34
 70
     1
102
RTVSPost2010Prop35
280
     0
102
RTVSPost2010PropOp35
 70
     1
102
RTVSPost2010Prop36
280
     0
102
RTVSPost2010PropOp36
 70
     1
102
RTVSPost2010Prop37
 90
       50
102
RTVSPost2010PropOp37
 70
     1
102
RTVSPost2010Prop38
140
0.0
102
RTVSPost2010PropOp38
 70
     1
102
RTVSPost2010Prop39
140
1.0
102
RTVSPost2010PropOp39
 70
     1
102
RTVSPost2010Prop40
 90
        0
102
RTVSPost2010PropOp40
 70
     1
102
RTVSPost2010Prop41ColorIndex
 90
       18
102
RTVSPost2010Prop41ColorRGB
 90
        0
102
RTVSPost2010PropOp41
 70
     1
102
RTVSPost2010Prop42
 90
       50
102
RTVSPost2010PropOp42
 70
     1
102
RTVSPost2010Prop43
 90
        3
102
RTVSPost2010PropOp43
 70
     1
102
RTVSPost2010Prop44ColorIndex
 90
        5
102
RTVSPost2010Prop44ColorRGB
 90
      255
102
RTVSPost2010PropOp44
 70
     1
102
RTVSPost2010Prop45
280
     0
102
RTVSPost2010PropOp45
 70
     1
102
RTVSPost2010Prop46
 90
       50
102
RTVSPost2010PropOp46
 70
     1
102
RTVSPost2010Prop47
 90
       50
102
RTVSPost2010PropOp47
 70
     1
102
RTVSPost2010Prop48
 90
       50
102
RTVSPost2010PropOp48
 70
     1
102
RTVSPost2010Prop49
280
     0
102
RTVSPost2010PropOp49
 70
     1
102
RTVSPost2010Prop50
 90
       50
102
RTVSPost2010PropOp50
 70
     1
102
RTVSPost2010Prop51ColorIndex
 90
      256
102
RTVSPost2010Prop51ColorRGB
 90
-16777216
102
RTVSPost2010PropOp51
 70
     0
102
RTVSPost2010Prop52
140
1.0
102
RTVSPost2010PropOp52
 70
     0
102
RTVSPost2010Prop53
 90
        2
102
RTVSPost2010PropOp53
 70
     1
102
RTVSPost2010Prop54
  1
strokes_ogs.tif
102
RTVSPost2010PropOp54
 70
     1
102
RTVSPost2010Prop55
280
     0
102
RTVSPost2010PropOp55
 70
     1
102
RTVSPost2010Prop56
140
1.0
102
RTVSPost2010PropOp56
 70
     1
102
RTVSPost2010Prop57
140
1.0
102
RTVSPost2010PropOp57
 70
     1
102
RTVSPropertyOp0
 70
     1
102
RTVSPropertyOp1
 70
     1
102
RTVSPropertyOp2
 70
     1
102
RTVSPropertyOp3
 70
     1
102
RTVSPropertyOp4
 70
     1
102
RTVSPropertyOp5
 70
     1
102
RTVSPropertyOp6
 70
     1
102
RTVSPropertyOp7
 70
     1
102
RTVSPropertyOp8
 70
     1
102
RTVSPropertyOp9
 70
     1
102
RTVSPropertyOp10
 70
     1
102
RTVSPropertyOp11
 70
     1
102
RTVSPropertyOp12
 70
     1
102
RTVSPropertyOp13
 70
     1
102
RTVSPropertyOp14
 70
     1
102
RTVSPropertyOp15
 70
     1
102
RTVSPropertyOp16
 70
     1
102
RTVSPropertyOp17
 70
     1
102
RTVSPropertyOp18
 70
     1
102
RTVSPropertyOp19
 70
     1
102
RTVSPropertyOp20
 70
     1
102
RTVSPropertyOp21
 70
     1
102
RTVSPropertyOp22
 70
     1
102
RTVSPropertyOp23
 70
     1
102
RTVSPropertyOp24
 70
     1
102
RTVSPropertyOp25
 70
     1
102
RTVSPropertyOp26
 70
     1
102
RTVSPropertyOp27
 70
     1
102
RTVSPropertyOp28
 70
     1
102
RTVSPropertyOp29
 70
     1
102
RTVSPropertyOp30
 70
     1
102
RTVSPropertyOp31
 70
     1
102
RTVSPropertyOp32
 70
     1
102
RTVSPropertyOp33
 70
     1
102
RTVSPropertyOp34
 70
     1
102
RTVSPropertyOp35
 70
     1
102
RTVSPropertyOp36
 70
     1
102
RTVSPropertyOp37
 70
     1
102
RTVSPropertyOp38
 70
     1
102
RTVSPropertyOp39
 70
     1
102
RTVSPropertyOp40
 70
     1
102
RTVSPropertyOp41
 70
     1
102
RTVSPropertyOp42
 70
     1
102
RTVSPropertyOp43
 70
     1
102
RTVSPropertyOp44
 70
     1
102
RTVSPropertyOp45
 70
     1
102
RTVSPropertyOp46
 70
     1
102
RTVSPropertyOp47
 70
     1
102
RTVSPropertyOp48
 70
     1
102
RTVSPropertyOp49
 70
     1
102
RTVSPropertyOp50
 70
     1
102
RTVSPropertyOp51
 70
     0
102
RTVSPropertyOp52
 70
     0
102
RTVSPropertyOp53
 70
     1
102
RTVSPropertyOp54
 70
     1
102
RTVSPropertyOp55
 70
     1
102
RTVSPropertyOp56
 70
     1
102
RTVSPropertyOp57
 70
     1
102
RTVSPropertyOp58
 70
     1
102
RTVSPropertyOp59
 70
     1
102
RTVSPropertyOp60
 70
     1
102
RTVSPropertyOp61
 70
     1
102
RTVSPropertyOp62
 70
     1
  0
ENDSEC
  0
EOF
