  0
SECTION
  2
HEADER
  9
$ACADVER
  1
AC1009
  9
$INSBASE
 10
77.401637183692173
 20
210.4095877685042
 30
0.0
  9
$EXTMIN
 10
-15.53252967241902
 20
-1.5
 30
0.0
  9
$EXTMAX
 10
143.96698220474121
 20
105.49626644373819
 30
0.0
  9
$LIMMIN
 10
0.0
 20
0.0
  9
$LIMMAX
 10
420.0
 20
297.0
  9
$ORTHOMODE
 70
     1
  9
$REGENMODE
 70
     1
  9
$FILLMODE
 70
     1
  9
$QTEXTMODE
 70
     0
  9
$MIRRTEXT
 70
     1
  9
$DRAGMODE
 70
     2
  9
$LTSCALE
 40
7.0
  9
$OSMODE
 70
    37
  9
$ATTMODE
 70
     1
  9
$TEXTSIZE
 40
7.0
  9
$TRACEWID
 40
0.05
  9
$TEXTSTYLE
  7
ISO
  9
$CLAYER
  8
0
  9
$CELTYPE
  6
BYLAYER
  9
$CECOLOR
 62
   256
  9
$DIMSCALE
 40
0.0
  9
$DIMASZ
 40
3.0
  9
$DIMEXO
 40
1.5
  9
$DIMDLI
 40
10.0
  9
$DIMRND
 40
0.0
  9
$DIMDLE
 40
0.0
  9
$DIMEXE
 40
1.5
  9
$DIMTP
 40
0.0
  9
$DIMTM
 40
0.0
  9
$DIMTXT
 40
3.0
  9
$DIMCEN
 40
-5.0
  9
$DIMTSZ
 40
0.0
  9
$DIMTOL
 70
     0
  9
$DIMLIM
 70
     0
  9
$DIMTIH
 70
     0
  9
$DIMTOH
 70
     1
  9
$DIMSE1
 70
     0
  9
$DIMSE2
 70
     0
  9
$DIMTAD
 70
     1
  9
$DIMZIN
 70
     8
  9
$DIMBLK
  1

  9
$DIMASO
 70
     1
  9
$DIMSHO
 70
     1
  9
$DIMPOST
  1

  9
$DIMAPOST
  1

  9
$DIMALT
 70
     0
  9
$DIMALTD
 70
     0
  9
$DIMALTF
 40
25.399999999999999
  9
$DIMLFAC
 40
-1.0
  9
$DIMTOFL
 70
     1
  9
$DIMTVP
 40
0.0
  9
$DIMTIX
 70
     0
  9
$DIMSOXD
 70
     0
  9
$DIMSAH
 70
     0
  9
$DIMBLK1
  1

  9
$DIMBLK2
  1

  9
$DIMSTYLE
  2
MASKIN
  9
$DIMCLRD
 70
   256
  9
$DIMCLRE
 70
   256
  9
$DIMCLRT
 70
     2
  9
$DIMTFAC
 40
1.0
  9
$DIMGAP
 40
1.0
  9
$LUNITS
 70
     2
  9
$LUPREC
 70
     8
  9
$SKETCHINC
 40
0.1
  9
$FILLETRAD
 40
0.0
  9
$AUNITS
 70
     0
  9
$AUPREC
 70
     8
  9
$MENU
  1
ACAD
  9
$ELEVATION
 40
0.0
  9
$PELEVATION
 40
0.0
  9
$THICKNESS
 40
0.0
  9
$LIMCHECK
 70
     0
  9
$BLIPMODE
 70
     0
  9
$CHAMFERA
 40
0.0
  9
$CHAMFERB
 40
0.0
  9
$SKPOLY
 70
     0
  9
$TDCREATE
 40
2449499.4112543981
  9
$TDUPDATE
 40
2455516.5085040969
  9
$TDINDWG
 40
0.2568267477
  9
$TDUSRTIMER
 40
0.2568267477
  9
$USRTIMER
 70
     1
  9
$ANGBASE
 50
0.0
  9
$ANGDIR
 70
     0
  9
$PDMODE
 70
     3
  9
$PDSIZE
 40
0.0
  9
$PLINEWID
 40
0.0
  9
$COORDS
 70
     1
  9
$SPLFRAME
 70
     0
  9
$SPLINETYPE
 70
     6
  9
$SPLINESEGS
 70
     8
  9
$ATTDIA
 70
     0
  9
$ATTREQ
 70
     1
  9
$HANDLING
 70
     1
  9
$HANDSEED
  5
1780
  9
$SURFTAB1
 70
     6
  9
$SURFTAB2
 70
     6
  9
$SURFTYPE
 70
     6
  9
$SURFU
 70
     6
  9
$SURFV
 70
     6
  9
$UCSNAME
  2

  9
$UCSORG
 10
0.0
 20
0.0
 30
0.0
  9
$UCSXDIR
 10
1.0
 20
0.0
 30
0.0
  9
$UCSYDIR
 10
0.0
 20
1.0
 30
0.0
  9
$PUCSNAME
  2

  9
$PUCSORG
 10
0.0
 20
0.0
 30
0.0
  9
$PUCSXDIR
 10
1.0
 20
0.0
 30
0.0
  9
$PUCSYDIR
 10
0.0
 20
1.0
 30
0.0
  9
$USERI1
 70
     0
  9
$USERI2
 70
     0
  9
$USERI3
 70
     0
  9
$USERI4
 70
     0
  9
$USERI5
 70
     0
  9
$USERR1
 40
0.0
  9
$USERR2
 40
0.0
  9
$USERR3
 40
0.0
  9
$USERR4
 40
0.0
  9
$USERR5
 40
0.0
  9
$WORLDVIEW
 70
     1
  9
$SHADEDGE
 70
     1
  9
$SHADEDIF
 70
    70
  9
$TILEMODE
 70
     1
  9
$MAXACTVP
 70
    16
  9
$PLIMCHECK
 70
     0
  9
$PEXTMIN
 10
0.0
 20
0.0
 30
0.0
  9
$PEXTMAX
 10
0.0
 20
0.0
 30
0.0
  9
$PLIMMIN
 10
0.0
 20
0.0
  9
$PLIMMAX
 10
12.0
 20
9.0
  9
$UNITMODE
 70
     0
  9
$VISRETAIN
 70
     1
  9
$PLINEGEN
 70
     0
  9
$PSLTSCALE
 70
     1
  0
ENDSEC
  0
SECTION
  2
TABLES
  0
TABLE
  2
VPORT
 70
     1
  0
VPORT
  2
*ACTIVE
 70
     0
 10
0.0
 20
0.0
 11
1.0
 21
1.0
 12
99.076483528414073
 22
38.908770335844217
 13
0.0
 23
0.0
 14
5.0
 24
5.0
 15
10.0
 25
10.0
 16
0.0
 26
0.0
 36
1.0
 17
0.0
 27
0.0
 37
0.0
 40
114.13480695566651
 41
1.821826280623607
 42
50.0
 43
0.0
 44
0.0
 50
0.0
 51
0.0
 71
     0
 72
   100
 73
     1
 74
     0
 75
     0
 76
     0
 77
     0
 78
     0
  0
ENDTAB
  0
TABLE
  2
LTYPE
 70
    11
  0
LTYPE
  2
CONTINUOUS
 70
     0
  3
Solid line
 72
    65
 73
     0
 40
0.0
  0
LTYPE
  2
BYGG-014554$0$NEWDOT
 70
     0
  3
____ . ____ . ____ . ____ . ____ . ____ . ____
 72
    65
 73
     4
 40
2.0
 49
1.0
 49
-0.5
 49
0.0
 49
-0.5
  0
LTYPE
  2
BYGG-022308$0$NEWDOT
 70
     0
  3
____ . ____ . ____ . ____ . ____ . ____ . ____
 72
    65
 73
     4
 40
2.0
 49
1.0
 49
-0.5
 49
0.0
 49
-0.5
  0
LTYPE
  2
BYGG-022308$0$DASHDOT
 70
     0
  3
__ . __ . __ . __ . __ . __ . __ . __ . __ . __
 72
    65
 73
     4
 40
1.0
 49
0.5
 49
-0.25
 49
0.0
 49
-0.25
  0
LTYPE
  2
BYGG-022308$0$DASHED
 70
     0
  3
__ __ __ __ __ __ __ __ __ __ __ __ __ __ __
 72
    65
 73
     2
 40
0.75
 49
0.5
 49
-0.25
  0
LTYPE
  2
BYGG-022308$0$PHANTOM
 70
     0
  3
Phantom ______  __  __  ______  __  __  ______
 72
    65
 73
     6
 40
63.5
 49
31.75
 49
-6.3499999999999988
 49
6.3499999999999988
 49
-6.3499999999999988
 49
6.3499999999999988
 49
-6.3499999999999988
  0
LTYPE
  2
BYGG-014533$0$NEWDOT
 70
     0
  3
____ . ____ . ____ . ____ . ____ . ____ . ____
 72
    65
 73
     4
 40
2.0
 49
1.0
 49
-0.5
 49
0.0
 49
-0.5
  0
LTYPE
  2
BYGG-014171$0$DASHDOT
 70
     0
  3
__ . __ . __ . __ . __ . __ . __ . __ . __ . __
 72
    65
 73
     4
 40
1.0
 49
0.5
 49
-0.25
 49
0.0
 49
-0.25
  0
LTYPE
  2
BYGG-014554$0$ZIGZAG
 70
     0
  3
Zig zag /\/\/\/\/\/\/\/\/\/\/\/\/\/\/\/\/\/\/\/\/\/\/\/
 72
    65
 73
     4
 40
20.32254
 49
0.00254
 49
-5.0800000000000001
 49
-10.16
 49
-5.0800000000000001
  0
LTYPE
  2
BYGG-018579$0$DASHDOT
 70
     0
  3
Dash dot __ . __ . __ . __ . __ . __ . __ . __
 72
    65
 73
     4
 40
1.0
 49
0.5
 49
-0.25
 49
0.0
 49
-0.25
  0
LTYPE
  2
BYGG-014533$0$ZIGZAG
 70
     0
  3
Zig zag /\/\/\/\/\/\/\/\/\/\/\/\/\/\/\/\/\/\/\/\/\/\/\/
 72
    65
 73
     4
 40
20.32254
 49
0.00254
 49
-5.0800000000000001
 49
-10.16
 49
-5.0800000000000001
  0
ENDTAB
  0
TABLE
  2
LAYER
 70
    70
  0
LAYER
  2
0
 70
     0
 62
     7
  6
CONTINUOUS
  0
LAYER
  2
SAPA_MATT
 70
     0
 62
     1
  6
CONTINUOUS
  0
LAYER
  2
SAPA_ANSLUTNING
 70
     0
 62
     6
  6
CONTINUOUS
  0
LAYER
  2
SAPA_LIGHT
 70
     1
 62
     1
  6
CONTINUOUS
  0
LAYER
  2
SAPA_ARTIKELNR
 70
     0
 62
     4
  6
CONTINUOUS
  0
LAYER
  2
SAPA_GLAS
 70
     0
 62
     4
  6
CONTINUOUS
  0
LAYER
  2
SAPA_FOGBAND
 70
     0
 62
     2
  6
CONTINUOUS
  0
LAYER
  2
SAPA_PROFIL
 70
     0
 62
     7
  6
CONTINUOUS
  0
ENDTAB
  0
TABLE
  2
STYLE
 70
    20
  0
STYLE
  2
STANDARD
 70
     0
 40
0.0
 41
1.0
 50
0.0
 71
     0
 42
0.2
  3
txt
  4

  0
STYLE
  2
ISO
 70
     0
 40
0.0
 41
1.0
 50
0.0
 71
     0
 42
7.0
  3
isocp3.shx
  4

  0
STYLE
  2

 70
     1
 40
0.0
 41
1.0
 50
0.0
 71
     0
 42
0.2
  3
ltypeshp.shx
  4

  0
STYLE
  2
ANNOTATIVE
 70
     0
 40
0.0
 41
1.0
 50
0.0
 71
     0
 42
0.2
  3
txt
  4

  0
STYLE
  2
BYGG-022296$0$STANDARD
 70
     0
 40
0.0
 41
1.0
 50
0.0
 71
     0
 42
0.2
  3
txt
  4

  0
STYLE
  2
BYGG-022296$0$ISO
 70
     0
 40
0.0
 41
1.0
 50
0.0
 71
     0
 42
3.5
  3
txt
  4

  0
STYLE
  2
BYGG-014554$0$STANDARD
 70
     0
 40
0.0
 41
1.0
 50
0.0
 71
     0
 42
0.2
  3
txt
  4

  0
STYLE
  2
BYGG-014554$0$ISO
 70
     0
 40
0.0
 41
1.0
 50
0.0
 71
     0
 42
2.5
  3
isocp3.shx
  4

  0
STYLE
  2
BYGG-021406$0$STANDARD
 70
     0
 40
0.0
 41
1.0
 50
0.0
 71
     0
 42
0.2
  3
txt
  4

  0
STYLE
  2
BYGG-021406$0$ISO
 70
     0
 40
0.0
 41
1.0
 50
0.0
 71
     0
 42
3.5
  3
iso
  4

  0
STYLE
  2
BYGG-018579$0$STANDARD
 70
     0
 40
0.0
 41
1.0
 50
0.0
 71
     0
 42
0.2
  3
txt
  4

  0
STYLE
  2
BYGG-018579$0$ISO
 70
     0
 40
0.0
 41
1.0
 50
0.0
 71
     0
 42
3.5
  3
isocp3.shx
  4

  0
STYLE
  2
BYGG-022308$0$STANDARD
 70
     0
 40
0.0
 41
1.0
 50
0.0
 71
     0
 42
0.2
  3
txt
  4

  0
STYLE
  2
BYGG-022308$0$ISO
 70
     0
 40
0.0
 41
1.0
 50
0.0
 71
     0
 42
3.5
  3
txt
  4

  0
STYLE
  2
BYGG-014533$0$STANDARD
 70
     0
 40
0.0
 41
1.0
 50
0.0
 71
     0
 42
0.2
  3
txt
  4

  0
STYLE
  2
BYGG-014533$0$ISO
 70
     0
 40
0.0
 41
1.0
 50
0.0
 71
     0
 42
2.5
  3
isocp3.shx
  4

  0
STYLE
  2
BYGG-022299$0$STANDARD
 70
     0
 40
0.0
 41
1.0
 50
0.0
 71
     0
 42
0.2
  3
txt
  4

  0
STYLE
  2
BYGG-022299$0$ISO
 70
     0
 40
0.0
 41
1.0
 50
0.0
 71
     0
 42
3.5
  3
txt
  4

  0
STYLE
  2
BYGG-014171$0$STANDARD
 70
     0
 40
0.0
 41
1.0
 50
0.0
 71
     0
 42
0.2
  3
txt
  4

  0
STYLE
  2
BYGG-014171$0$ISO
 70
     0
 40
0.0
 41
1.0
 50
0.0
 71
     0
 42
3.5
  3
isocp3.shx
  4

  0
ENDTAB
  0
TABLE
  2
VIEW
 70
     0
  0
ENDTAB
  0
TABLE
  2
UCS
 70
     0
  0
ENDTAB
  0
TABLE
  2
APPID
 70
    17
  0
APPID
  2
ACAD
 70
     0
  0
APPID
  2
ACAECLAYERSTANDARD
 70
     0
  0
APPID
  2
ACAD_PSEXT
 70
     0
  0
APPID
  2
ACAD_MLEADERVER
 70
     0
  0
APPID
  2
ACAD_DSTYLE_DIMTEXT_FILL
 70
     0
  0
APPID
  2
ACAD_DSTYLE_DIMEXT_LENGTH
 70
     0
  0
APPID
  2
ACAD_DSTYLE_DIMEXT_ENABLED
 70
     0
  0
APPID
  2
ACAD_DSTYLE_DIM_LINETYPE
 70
     0
  0
APPID
  2
ACAD_DSTYLE_DIM_EXT1_LINETYPE
 70
     0
  0
APPID
  2
ACAD_DSTYLE_DIM_EXT2_LINETYPE
 70
     0
  0
APPID
  2
ACAD_DSTYLE_DIMJOGGED_JOGA
 70
     0
  0
APPID
  2
ACAD_DSTYLE_DIMARC_LENGTH_
 70
     0
  0
APPID
  2
AMG_ARCHIVE11
 70
     0
  0
APPID
  2
ACAD_EXEMPT_FROM_CAD_STANDARDS
 70
     0
  0
APPID
  2
ACAD_DSTYLE_DIMJAG
 70
     0
  0
APPID
  2
ACAD_DSTYLE_DIMTALN
 70
     0
  0
APPID
  2
ACADANNOTATIVE
 70
     0
  0
ENDTAB
  0
TABLE
  2
DIMSTYLE
 70
    17
  0
DIMSTYLE
  2
MASKIN
 70
     0
  3

  4

  5

  6

  7

 40
0.0
 41
3.0
 42
1.5
 43
10.0
 44
1.5
 45
0.0
 46
0.0
 47
0.0
 48
0.0
140
3.0
141
-5.0
142
0.0
143
25.399999999999999
144
-1.0
145
0.0
146
1.0
147
1.0
 71
     0
 72
     0
 73
     0
 74
     1
 75
     0
 76
     0
 77
     1
 78
     8
170
     0
171
     0
172
     1
173
     0
174
     0
175
     0
176
   256
177
   256
178
     2
  0
DIMSTYLE
  2
STANDARD
 70
     0
  3

  4

  5

  6

  7

 40
1.0
 41
0.18
 42
0.0625
 43
0.38
 44
0.18
 45
0.0
 46
0.0
 47
0.0
 48
0.0
140
0.18
141
0.09
142
0.0
143
25.399999999999999
144
1.0
145
0.0
146
1.0
147
0.09
 71
     0
 72
     0
 73
     1
 74
     1
 75
     0
 76
     0
 77
     0
 78
     0
170
     0
171
     2
172
     0
173
     0
174
     0
175
     0
176
     0
177
     0
178
     0
  0
DIMSTYLE
  2
ANNOTATIVE
 70
     0
  3

  4

  5

  6

  7

 40
1.0
 41
0.18
 42
0.0625
 43
0.38
 44
0.18
 45
0.0
 46
0.0
 47
0.0
 48
0.0
140
0.18
141
0.09
142
0.0
143
25.399999999999999
144
1.0
145
0.0
146
1.0
147
0.09
 71
     0
 72
     0
 73
     1
 74
     1
 75
     0
 76
     0
 77
     0
 78
     0
170
     0
171
     2
172
     0
173
     0
174
     0
175
     0
176
     0
177
     0
178
     0
  0
DIMSTYLE
  2
BYGG-022296$0$STANDARD
 70
     0
  3

  4

  5

  6

  7

 40
1.0
 41
0.18
 42
0.0625
 43
0.38
 44
0.18
 45
0.0
 46
0.0
 47
0.0
 48
0.0
140
0.18
141
0.09
142
0.0
143
25.399999999999999
144
1.0
145
0.0
146
1.0
147
0.09
 71
     0
 72
     0
 73
     1
 74
     1
 75
     0
 76
     0
 77
     0
 78
     0
170
     0
171
     2
172
     0
173
     0
174
     0
175
     0
176
     0
177
     0
178
     0
  0
DIMSTYLE
  2
BYGG-022296$0$MASKIN
 70
     0
  3

  4

  5

  6

  7

 40
0.0
 41
3.0
 42
1.5
 43
10.0
 44
1.5
 45
0.0
 46
0.0
 47
0.0
 48
0.0
140
3.0
141
-5.0
142
0.0
143
25.399999999999999
144
-1.0
145
0.0
146
1.0
147
1.0
 71
     0
 72
     0
 73
     0
 74
     0
 75
     0
 76
     0
 77
     1
 78
     8
170
     0
171
     0
172
     1
173
     0
174
     0
175
     0
176
   256
177
   256
178
     2
  0
DIMSTYLE
  2
BYGG-014554$0$STANDARD
 70
     0
  3

  4

  5

  6

  7

 40
1.0
 41
0.18
 42
0.0625
 43
0.38
 44
0.18
 45
0.0
 46
0.0
 47
0.0
 48
0.0
140
0.18
141
0.09
142
0.0
143
25.399999999999999
144
1.0
145
0.0
146
1.0
147
0.09
 71
     0
 72
     0
 73
     1
 74
     1
 75
     0
 76
     0
 77
     0
 78
     0
170
     0
171
     2
172
     0
173
     0
174
     0
175
     0
176
     0
177
     0
178
     0
  0
DIMSTYLE
  2
BYGG-014554$0$MASKIN
 70
     0
  3

  4

  5

  6

  7

 40
0.0
 41
3.0
 42
1.5
 43
10.0
 44
1.5
 45
0.0
 46
0.0
 47
0.0
 48
0.0
140
3.0
141
-5.0
142
0.0
143
25.399999999999999
144
-1.0
145
0.0
146
1.0
147
1.0
 71
     0
 72
     0
 73
     0
 74
     1
 75
     0
 76
     0
 77
     1
 78
     8
170
     0
171
     0
172
     1
173
     0
174
     0
175
     0
176
   256
177
   256
178
     2
  0
DIMSTYLE
  2
BYGG-021406$0$STANDARD
 70
     0
  3

  4

  5

  6

  7

 40
1.0
 41
0.18
 42
0.0625
 43
0.38
 44
0.18
 45
0.0
 46
0.0
 47
0.0
 48
0.0
140
0.18
141
0.09
142
0.0
143
25.399999999999999
144
1.0
145
0.0
146
1.0
147
0.09
 71
     0
 72
     0
 73
     1
 74
     1
 75
     0
 76
     0
 77
     0
 78
     0
170
     0
171
     2
172
     0
173
     0
174
     0
175
     0
176
     0
177
     0
178
     0
  0
DIMSTYLE
  2
BYGG-018579$0$MASKIN
 70
     0
  3

  4

  5

  6

  7

 40
0.0
 41
3.0
 42
1.5
 43
10.0
 44
1.5
 45
0.0
 46
0.0
 47
0.0
 48
0.0
140
3.0
141
-5.0
142
0.0
143
25.399999999999999
144
-1.0
145
0.0
146
1.0
147
1.0
 71
     0
 72
     0
 73
     0
 74
     0
 75
     0
 76
     0
 77
     1
 78
     8
170
     0
171
     0
172
     1
173
     0
174
     0
175
     0
176
   256
177
   256
178
     2
  0
DIMSTYLE
  2
BYGG-022308$0$STANDARD
 70
     0
  3

  4

  5

  6

  7

 40
1.0
 41
0.18
 42
0.0625
 43
0.38
 44
0.18
 45
0.0
 46
0.0
 47
0.0
 48
0.0
140
0.18
141
0.09
142
0.0
143
25.399999999999999
144
1.0
145
0.0
146
1.0
147
0.09
 71
     0
 72
     0
 73
     1
 74
     1
 75
     0
 76
     0
 77
     0
 78
     0
170
     0
171
     2
172
     0
173
     0
174
     0
175
     0
176
     0
177
     0
178
     0
  0
DIMSTYLE
  2
BYGG-022308$0$MASKIN
 70
     0
  3

  4

  5

  6

  7

 40
0.0
 41
3.0
 42
1.5
 43
10.0
 44
1.5
 45
0.0
 46
0.0
 47
0.0
 48
0.0
140
3.0
141
-5.0
142
0.0
143
25.399999999999999
144
-1.0
145
0.0
146
1.0
147
1.0
 71
     0
 72
     0
 73
     0
 74
     0
 75
     0
 76
     0
 77
     1
 78
     8
170
     0
171
     0
172
     1
173
     0
174
     0
175
     0
176
   256
177
   256
178
     2
  0
DIMSTYLE
  2
BYGG-014533$0$STANDARD
 70
     0
  3

  4

  5

  6

  7

 40
1.0
 41
0.18
 42
0.0625
 43
0.38
 44
0.18
 45
0.0
 46
0.0
 47
0.0
 48
0.0
140
0.18
141
0.09
142
0.0
143
25.399999999999999
144
1.0
145
0.0
146
1.0
147
0.09
 71
     0
 72
     0
 73
     1
 74
     1
 75
     0
 76
     0
 77
     0
 78
     0
170
     0
171
     2
172
     0
173
     0
174
     0
175
     0
176
     0
177
     0
178
     0
  0
DIMSTYLE
  2
BYGG-014533$0$MASKIN
 70
     0
  3

  4

  5

  6

  7

 40
0.0
 41
3.0
 42
1.5
 43
10.0
 44
1.5
 45
0.0
 46
0.0
 47
0.0
 48
0.0
140
3.0
141
-5.0
142
0.0
143
25.399999999999999
144
-1.0
145
0.0
146
1.0
147
1.0
 71
     0
 72
     0
 73
     0
 74
     1
 75
     0
 76
     0
 77
     1
 78
     8
170
     0
171
     0
172
     1
173
     0
174
     0
175
     0
176
   256
177
   256
178
     2
  0
DIMSTYLE
  2
BYGG-022299$0$STANDARD
 70
     0
  3

  4

  5

  6

  7

 40
1.0
 41
0.18
 42
0.0625
 43
0.38
 44
0.18
 45
0.0
 46
0.0
 47
0.0
 48
0.0
140
0.18
141
0.09
142
0.0
143
25.399999999999999
144
1.0
145
0.0
146
1.0
147
0.09
 71
     0
 72
     0
 73
     1
 74
     1
 75
     0
 76
     0
 77
     0
 78
     0
170
     0
171
     2
172
     0
173
     0
174
     0
175
     0
176
     0
177
     0
178
     0
  0
DIMSTYLE
  2
BYGG-022299$0$MASKIN
 70
     0
  3

  4

  5

  6

  7

 40
0.0
 41
3.0
 42
1.5
 43
10.0
 44
1.5
 45
0.0
 46
0.0
 47
0.0
 48
0.0
140
3.0
141
-5.0
142
0.0
143
25.399999999999999
144
-1.0
145
0.0
146
1.0
147
1.0
 71
     0
 72
     0
 73
     0
 74
     0
 75
     0
 76
     0
 77
     1
 78
     8
170
     0
171
     0
172
     1
173
     0
174
     0
175
     0
176
   256
177
   256
178
     2
  0
DIMSTYLE
  2
BYGG-014171$0$STANDARD
 70
     0
  3

  4

  5

  6

  7

 40
1.0
 41
0.18
 42
0.0625
 43
0.38
 44
0.18
 45
0.0
 46
0.0
 47
0.0
 48
0.0
140
0.18
141
0.09
142
0.0
143
25.399999999999999
144
1.0
145
0.0
146
1.0
147
0.09
 71
     0
 72
     0
 73
     1
 74
     1
 75
     0
 76
     0
 77
     0
 78
     0
170
     0
171
     2
172
     0
173
     0
174
     0
175
     0
176
     0
177
     0
178
     0
  0
DIMSTYLE
  2
BYGG-014171$0$MASKIN
 70
     0
  3

  4

  5

  6

  7

 40
0.0
 41
3.0
 42
1.5
 43
10.0
 44
1.5
 45
0.0
 46
0.0
 47
0.0
 48
0.0
140
3.0
141
-5.0
142
0.0
143
25.399999999999999
144
-1.0
145
0.0
146
1.0
147
1.0
 71
     0
 72
     0
 73
     0
 74
     0
 75
     0
 76
     0
 77
     1
 78
     8
170
     0
171
     0
172
     1
173
     0
174
     0
175
     0
176
   256
177
   256
178
   256
  0
ENDTAB
  0
ENDSEC
  0
SECTION
  2
BLOCKS
  0
BLOCK
  8
0
  2
$MODEL_SPACE
 70
     0
 10
0.0
 20
0.0
 30
0.0
  3
$MODEL_SPACE
  1

  0
ENDBLK
  5
D
  8
0
  0
BLOCK
 67
     1
  8
0
  2
$PAPER_SPACE
 70
     0
 10
0.0
 20
0.0
 30
0.0
  3
$PAPER_SPACE
  1

  0
ENDBLK
  5
13
 67
     1
  8
0
  0
BLOCK
  8
0
  2
*X46
 70
     1
 10
0.0
 20
0.0
 30
0.0
  3
*X46
  1

  0
LINE
  5
E3C
  8
0
 62
     0
 10
4.5035016193098159
 20
41.242012488217988
 30
0.0
 11
3.9238409135641632
 21
41.576679752718888
 31
0.0
  0
LINE
  5
E3D
  8
0
 62
     0
 10
1.861618085056326
 20
41.179805037214983
 30
0.0
 11
1.174210420802424
 21
41.576680037214977
 31
0.0
  0
LINE
  5
E3E
  8
0
 62
     0
 10
3.9238410778180199
 20
39.989180037214979
 30
0.0
 11
3.236433413564118
 21
40.386055037214973
 31
0.0
  0
LINE
  5
E3F
  8
0
 62
     0
 10
-0.8880124077054316
 20
41.179805321711143
 30
0.0
 11
-1.5754200719593321
 21
41.576680321711137
 31
0.0
  0
LINE
  5
E40
  8
0
 62
     0
 10
1.1742105850562621
 20
39.989180321711139
 30
0.0
 11
0.486802920802361
 21
40.386055321711133
 31
0.0
  0
LINE
  5
E41
  8
0
 62
     0
 10
3.236433577817956
 20
38.798555321711127
 30
0.0
 11
2.5490259135640541
 21
39.195430321711143
 31
0.0
  0
LINE
  5
E42
  8
0
 62
     0
 10
-3.6376429004670841
 20
41.179805606207253
 30
0.0
 11
-4.3250505647209847
 21
41.576680606207248
 31
0.0
  0
LINE
  5
E43
  8
0
 62
     0
 10
-1.5754199077053901
 20
39.989180606207249
 30
0.0
 11
-2.2628275719592912
 21
40.38605560620725
 31
0.0
  0
LINE
  5
E44
  8
0
 62
     0
 10
0.4868030850563039
 20
38.798555606207252
 30
0.0
 11
-0.2006045791975977
 21
39.195430606207253
 31
0.0
  0
LINE
  5
E45
  8
0
 62
     0
 10
2.5490260778179969
 20
37.60793060620724
 30
0.0
 11
1.8616184135640961
 21
38.004805606207242
 31
0.0
  0
LINE
  5
E46
  8
0
 62
     0
 10
4.5035016193098727
 20
36.479513626202362
 30
0.0
 11
3.9238414063257898
 21
36.814180606207238
 31
0.0
  0
LINE
  5
E47
  8
0
 62
     0
 10
-6.3872733932287344
 20
41.179805890703342
 30
0.0
 11
-7.0746810574826329
 21
41.576680890703329
 31
0.0
  0
LINE
  5
E48
  8
0
 62
     0
 10
-4.32505040046704
 20
39.989180890703331
 30
0.0
 11
-5.0124580647209402
 21
40.386055890703332
 31
0.0
  0
LINE
  5
E49
  8
0
 62
     0
 10
-2.2628274077053452
 20
38.798555890703327
 30
0.0
 11
-2.9502350719592449
 21
39.195430890703328
 31
0.0
  0
LINE
  5
E4A
  8
0
 62
     0
 10
-0.2006044149436517
 20
37.607930890703322
 30
0.0
 11
-0.8880120791975517
 21
38.004805890703317
 31
0.0
  0
LINE
  5
E4B
  8
0
 62
     0
 10
1.7566359115743351
 20
36.477917661319367
 30
0.0
 11
1.1742109135641421
 21
36.814180890703319
 31
0.0
  0
LINE
  5
E4C
  8
0
 62
     0
 10
3.923841570579734
 20
35.226680890703321
 30
0.0
 11
3.2364339063258329
 21
35.623555890703322
 31
0.0
  0
LINE
  5
E4D
  8
0
 62
     0
 10
-9.1369038859904652
 20
41.179806175199417
 30
0.0
 11
-9.4964983806901415
 21
41.387418153513387
 31
0.0
  0
LINE
  5
E4E
  8
0
 62
     0
 10
-7.0746808932287744
 20
39.989181175199427
 30
0.0
 11
-7.7620885574826728
 21
40.386056175199428
 31
0.0
  0
LINE
  5
E4F
  8
0
 62
     0
 10
-5.0124579004670791
 20
38.798556175199423
 30
0.0
 11
-5.6998655647209802
 21
39.195431175199431
 31
0.0
  0
LINE
  5
E50
  8
0
 62
     0
 10
-2.9502349077053851
 20
37.607931175199418
 30
0.0
 11
-3.6376425719592849
 21
38.00480617519942
 31
0.0
  0
LINE
  5
E51
  8
0
 62
     0
 10
-0.8880119149436911
 20
36.417306175199421
 30
0.0
 11
-1.5754195791975909
 21
36.814181175199423
 31
0.0
  0
LINE
  5
E52
  8
0
 62
     0
 10
3.2364340705796621
 20
34.03605617519942
 30
0.0
 11
2.5490264063257611
 21
34.432931175199421
 31
0.0
  0
LINE
  5
E53
  8
0
 62
     0
 10
-7.7620883932287716
 20
38.798556459695497
 30
0.0
 11
-8.4494960574826727
 21
39.195431459695499
 31
0.0
  0
LINE
  5
E54
  8
0
 62
     0
 10
-5.699865400467079
 20
37.607931459695493
 30
0.0
 11
-6.3872730647209792
 21
38.004806459695502
 31
0.0
  0
LINE
  5
E55
  8
0
 62
     0
 10
-3.6376424077053851
 20
36.417306459695489
 30
0.0
 11
-4.3250500719592848
 21
36.81418145969549
 31
0.0
  0
LINE
  5
E56
  8
0
 62
     0
 10
-1.5754194149436911
 20
35.226681459695492
 30
0.0
 11
-2.2628270791975922
 21
35.623556459695493
 31
0.0
  0
LINE
  5
E57
  8
0
 62
     0
 10
-8.4494958932288391
 20
37.60793174419166
 30
0.0
 11
-9.1369035574827393
 21
38.004806744191661
 31
0.0
  0
LINE
  5
E58
  8
0
 62
     0
 10
-6.3872729004671438
 20
36.417306744191663
 30
0.0
 11
-7.0746805647210431
 21
36.814181744191657
 31
0.0
  0
LINE
  5
E59
  8
0
 62
     0
 10
-4.3250499077054503
 20
35.226681744191652
 30
0.0
 11
-5.0124575719593487
 21
35.62355674419166
 31
0.0
  0
LINE
  5
E5A
  8
0
 62
     0
 10
-2.2628269149437559
 20
34.036056744191647
 30
0.0
 11
-2.9502345791976552
 21
34.432931744191649
 31
0.0
  0
LINE
  5
E5B
  8
0
 62
     0
 10
-0.4964983806901273
 20
33.016266489462993
 30
0.0
 11
-0.8880115864359616
 21
33.242306744191637
 31
0.0
  0
LINE
  5
E5C
  8
0
 62
     0
 10
-9.1369033932287387
 20
36.417307028687702
 30
0.0
 11
-9.4964983806901095
 21
36.624919291497747
 31
0.0
  0
LINE
  5
E5D
  8
0
 62
     0
 10
-7.074680400467046
 20
35.226682028687691
 30
0.0
 11
-7.7620880647209427
 21
35.623557028687699
 31
0.0
  0
LINE
  5
E5E
  8
0
 62
     0
 10
-5.0124574077053508
 20
34.036057028687686
 30
0.0
 11
-5.6998650719592501
 21
34.432932028687688
 31
0.0
  0
LINE
  5
E5F
  8
0
 62
     0
 10
-2.9502344149436568
 20
32.845432028687682
 30
0.0
 11
-3.6376420791975539
 21
33.242307028687677
 31
0.0
  0
LINE
  5
E60
  8
0
 62
     0
 10
-7.7620879004670433
 20
34.036057313183768
 30
0.0
 11
-8.4494955647209409
 21
34.43293231318377
 31
0.0
  0
LINE
  5
E61
  8
0
 62
     0
 10
-5.6998649077053489
 20
32.845432313183771
 30
0.0
 11
-6.3872725719592474
 21
33.242307313183758
 31
0.0
  0
LINE
  5
E62
  8
0
 62
     0
 10
-8.4494954004670912
 20
32.845432597679881
 30
0.0
 11
-9.1369030647209897
 21
33.242307597679883
 31
0.0
  0
LINE
  5
E63
  8
0
 62
     0
 10
-8.4494801248545777
 20
41.576603792261139
 30
0.0
 11
-9.1368877891084761
 21
41.179728792261137
 31
0.0
  0
LINE
  5
E64
  8
0
 62
     0
 10
-7.7620726248545937
 20
40.38597907675728
 30
0.0
 11
-8.449480289108493
 21
39.989104076757279
 31
0.0
  0
LINE
  5
E65
  8
0
 62
     0
 10
-5.6998496320929002
 20
41.57660407675727
 30
0.0
 11
-6.3872572963467977
 21
41.179729076757269
 31
0.0
  0
LINE
  5
E66
  8
0
 62
     0
 10
-9.1368881176162926
 20
38.004729361253339
 30
0.0
 11
-9.4964983806902161
 21
37.797108279064261
 31
0.0
  0
LINE
  5
E67
  8
0
 62
     0
 10
-7.0746651248545973
 20
39.195354361253337
 30
0.0
 11
-7.7620727891084949
 21
38.798479361253328
 31
0.0
  0
LINE
  5
E68
  8
0
 62
     0
 10
-5.012442132092902
 20
40.385979361253327
 30
0.0
 11
-5.6998497963467996
 21
39.989104361253332
 31
0.0
  0
LINE
  5
E69
  8
0
 62
     0
 10
-2.9502191393312058
 20
41.576604361253331
 30
0.0
 11
-3.6376268035851052
 21
41.179729361253322
 31
0.0
  0
LINE
  5
E6A
  8
0
 62
     0
 10
-8.4494806176163202
 20
36.814104645749453
 30
0.0
 11
-9.1368882818702204
 21
36.417229645749451
 31
0.0
  0
LINE
  5
E6B
  8
0
 62
     0
 10
-6.3872576248546258
 20
38.00472964574945
 30
0.0
 11
-7.0746652891085251
 21
37.607854645749448
 31
0.0
  0
LINE
  5
E6C
  8
0
 62
     0
 10
-4.3250346320929314
 20
39.195354645749447
 30
0.0
 11
-5.0124422963468289
 21
38.798479645749453
 31
0.0
  0
LINE
  5
E6D
  8
0
 62
     0
 10
-2.2628116393312361
 20
40.385979645749437
 30
0.0
 11
-2.950219303585135
 21
39.989104645749443
 31
0.0
  0
LINE
  5
E6E
  8
0
 62
     0
 10
-0.2005886465695426
 20
41.576604645749441
 30
0.0
 11
-0.8879963108234409
 21
41.17972964574944
 31
0.0
  0
LINE
  5
E6F
  8
0
 62
     0
 10
-7.7620731176163513
 20
35.623479930245509
 30
0.0
 11
-8.4494807818702498
 21
35.226604930245507
 31
0.0
  0
LINE
  5
E70
  8
0
 62
     0
 10
-5.699850124854656
 20
36.814104930245513
 30
0.0
 11
-6.3872577891085536
 21
36.417229930245512
 31
0.0
  0
LINE
  5
E71
  8
0
 62
     0
 10
-3.6376271320929612
 20
38.00472993024551
 30
0.0
 11
-4.3250347963468601
 21
37.607854930245502
 31
0.0
  0
LINE
  5
E72
  8
0
 62
     0
 10
-1.575404139331267
 20
39.1953549302455
 30
0.0
 11
-2.2628118035851652
 21
38.798479930245499
 31
0.0
  0
LINE
  5
E73
  8
0
 62
     0
 10
0.4868188534304272
 20
40.38597993024549
 30
0.0
 11
-0.2005888108234712
 21
39.989104930245489
 31
0.0
  0
LINE
  5
E74
  8
0
 62
     0
 10
2.5490418461921212
 20
41.576604930245487
 30
0.0
 11
1.8616341819382229
 21
41.179729930245493
 31
0.0
  0
LINE
  5
E75
  8
0
 62
     0
 10
-9.1368886103780351
 20
33.242230214741639
 30
0.0
 11
-9.4964983806901557
 21
33.034609417048721
 31
0.0
  0
LINE
  5
E76
  8
0
 62
     0
 10
-7.0746656176163389
 20
34.432855214741643
 30
0.0
 11
-7.7620732818702383
 21
34.035980214741627
 31
0.0
  0
LINE
  5
E77
  8
0
 62
     0
 10
-5.0124426248546436
 20
35.623480214741633
 30
0.0
 11
-5.6998502891085421
 21
35.226605214741632
 31
0.0
  0
LINE
  5
E78
  8
0
 62
     0
 10
-2.9502196320929501
 20
36.81410521474163
 30
0.0
 11
-3.637627296346849
 21
36.417230214741629
 31
0.0
  0
LINE
  5
E79
  8
0
 62
     0
 10
-0.8879966393312561
 20
38.004730214741627
 30
0.0
 11
-1.5754043035851539
 21
37.607855214741633
 31
0.0
  0
LINE
  5
E7A
  8
0
 62
     0
 10
1.174226353430438
 20
39.195355214741632
 30
0.0
 11
0.4868186891765403
 21
38.798480214741623
 31
0.0
  0
LINE
  5
E7B
  8
0
 62
     0
 10
3.2364493461921331
 20
40.385980214741622
 30
0.0
 11
2.5490416819382342
 21
39.98910521474162
 31
0.0
  0
LINE
  5
E7C
  8
0
 62
     0
 10
-6.3872581176162964
 20
33.242230499237728
 30
0.0
 11
-7.0746657818701939
 21
32.845355499237741
 31
0.0
  0
LINE
  5
E7D
  8
0
 62
     0
 10
-4.3250351248546011
 20
34.432855499237739
 30
0.0
 11
-5.0124427891084986
 21
34.035980499237731
 31
0.0
  0
LINE
  5
E7E
  8
0
 62
     0
 10
-2.2628121320929049
 20
35.623480499237729
 30
0.0
 11
-2.9502197963468029
 21
35.226605499237728
 31
0.0
  0
LINE
  5
E7F
  8
0
 62
     0
 10
-0.2005891393312109
 20
36.814105499237733
 30
0.0
 11
-0.8879968035851089
 21
36.417230499237718
 31
0.0
  0
LINE
  5
E80
  8
0
 62
     0
 10
1.861633853430483
 20
38.004730499237724
 30
0.0
 11
1.1742261891765851
 21
37.607855499237729
 31
0.0
  0
LINE
  5
E81
  8
0
 62
     0
 10
3.923856846192177
 20
39.195355499237721
 30
0.0
 11
3.236449181938279
 21
38.798480499237719
 31
0.0
  0
LINE
  5
E82
  8
0
 62
     0
 10
-3.6376276248546291
 20
33.242230783733852
 30
0.0
 11
-4.3250352891085271
 21
32.845355783733851
 31
0.0
  0
LINE
  5
E83
  8
0
 62
     0
 10
-1.5754046320929349
 20
34.432855783733842
 30
0.0
 11
-2.2628122963468331
 21
34.035980783733841
 31
0.0
  0
LINE
  5
E84
  8
0
 62
     0
 10
2.549041353430499
 20
36.814105783733872
 30
0.0
 11
1.966746444507407
 21
36.477917661319367
 31
0.0
  0
LINE
  5
E85
  8
0
 62
     0
 10
4.5035016193098718
 20
37.942513944359753
 30
0.0
 11
3.923856681938295
 21
37.607855783733861
 31
0.0
  0
LINE
  5
E86
  8
0
 62
     0
 10
-0.88799713209292
 20
33.242231068229913
 30
0.0
 11
-1.575404796346817
 21
32.845356068229911
 31
0.0
  0
LINE
  5
E87
  8
0
 62
     0
 10
3.236448853430514
 20
35.623481068229943
 30
0.0
 11
2.549041189176616
 21
35.226606068229941
 31
0.0
  0
LINE
  5
E88
  8
0
 62
     0
 10
3.923856353430494
 20
34.432856352726063
 30
0.0
 11
3.236448689176596
 21
34.035981352726061
 31
0.0
  0
LINE
  5
E89
  8
0
 62
     0
 10
3.9239135137870029
 20
41.576656424038887
 30
0.0
 11
3.9239135137870029
 21
42.174817706234762
 31
0.0
  0
LINE
  5
E8A
  8
0
 62
     0
 10
3.9239135137870029
 20
39.1954064240389
 30
0.0
 11
3.9239135137870029
 21
39.989156424038903
 31
0.0
  0
LINE
  5
E8B
  8
0
 62
     0
 10
3.9239135137870029
 20
36.814156424038892
 30
0.0
 11
3.9239135137870029
 21
37.607906424038902
 31
0.0
  0
LINE
  5
E8C
  8
0
 62
     0
 10
3.9239135137870029
 20
34.43290642403889
 30
0.0
 11
3.9239135137870029
 21
35.2266564240389
 31
0.0
  0
LINE
  5
E8D
  8
0
 62
     0
 10
2.5490985137870479
 20
41.576656424038887
 30
0.0
 11
2.5490985137870479
 21
42.174817706234762
 31
0.0
  0
LINE
  5
E8E
  8
0
 62
     0
 10
2.5490985137870479
 20
39.1954064240389
 30
0.0
 11
2.5490985137870479
 21
39.989156424038903
 31
0.0
  0
LINE
  5
E8F
  8
0
 62
     0
 10
2.5490985137870479
 20
36.814156424038892
 30
0.0
 11
2.5490985137870479
 21
37.607906424038902
 31
0.0
  0
LINE
  5
E90
  8
0
 62
     0
 10
2.5490985137870479
 20
34.43290642403889
 30
0.0
 11
2.5490985137870479
 21
35.2266564240389
 31
0.0
  0
LINE
  5
E91
  8
0
 62
     0
 10
1.1742835137870351
 20
41.57665642403888
 30
0.0
 11
1.1742835137870351
 21
42.174817706234762
 31
0.0
  0
LINE
  5
E92
  8
0
 62
     0
 10
1.1742835137870351
 20
39.195406424038893
 30
0.0
 11
1.1742835137870351
 21
39.989156424038889
 31
0.0
  0
LINE
  5
E93
  8
0
 62
     0
 10
1.1742835137870351
 20
36.814156424038892
 30
0.0
 11
1.1742835137870351
 21
37.607906424038887
 31
0.0
  0
LINE
  5
E94
  8
0
 62
     0
 10
-0.200531486212976
 20
41.57665642403888
 30
0.0
 11
-0.2005314862129758
 21
42.174817706234762
 31
0.0
  0
LINE
  5
E95
  8
0
 62
     0
 10
-0.2005314862129762
 20
39.195406424038893
 30
0.0
 11
-0.2005314862129759
 21
39.989156424038889
 31
0.0
  0
LINE
  5
E96
  8
0
 62
     0
 10
-0.2005314862129763
 20
36.814156424038892
 30
0.0
 11
-0.2005314862129761
 21
37.607906424038887
 31
0.0
  0
LINE
  5
E97
  8
0
 62
     0
 10
-1.575346486212988
 20
41.576656424038887
 30
0.0
 11
-1.575346486212988
 21
42.174817706234762
 31
0.0
  0
LINE
  5
E98
  8
0
 62
     0
 10
-1.575346486212988
 20
39.1954064240389
 30
0.0
 11
-1.575346486212988
 21
39.989156424038903
 31
0.0
  0
LINE
  5
E99
  8
0
 62
     0
 10
-1.575346486212988
 20
36.814156424038892
 30
0.0
 11
-1.575346486212988
 21
37.607906424038902
 31
0.0
  0
LINE
  5
E9A
  8
0
 62
     0
 10
-1.575346486212988
 20
34.43290642403889
 30
0.0
 11
-1.575346486212988
 21
35.2266564240389
 31
0.0
  0
LINE
  5
E9B
  8
0
 62
     0
 10
-1.575346486212988
 20
32.174817706234748
 30
0.0
 11
-1.575346486212988
 21
32.845406424038892
 31
0.0
  0
LINE
  5
E9C
  8
0
 62
     0
 10
-2.950161486213001
 20
41.576656424038887
 30
0.0
 11
-2.950161486213001
 21
42.174817706234762
 31
0.0
  0
LINE
  5
E9D
  8
0
 62
     0
 10
-2.950161486213001
 20
39.1954064240389
 30
0.0
 11
-2.950161486213001
 21
39.989156424038903
 31
0.0
  0
LINE
  5
E9E
  8
0
 62
     0
 10
-2.950161486213001
 20
36.814156424038892
 30
0.0
 11
-2.950161486213001
 21
37.607906424038902
 31
0.0
  0
LINE
  5
E9F
  8
0
 62
     0
 10
-2.950161486213001
 20
34.43290642403889
 30
0.0
 11
-2.950161486213001
 21
35.2266564240389
 31
0.0
  0
LINE
  5
EA0
  8
0
 62
     0
 10
-2.950161486213001
 20
32.174817706234748
 30
0.0
 11
-2.950161486213001
 21
32.845406424038892
 31
0.0
  0
LINE
  5
EA1
  8
0
 62
     0
 10
-4.3249764862129556
 20
41.576656424038887
 30
0.0
 11
-4.3249764862129556
 21
42.174817706234762
 31
0.0
  0
LINE
  5
EA2
  8
0
 62
     0
 10
-4.3249764862129556
 20
39.1954064240389
 30
0.0
 11
-4.3249764862129556
 21
39.989156424038903
 31
0.0
  0
LINE
  5
EA3
  8
0
 62
     0
 10
-4.3249764862129556
 20
36.814156424038892
 30
0.0
 11
-4.3249764862129556
 21
37.607906424038902
 31
0.0
  0
LINE
  5
EA4
  8
0
 62
     0
 10
-4.3249764862129556
 20
34.43290642403889
 30
0.0
 11
-4.3249764862129556
 21
35.2266564240389
 31
0.0
  0
LINE
  5
EA5
  8
0
 62
     0
 10
-4.3249764862129556
 20
32.174817706234748
 30
0.0
 11
-4.3249764862129556
 21
32.845406424038892
 31
0.0
  0
LINE
  5
EA6
  8
0
 62
     0
 10
-5.6997914862129679
 20
41.576656424038887
 30
0.0
 11
-5.6997914862129679
 21
42.174817706234762
 31
0.0
  0
LINE
  5
EA7
  8
0
 62
     0
 10
-5.6997914862129679
 20
39.1954064240389
 30
0.0
 11
-5.6997914862129679
 21
39.989156424038903
 31
0.0
  0
LINE
  5
EA8
  8
0
 62
     0
 10
-5.6997914862129679
 20
36.814156424038892
 30
0.0
 11
-5.6997914862129679
 21
37.607906424038902
 31
0.0
  0
LINE
  5
EA9
  8
0
 62
     0
 10
-5.6997914862129679
 20
34.43290642403889
 30
0.0
 11
-5.6997914862129679
 21
35.2266564240389
 31
0.0
  0
LINE
  5
EAA
  8
0
 62
     0
 10
-5.6997914862129679
 20
32.174817706234748
 30
0.0
 11
-5.6997914862129679
 21
32.845406424038892
 31
0.0
  0
LINE
  5
EAB
  8
0
 62
     0
 10
-7.0746064862129812
 20
41.576656424038887
 30
0.0
 11
-7.0746064862129812
 21
42.174817706234762
 31
0.0
  0
LINE
  5
EAC
  8
0
 62
     0
 10
-7.0746064862129812
 20
39.1954064240389
 30
0.0
 11
-7.0746064862129812
 21
39.989156424038903
 31
0.0
  0
LINE
  5
EAD
  8
0
 62
     0
 10
-7.0746064862129812
 20
36.814156424038892
 30
0.0
 11
-7.0746064862129812
 21
37.607906424038902
 31
0.0
  0
LINE
  5
EAE
  8
0
 62
     0
 10
-7.0746064862129812
 20
34.43290642403889
 30
0.0
 11
-7.0746064862129812
 21
35.2266564240389
 31
0.0
  0
LINE
  5
EAF
  8
0
 62
     0
 10
-7.0746064862129812
 20
32.174817706234748
 30
0.0
 11
-7.0746064862129812
 21
32.845406424038892
 31
0.0
  0
LINE
  5
EB0
  8
0
 62
     0
 10
-8.4494214862129944
 20
41.576656424038887
 30
0.0
 11
-8.4494214862129944
 21
42.174817706234762
 31
0.0
  0
LINE
  5
EB1
  8
0
 62
     0
 10
-8.4494214862129944
 20
39.1954064240389
 30
0.0
 11
-8.4494214862129944
 21
39.989156424038903
 31
0.0
  0
LINE
  5
EB2
  8
0
 62
     0
 10
-8.4494214862129944
 20
36.814156424038892
 30
0.0
 11
-8.4494214862129944
 21
37.607906424038902
 31
0.0
  0
LINE
  5
EB3
  8
0
 62
     0
 10
-8.4494214862129944
 20
34.43290642403889
 30
0.0
 11
-8.4494214862129944
 21
35.2266564240389
 31
0.0
  0
LINE
  5
EB4
  8
0
 62
     0
 10
-8.4494214862129944
 20
32.174817706234748
 30
0.0
 11
-8.4494214862129944
 21
32.845406424038892
 31
0.0
  0
ENDBLK
  5
EB6
  8
0
  0
BLOCK
  8
0
  2
*X47
 70
     1
 10
0.0
 20
0.0
 30
0.0
  3
*X47
  1

  0
LINE
  5
EC2
  8
0
 62
     0
 10
-8.8018864306610691
 20
81.73709910812704
 30
0.0
 11
-9.996162322406775
 21
80.542823216381308
 31
0.0
  0
LINE
  5
EC3
  8
0
 62
     0
 10
-6.9805560779950753
 20
81.313365430525735
 30
0.0
 11
-9.996162322406775
 21
78.297759186114035
 31
0.0
  0
LINE
  5
EC4
  8
0
 62
     0
 10
-4.8896611997914334
 20
81.159196278462076
 30
0.0
 11
-9.9961623224068035
 21
76.05269515584672
 31
0.0
  0
LINE
  5
EC5
  8
0
 62
     0
 10
-2.373685396468673
 20
81.43010805151755
 30
0.0
 11
-6.1543986247143456
 21
77.649394823271876
 31
0.0
  0
LINE
  5
EC6
  8
0
 62
     0
 10
-0.0000000000000995
 20
81.558729417718865
 30
0.0
 11
-3.445252253119321
 21
78.113477164599644
 31
0.0
  0
LINE
  5
EC7
  8
0
 62
     0
 10
-0.0000000000000711
 20
79.31366538745155
 30
0.0
 11
-1.225898317243064
 21
78.087767070208542
 31
0.0
  0
LINE
  5
EC8
  8
0
 62
     0
 10
0.9656669084033069
 20
78.034268265587613
 30
0.0
 11
0.7048901823528979
 21
77.773491539537204
 31
0.0
  0
LINE
  5
EC9
  8
0
 62
     0
 10
-0.0000000000000568
 20
80.163806608424267
 30
0.0
 11
-1.4854683516511491
 21
81.649274960075346
 31
0.0
  0
LINE
  5
ECA
  8
0
 62
     0
 10
-0.0028648670903237
 20
77.921607445247247
 30
0.0
 11
-3.3466772723398601
 21
81.265419850496784
 31
0.0
  0
LINE
  5
ECB
  8
0
 62
     0
 10
-2.4719106717973029
 20
78.145589219686912
 30
0.0
 11
-5.4947749818670673
 21
81.168453529756675
 31
0.0
  0
LINE
  5
ECC
  8
0
 62
     0
 10
-4.5636531422761371
 20
77.992267659898459
 30
0.0
 11
-8.1157728264697084
 21
81.544387344092016
 31
0.0
  0
LINE
  5
ECD
  8
0
 62
     0
 10
-6.3909295637975561
 20
77.574480051152634
 30
0.0
 11
-9.9961623224067182
 21
81.179712809761782
 31
0.0
  0
LINE
  5
ECE
  8
0
 62
     0
 10
-7.9458159712790462
 20
76.884302428366823
 30
0.0
 11
-9.9961623224067466
 21
78.934648779494523
 31
0.0
  0
LINE
  5
ECF
  8
0
 62
     0
 10
-9.1868815417748237
 20
75.880303968595257
 30
0.0
 11
-9.996162322406775
 21
76.689584749227208
 31
0.0
  0
LINE
  5
ED0
  8
0
 62
     0
 10
-9.9061955997050291
 20
74.354553996258204
 30
0.0
 11
-9.9961623224067466
 21
74.444520718959922
 31
0.0
  0
ENDBLK
  5
ED2
  8
0
  0
BLOCK
  8
0
  2
*X48
 70
     1
 10
0.0
 20
0.0
 30
0.0
  3
*X48
  1

  0
LINE
  5
ED4
  8
0
 62
     0
 10
-1.575423849798951
 20
78.089173778300861
 30
0.0
 11
-1.626199291659415
 21
78.118488993327219
 31
0.0
  0
LINE
  5
ED5
  8
0
 62
     0
 10
0.4867991429627426
 20
76.898548778300864
 30
0.0
 11
-0.2006085212911555
 21
77.295423778300844
 31
0.0
  0
LINE
  5
ED6
  8
0
 62
     0
 10
2.549022135724436
 20
75.707923778300867
 30
0.0
 11
1.861614471470538
 21
76.104798778300861
 31
0.0
  0
LINE
  5
ED7
  8
0
 62
     0
 10
4.6112451284861304
 20
74.517298778300869
 30
0.0
 11
3.923837464232232
 21
74.914173778300864
 31
0.0
  0
LINE
  5
ED8
  8
0
 62
     0
 10
-2.2628313497989758
 20
76.898549062796974
 30
0.0
 11
-2.9502390140528729
 21
77.295424062796982
 31
0.0
  0
LINE
  5
ED9
  8
0
 62
     0
 10
-0.2006083570372823
 20
75.707924062796991
 30
0.0
 11
-0.8880160212911799
 21
76.104799062796985
 31
0.0
  0
LINE
  5
EDA
  8
0
 62
     0
 10
1.861614635724411
 20
74.517299062796994
 30
0.0
 11
1.1742069714705139
 21
74.914174062796974
 31
0.0
  0
LINE
  5
EDB
  8
0
 62
     0
 10
3.9238376284861052
 20
73.326674062796997
 30
0.0
 11
3.2364299642322081
 21
73.723549062796991
 31
0.0
  0
LINE
  5
EDC
  8
0
 62
     0
 10
-5.0124618425606373
 20
76.898549347293056
 30
0.0
 11
-5.699869506814534
 21
77.29542434729305
 31
0.0
  0
LINE
  5
EDD
  8
0
 62
     0
 10
-2.9502388497989429
 20
75.707924347293044
 30
0.0
 11
-3.63764651405284
 21
76.104799347293053
 31
0.0
  0
LINE
  5
EDE
  8
0
 62
     0
 10
-0.8880158570372493
 20
74.517299347293061
 30
0.0
 11
-1.575423521291146
 21
74.914174347293056
 31
0.0
  0
LINE
  5
EDF
  8
0
 62
     0
 10
1.1742071357244439
 20
73.326674347293064
 30
0.0
 11
0.4867994714705471
 21
73.723549347293059
 31
0.0
  0
LINE
  5
EE0
  8
0
 62
     0
 10
3.2364301284861381
 20
72.136049347293067
 30
0.0
 11
2.5490224642322401
 21
72.532924347293061
 31
0.0
  0
LINE
  5
EE1
  8
0
 62
     0
 10
-7.7620923353222597
 20
76.898549631789109
 30
0.0
 11
-7.8410374787079418
 21
76.944128631574046
 31
0.0
  0
LINE
  5
EE2
  8
0
 62
     0
 10
-5.6998693425605671
 20
75.707924631789112
 30
0.0
 11
-6.3872770068144638
 21
76.104799631789106
 31
0.0
  0
LINE
  5
EE3
  8
0
 62
     0
 10
-3.6376463497988718
 20
74.517299631789115
 30
0.0
 11
-4.3250540140527711
 21
74.914174631789109
 31
0.0
  0
LINE
  5
EE4
  8
0
 62
     0
 10
-1.5754233570371781
 20
73.326674631789103
 30
0.0
 11
-2.2628310212910758
 21
73.723549631789112
 31
0.0
  0
LINE
  5
EE5
  8
0
 62
     0
 10
0.4867996357245151
 20
72.13604963178912
 30
0.0
 11
-0.2006080285293827
 21
72.532924631789115
 31
0.0
  0
LINE
  5
EE6
  8
0
 62
     0
 10
2.1453104437375732
 20
71.17850797032888
 30
0.0
 11
1.861614964232311
 21
71.342299631789118
 31
0.0
  0
LINE
  5
EE7
  8
0
 62
     0
 10
-8.4494998353223121
 20
75.707924916285265
 30
0.0
 11
-9.0310683618476624
 21
76.043693661626889
 31
0.0
  0
LINE
  5
EE8
  8
0
 62
     0
 10
-6.3872768425606186
 20
74.517299916285268
 30
0.0
 11
-7.0746845068145161
 21
74.914174916285262
 31
0.0
  0
LINE
  5
EE9
  8
0
 62
     0
 10
-4.325053849798925
 20
73.32667491628527
 30
0.0
 11
-5.0124615140528226
 21
73.723549916285265
 31
0.0
  0
LINE
  5
EEA
  8
0
 62
     0
 10
-2.2628308570372302
 20
72.136049916285273
 30
0.0
 11
-2.9502385212911291
 21
72.532924916285268
 31
0.0
  0
LINE
  5
EEB
  8
0
 62
     0
 10
-0.2006078642755362
 20
70.945424916285276
 30
0.0
 11
-0.8880155285294346
 21
71.34229991628527
 31
0.0
  0
LINE
  5
EEC
  8
0
 62
     0
 10
-9.1369073353223218
 20
74.517300200781364
 30
0.0
 11
-9.8039211793828933
 21
74.902400823202953
 31
0.0
  0
LINE
  5
EED
  8
0
 62
     0
 10
-7.0746843425606292
 20
73.326675200781381
 30
0.0
 11
-7.7620920068145258
 21
73.723550200781375
 31
0.0
  0
LINE
  5
EEE
  8
0
 62
     0
 10
-5.0124613497989339
 20
72.136050200781384
 30
0.0
 11
-5.6998690140528332
 21
72.532925200781364
 31
0.0
  0
LINE
  5
EEF
  8
0
 62
     0
 10
-2.9502383570372408
 20
70.945425200781386
 30
0.0
 11
-3.6376460212911388
 21
71.342300200781381
 31
0.0
  0
LINE
  5
EF0
  8
0
 62
     0
 10
-7.7620918425606691
 20
72.136050485277494
 30
0.0
 11
-8.4494995068145666
 21
72.532925485277488
 31
0.0
  0
LINE
  5
EF1
  8
0
 62
     0
 10
-5.6998688497989747
 20
70.945425485277497
 30
0.0
 11
-6.3872765140528731
 21
71.342300485277491
 31
0.0
  0
LINE
  5
EF2
  8
0
 62
     0
 10
-7.0746611827609627
 20
77.295347533347027
 30
0.0
 11
-7.7620688470148611
 21
76.898472533347032
 31
0.0
  0
LINE
  5
EF3
  8
0
 62
     0
 10
-8.4494766755227602
 20
74.914097817843114
 30
0.0
 11
-9.1368843397766604
 21
74.51722281784312
 31
0.0
  0
LINE
  5
EF4
  8
0
 62
     0
 10
-6.3872536827610658
 20
76.104722817843111
 30
0.0
 11
-7.0746613470149651
 21
75.707847817843117
 31
0.0
  0
LINE
  5
EF5
  8
0
 62
     0
 10
-4.3250306899993713
 20
77.295347817843108
 30
0.0
 11
-5.0124383542532689
 21
76.898472817843114
 31
0.0
  0
LINE
  5
EF6
  8
0
 62
     0
 10
-2.8604938885701729
 20
78.140898534386366
 30
0.0
 11
-2.950215361491574
 21
78.089097817843111
 31
0.0
  0
LINE
  5
EF7
  8
0
 62
     0
 10
-7.76206917552269
 20
73.723473102339227
 30
0.0
 11
-8.4494768397765885
 21
73.326598102339233
 31
0.0
  0
LINE
  5
EF8
  8
0
 62
     0
 10
-5.6998461827609939
 20
74.914098102339224
 30
0.0
 11
-6.3872538470148932
 21
74.51722310233923
 31
0.0
  0
LINE
  5
EF9
  8
0
 62
     0
 10
-3.637623189999299
 20
76.104723102339221
 30
0.0
 11
-4.325030854253197
 21
75.707848102339227
 31
0.0
  0
LINE
  5
EFA
  8
0
 62
     0
 10
-1.575400197237605
 20
77.295348102339204
 30
0.0
 11
-2.2628078614915021
 21
76.898473102339224
 31
0.0
  0
LINE
  5
EFB
  8
0
 62
     0
 10
-7.0746616755227034
 20
72.532848386835354
 30
0.0
 11
-7.762069339776601
 21
72.13597338683536
 31
0.0
  0
LINE
  5
EFC
  8
0
 62
     0
 10
-5.0124386827610081
 20
73.723473386835352
 30
0.0
 11
-5.6998463470149057
 21
73.326598386835357
 31
0.0
  0
LINE
  5
EFD
  8
0
 62
     0
 10
-2.9502156899993142
 20
74.914098386835349
 30
0.0
 11
-3.6376233542532121
 21
74.517223386835354
 31
0.0
  0
LINE
  5
EFE
  8
0
 62
     0
 10
-0.8879926972376201
 20
76.104723386835346
 30
0.0
 11
-1.5754003614915171
 21
75.707848386835352
 31
0.0
  0
LINE
  5
EFF
  8
0
 62
     0
 10
1.174230295524074
 20
77.295348386835343
 30
0.0
 11
0.4868226312701767
 21
76.898473386835335
 31
0.0
  0
LINE
  5
F00
  8
0
 62
     0
 10
-6.3872541755226893
 20
71.342223671331411
 30
0.0
 11
-6.8672410846072838
 21
71.065103100163924
 31
0.0
  0
LINE
  5
F01
  8
0
 62
     0
 10
-4.3250311827609931
 20
72.532848671331408
 30
0.0
 11
-5.0124388470148906
 21
72.135973671331413
 31
0.0
  0
LINE
  5
F02
  8
0
 62
     0
 10
-2.2628081899992991
 20
73.723473671331405
 30
0.0
 11
-2.9502158542531971
 21
73.326598671331411
 31
0.0
  0
LINE
  5
F03
  8
0
 62
     0
 10
-0.2005851972376051
 20
74.914098671331402
 30
0.0
 11
-0.8879928614915026
 21
74.517223671331394
 31
0.0
  0
LINE
  5
F04
  8
0
 62
     0
 10
1.861637795524089
 20
76.104723671331399
 30
0.0
 11
1.174230131270191
 21
75.707848671331405
 31
0.0
  0
LINE
  5
F05
  8
0
 62
     0
 10
-3.6376236827610571
 20
71.342223955827507
 30
0.0
 11
-4.3250313470149546
 21
70.945348955827512
 31
0.0
  0
LINE
  5
F06
  8
0
 62
     0
 10
-1.5754006899993629
 20
72.532848955827504
 30
0.0
 11
-2.2628083542532611
 21
72.135973955827509
 31
0.0
  0
LINE
  5
F07
  8
0
 62
     0
 10
0.4868223027623309
 20
73.723473955827501
 30
0.0
 11
-0.2005853614915667
 21
73.326598955827507
 31
0.0
  0
LINE
  5
F08
  8
0
 62
     0
 10
2.5490452955240248
 20
74.914098955827498
 30
0.0
 11
1.861637631270127
 21
74.517223955827504
 31
0.0
  0
LINE
  5
F09
  8
0
 62
     0
 10
4.2028061505812104
 20
75.868898230670027
 30
0.0
 11
3.9238606240318221
 21
75.707848955827501
 31
0.0
  0
LINE
  5
F0A
  8
0
 62
     0
 10
-0.8879931899993176
 20
71.342224240323603
 30
0.0
 11
-1.575400854253215
 21
70.945349240323608
 31
0.0
  0
LINE
  5
F0B
  8
0
 62
     0
 10
1.1742298027623761
 20
72.5328492403236
 30
0.0
 11
0.4868221385084786
 21
72.135974240323605
 31
0.0
  0
LINE
  5
F0C
  8
0
 62
     0
 10
3.2364527955240701
 20
73.723474240323597
 30
0.0
 11
2.5490451312701721
 21
73.326599240323603
 31
0.0
  0
LINE
  5
F0D
  8
0
 62
     0
 10
4.8712795012875461
 20
74.667341878974526
 30
0.0
 11
4.6112681240318674
 21
74.5172242403236
 31
0.0
  0
LINE
  5
F0E
  8
0
 62
     0
 10
1.861637302762378
 20
71.342224524819741
 30
0.0
 11
1.1742296385084801
 21
70.945349524819747
 31
0.0
  0
LINE
  5
F0F
  8
0
 62
     0
 10
3.9238602955240731
 20
72.532849524819738
 30
0.0
 11
3.2364526312701738
 21
72.135974524819744
 31
0.0
  0
LINE
  5
F10
  8
0
 62
     0
 10
3.923913513787006
 20
74.914156424038879
 30
0.0
 11
3.923913513787006
 21
75.707906424038882
 31
0.0
  0
LINE
  5
F11
  8
0
 62
     0
 10
3.923913513787006
 20
72.53290642403887
 30
0.0
 11
3.923913513787006
 21
73.326656424038873
 31
0.0
  0
LINE
  5
F12
  8
0
 62
     0
 10
2.5490985137870501
 20
74.914156424038879
 30
0.0
 11
2.5490985137870501
 21
75.707906424038882
 31
0.0
  0
LINE
  5
F13
  8
0
 62
     0
 10
2.5490985137870501
 20
72.53290642403887
 30
0.0
 11
2.5490985137870501
 21
73.326656424038873
 31
0.0
  0
LINE
  5
F14
  8
0
 62
     0
 10
1.174283513787038
 20
77.295406424038902
 30
0.0
 11
1.174283513787038
 21
77.645054405803535
 31
0.0
  0
LINE
  5
F15
  8
0
 62
     0
 10
1.174283513787038
 20
74.914156424038893
 30
0.0
 11
1.174283513787038
 21
75.707906424038896
 31
0.0
  0
LINE
  5
F16
  8
0
 62
     0
 10
1.174283513787038
 20
72.532906424038885
 30
0.0
 11
1.174283513787038
 21
73.326656424038873
 31
0.0
  0
LINE
  5
F17
  8
0
 62
     0
 10
1.174283513787038
 20
70.821095685301316
 30
0.0
 11
1.174283513787038
 21
70.945406424038879
 31
0.0
  0
LINE
  5
F18
  8
0
 62
     0
 10
-0.2005314862129736
 20
77.295406424038902
 30
0.0
 11
-0.2005314862129736
 21
77.955937722986135
 31
0.0
  0
LINE
  5
F19
  8
0
 62
     0
 10
-0.2005314862129738
 20
74.914156424038893
 30
0.0
 11
-0.2005314862129738
 21
75.707906424038896
 31
0.0
  0
LINE
  5
F1A
  8
0
 62
     0
 10
-0.200531486212974
 20
72.532906424038885
 30
0.0
 11
-0.2005314862129739
 21
73.326656424038873
 31
0.0
  0
LINE
  5
F1B
  8
0
 62
     0
 10
-0.2005314862129741
 20
70.510212368118687
 30
0.0
 11
-0.2005314862129741
 21
70.945406424038879
 31
0.0
  0
LINE
  5
F1C
  8
0
 62
     0
 10
-1.575346486212986
 20
77.295406424038902
 30
0.0
 11
-1.575346486212986
 21
78.089156424038904
 31
0.0
  0
LINE
  5
F1D
  8
0
 62
     0
 10
-1.575346486212986
 20
74.914156424038893
 30
0.0
 11
-1.575346486212986
 21
75.707906424038896
 31
0.0
  0
LINE
  5
F1E
  8
0
 62
     0
 10
-1.575346486212986
 20
72.532906424038885
 30
0.0
 11
-1.575346486212986
 21
73.326656424038873
 31
0.0
  0
LINE
  5
F1F
  8
0
 62
     0
 10
-1.575346486212986
 20
70.350924094702521
 30
0.0
 11
-1.575346486212986
 21
70.945406424038879
 31
0.0
  0
LINE
  5
F20
  8
0
 62
     0
 10
-2.9501614862129979
 20
77.295406424038902
 30
0.0
 11
-2.9501614862129979
 21
78.089156424038904
 31
0.0
  0
LINE
  5
F21
  8
0
 62
     0
 10
-2.9501614862129979
 20
74.914156424038893
 30
0.0
 11
-2.9501614862129979
 21
75.707906424038896
 31
0.0
  0
LINE
  5
F22
  8
0
 62
     0
 10
-2.9501614862129979
 20
72.532906424038885
 30
0.0
 11
-2.9501614862129979
 21
73.326656424038873
 31
0.0
  0
LINE
  5
F23
  8
0
 62
     0
 10
-2.9501614862129979
 20
70.327866472408914
 30
0.0
 11
-2.9501614862129979
 21
70.945406424038879
 31
0.0
  0
LINE
  5
F24
  8
0
 62
     0
 10
-4.3249764862129538
 20
77.295406424038902
 30
0.0
 11
-4.3249764862129538
 21
78.025789529341793
 31
0.0
  0
LINE
  5
F25
  8
0
 62
     0
 10
-4.3249764862129538
 20
74.914156424038893
 30
0.0
 11
-4.3249764862129538
 21
75.707906424038896
 31
0.0
  0
LINE
  5
F26
  8
0
 62
     0
 10
-4.3249764862129538
 20
72.532906424038885
 30
0.0
 11
-4.3249764862129538
 21
73.326656424038873
 31
0.0
  0
LINE
  5
F27
  8
0
 62
     0
 10
-4.3249764862129538
 20
70.440360561762986
 30
0.0
 11
-4.3249764862129538
 21
70.945406424038879
 31
0.0
  0
LINE
  5
F28
  8
0
 62
     0
 10
-5.6997914862129671
 20
77.295406424038902
 30
0.0
 11
-5.6997914862129671
 21
77.773386225992198
 31
0.0
  0
LINE
  5
F29
  8
0
 62
     0
 10
-5.6997914862129671
 20
74.914156424038893
 30
0.0
 11
-5.6997914862129671
 21
75.707906424038896
 31
0.0
  0
LINE
  5
F2A
  8
0
 62
     0
 10
-5.6997914862129671
 20
72.532906424038885
 30
0.0
 11
-5.6997914862129671
 21
73.326656424038873
 31
0.0
  0
LINE
  5
F2B
  8
0
 62
     0
 10
-5.6997914862129671
 20
70.692763865112624
 30
0.0
 11
-5.6997914862129671
 21
70.945406424038879
 31
0.0
  0
LINE
  5
F2C
  8
0
 62
     0
 10
-7.0746064862129794
 20
77.295406424038887
 30
0.0
 11
-7.0746064862129794
 21
77.315730848574489
 31
0.0
  0
LINE
  5
F2D
  8
0
 62
     0
 10
-7.0746064862129794
 20
74.914156424038879
 30
0.0
 11
-7.0746064862129794
 21
75.707906424038882
 31
0.0
  0
LINE
  5
F2E
  8
0
 62
     0
 10
-7.0746064862129794
 20
72.53290642403887
 30
0.0
 11
-7.0746064862129794
 21
73.326656424038873
 31
0.0
  0
LINE
  5
F2F
  8
0
 62
     0
 10
-8.4494214862129908
 20
74.914156424038879
 30
0.0
 11
-8.4494214862129908
 21
75.707906424038882
 31
0.0
  0
LINE
  5
F30
  8
0
 62
     0
 10
-8.4494214862129908
 20
72.53290642403887
 30
0.0
 11
-8.4494214862129908
 21
73.326656424038873
 31
0.0
  0
ENDBLK
  5
F32
  8
0
  0
BLOCK
  8
0
  2
*U49
 70
     1
 10
0.0
 20
0.0
 30
0.0
  3
*U49
  1

  0
TEXT
  5
F64
  8
0
 62
     2
 10
90.338048688544035
 20
13.0
 30
0.0
 40
3.0
  1
85
  7
ISO
  0
ENDBLK
  5
F66
  8
0
  0
BLOCK
  8
0
  2
*U50
 70
     1
 10
0.0
 20
0.0
 30
0.0
  3
*U50
  1

  0
TEXT
  5
F68
  8
0
 62
     2
 10
46.388048688543797
 20
13.00000000000003
 30
0.0
 40
3.0
  1
5
  7
ISO
  0
ENDBLK
  5
F6A
  8
0
  0
BLOCK
  8
0
  2
*U51
 70
     1
 10
0.0
 20
0.0
 30
0.0
  3
*U51
  1

  0
TEXT
  5
F6C
  8
0
 62
     2
 10
20.18804868854382
 20
13.00000000000006
 30
0.0
 40
3.0
  1
45
  7
ISO
  0
ENDBLK
  5
F6E
  8
0
  0
BLOCK
  8
0
  2
*U52
 70
     1
 10
0.0
 20
0.0
 30
0.0
  3
*U52
  1

  0
TEXT
  5
F70
  8
0
 62
     2
 10
64.591406478144862
 20
1.0
 30
0.0
 40
3.0
  1
135
  7
ISO
  0
ENDBLK
  5
F72
  8
0
  0
BLOCK
  8
0
  2
*U53
 70
     1
 10
0.0
 20
0.0
 30
0.0
  3
*U53
  1

  0
TEXT
  5
FF1
  8
0
 62
     2
 10
223.25694460060811
 20
742.68797400912399
 30
0.0
 40
3.0
  1
50
 50
90.0
  7
BYGG-014554$0$ISO
  0
ENDBLK
  5
FF3
  8
0
  0
BLOCK
  8
0
  2
*U54
 70
     1
 10
0.0
 20
0.0
 30
0.0
  3
*U54
  1

  0
TEXT
  5
FF5
  8
0
 62
     2
 10
176.95869673732579
 20
710.66043879070753
 30
0.0
 40
3.0
  1
67
  7
BYGG-014554$0$ISO
  0
ENDBLK
  5
FF7
  8
0
  0
BLOCK
  8
0
  2
*U55
 70
     1
 10
0.0
 20
0.0
 30
0.0
  3
*U55
  1

  0
TEXT
  5
111D
  8
0
 62
     2
 10
9.8557560606756027
 20
27.578738984027439
 30
0.0
 40
3.0
  1
25.2
  7
BYGG-018579$0$ISO
  0
ENDBLK
  5
111F
  8
0
  0
BLOCK
  8
0
  2
*U56
 70
     1
 10
0.0
 20
0.0
 30
0.0
  3
*U56
  1

  0
TEXT
  5
1121
  8
0
 62
     2
 10
32.573422838309398
 20
5.9850427023584851
 30
0.0
 40
3.0
  1
8
 50
90.0
  7
BYGG-018579$0$ISO
  0
ENDBLK
  5
1123
  8
0
  0
BLOCK
  8
0
  2
*U57
 70
     1
 10
0.0
 20
0.0
 30
0.0
  3
*U57
  1

  0
TEXT
  5
1125
  8
0
 62
     2
 10
39.106976928176209
 20
10.23504270235896
 30
0.0
 40
3.0
  1
18
 50
90.0
  7
BYGG-018579$0$ISO
  0
ENDBLK
  5
1127
  8
0
  0
BLOCK
  8
0
  2
*U58
 70
     1
 10
0.0
 20
0.0
 30
0.0
  3
*U58
  1

  0
TEXT
  5
11A5
  8
0
 62
     2
 10
822.46231930336307
 20
606.73114493365938
 30
0.0
 40
3.0
  1
45
  7
BYGG-014533$0$ISO
  0
ENDBLK
  5
11A7
  8
0
  0
BLOCK
  8
0
  2
*U59
 70
     1
 10
0.0
 20
0.0
 30
0.0
  3
*U59
  1

  0
TEXT
  5
11A9
  8
0
 62
     2
 10
857.95933842027637
 20
642.22349427798235
 30
0.0
 40
3.0
  1
50
 50
90.0
  7
BYGG-014533$0$ISO
  0
ENDBLK
  5
11AB
  8
0
  0
BLOCK
  8
0
  2
*U60
 70
     1
 10
0.0
 20
0.0
 30
0.0
  3
*U60
  1

  0
TEXT
  5
126C
  8
0
 10
29.803395492280899
 20
33.782990732447793
 30
0.0
 40
3.0
  1
43
  7
BYGG-014171$0$ISO
  0
ENDBLK
  5
126E
  8
0
  0
BLOCK
  8
0
  2
*U61
 70
     1
 10
0.0
 20
0.0
 30
0.0
  3
*U61
  1

  0
TEXT
  5
127A
  8
0
 10
1.2529114003368671
 20
8.4853058116348645
 30
0.0
 40
3.0
  1
10
 50
90.0
  7
BYGG-014171$0$ISO
  0
ENDBLK
  5
127C
  8
0
  0
BLOCK
  8
0
  2
*U62
 70
     1
 10
0.0
 20
0.0
 30
0.0
  3
*U62
  1

  0
TEXT
  5
127E
  8
0
 10
61.795288428634571
 20
14.13448888250101
 30
0.0
 40
3.0
  1
22
 50
90.0
  7
BYGG-014171$0$ISO
  0
ENDBLK
  5
1280
  8
0
  0
BLOCK
  8
0
  2
*U63
 70
     1
 10
0.0
 20
0.0
 30
0.0
  3
*U63
  1

  0
TEXT
  5
1287
  8
0
 62
     2
 10
139.54664424298809
 20
73.745045576237573
 30
0.0
 40
3.0
  1
25.2
 50
90.000000000000028
  7
BYGG-018579$0$ISO
  0
ENDBLK
  5
1289
  8
0
  0
BLOCK
  8
0
  2
*U64
 70
     1
 10
0.0
 20
0.0
 30
0.0
  3
*U64
  1

  0
TEXT
  5
128B
  8
0
 62
     2
 10
122.0535385125002
 20
96.462712353871396
 30
0.0
 40
3.0
  1
8
 50
180.0
  7
BYGG-018579$0$ISO
  0
ENDBLK
  5
128D
  8
0
  0
BLOCK
  8
0
  2
*U65
 70
     1
 10
0.0
 20
0.0
 30
0.0
  3
*U65
  1

  0
TEXT
  5
128F
  8
0
 62
     2
 10
127.80353851250069
 20
102.99626644373819
 30
0.0
 40
3.0
  1
18
 50
180.0
  7
BYGG-018579$0$ISO
  0
ENDBLK
  5
1291
  8
0
  0
BLOCK
  8
0
  2
*U66
 70
     1
 10
0.0
 20
0.0
 30
0.0
  3
*U66
  1

  0
TEXT
  5
1293
  8
0
 62
     2
 10
20.191406478144689
 20
96.591959925980177
 30
0.0
 40
3.0
  1
45
  7
BYGG-014533$0$ISO
  0
ENDBLK
  5
1295
  8
0
  0
BLOCK
  8
0
  2
*U67
 70
     1
 10
0.0
 20
0.0
 30
0.0
  3
*U67
  1

  0
TEXT
  5
1297
  8
0
 62
     2
 10
-12.68134857005681
 20
54.897248376932957
 30
0.0
 40
3.0
  1
50
 50
90.0
  7
BYGG-014533$0$ISO
  0
ENDBLK
  5
1299
  8
0
  0
BLOCK
  8
0
  2
*U68
 70
     1
 10
0.0
 20
0.0
 30
0.0
  3
*U68
  1

  0
TEXT
  5
129B
  8
0
 10
71.500042330951231
 20
58.184911573375082
 30
0.0
 40
3.0
  1
43
 50
90.000000000000028
  7
BYGG-014171$0$ISO
  0
ENDBLK
  5
129D
  8
0
  0
BLOCK
  8
0
  2
*U69
 70
     1
 10
0.0
 20
0.0
 30
0.0
  3
*U69
  1

  0
TEXT
  5
129F
  8
0
 10
51.804719614862719
 20
29.634427481431061
 30
0.0
 40
3.0
  1
10
 50
180.0
  7
BYGG-014171$0$ISO
  0
ENDBLK
  5
12A1
  8
0
  0
BLOCK
  8
0
  2
*U70
 70
     1
 10
0.0
 20
0.0
 30
0.0
  3
*U70
  1

  0
TEXT
  5
12A3
  8
0
 10
58.155536543996568
 20
90.176804509728782
 30
0.0
 40
3.0
  1
22
 50
180.0
  7
BYGG-014171$0$ISO
  0
ENDBLK
  5
12A5
  8
0
  0
BLOCK
  8
0
  2
*U71
 70
     1
 10
0.0
 20
0.0
 30
0.0
  3
*U71
  1

  0
TEXT
  5
1595
  8
0
 62
     2
 10
127.7915501553106
 20
54.895862505368733
 30
0.0
 40
3.0
  1
50
 50
90.0
  7
BYGG-014554$0$ISO
  0
ENDBLK
  5
1597
  8
0
  0
BLOCK
  8
0
  2
*U72
 70
     1
 10
0.0
 20
0.0
 30
0.0
  3
*U72
  1

  0
TEXT
  5
1599
  8
0
 62
     2
 10
81.493302292028247
 20
22.868327286952169
 30
0.0
 40
3.0
  1
67
  7
BYGG-014554$0$ISO
  0
ENDBLK
  5
159B
  8
0
  0
BLOCK
  8
0
  2
*U73
 70
     1
 10
0.0
 20
0.0
 30
0.0
  3
*U73
  1

  0
TEXT
  5
159D
  8
0
 62
     2
 10
139.54664424298809
 20
32.945045576232182
 30
0.0
 40
3.0
  1
25.2
 50
90.0
  7
BYGG-018579$0$ISO
  0
ENDBLK
  5
159F
  8
0
  0
BLOCK
  8
0
  2
*U74
 70
     1
 10
0.0
 20
0.0
 30
0.0
  3
*U74
  1

  0
TEXT
  5
15A1
  8
0
 62
     2
 10
119.9535385125003
 20
17.531374861590489
 30
0.0
 40
3.0
  1
8
  7
BYGG-018579$0$ISO
  0
ENDBLK
  5
15A3
  8
0
  0
BLOCK
  8
0
  2
*U75
 70
     1
 10
0.0
 20
0.0
 30
0.0
  3
*U75
  1

  0
TEXT
  5
15A5
  8
0
 62
     2
 10
124.2035385125007
 20
10.99782077172368
 30
0.0
 40
3.0
  1
18
  7
BYGG-018579$0$ISO
  0
ENDBLK
  5
15A7
  8
0
  0
ENDSEC
  0
SECTION
  2
ENTITIES
  0
INSERT
  5
36
  8
SAPA_ANSLUTNING
  6
CONTINUOUS
  2
*X46
 10
0.0
 20
0.0
 30
0.0
1001
ACAD
1000
HATCH
1002
{
1070
    19
1000
HEX
1040
0.25
1040
1.5707963267948959
1000
ASC_BOUNDS
1070
     1
1070
     1
1070
     1
1005
39
1000
ASC_SEEDPOINT
1011
-2.2625221312438248
1021
0.0
1031
0.0
1021
38.650541135001617
1031
0.0
1000
R14_HATCH_DATA
1000
36
1011
1.0
1021
0.0
1031
0.0
1021
0.0
1031
0.0
1011
0.0
1021
0.0
1031
0.0
1021
1.0
1031
0.0
1011
0.0
1021
0.0
1031
0.0
1021
0.0
1031
1.0
1040
0.0
1010
0.0
1020
0.0
1030
1.0
1000
HEX
1070
     0
1070
     1
1071
        1
1071
        7
1070
     1
1070
     1
1071
        9
1040
-9.4964983806901255
1040
42.174817706234762
1040
0.0
1040
-9.4964983806901255
1040
32.174817706234762
1040
0.0
1040
-0.4964983806901257
1040
32.174817706234762
1040
0.0
1040
-0.4964983806901257
1040
35.324657631892507
1040
0.0
1040
0.8779034025745929
1040
36.477917661319339
1040
0.0
1040
2.3288004586212319
1040
36.477917661319331
1040
0.0
1040
2.3288004586212319
1040
35.049609979248238
1040
0.992377994856252
1040
4.5035016193098736
1040
35.058178468033788
1040
0.0
1040
4.5035016193098736
1040
42.174817706234762
1040
0.0
1071
        1
1005
39
1070
     0
1070
     1
1040
1.5707963267948959
1040
0.25
1070
     0
1070
     3
1040
1.5707963267948959
1040
364.12544351378699
1040
-37.004593575961131
1040
-1.374814999999999
1040
0.0000000000000001
1070
     2
1040
0.79375
1040
-1.587499999999999
1040
3.6651914291880909
1040
364.12544351378699
1040
-37.004593575961131
1040
0.6874074999999995
1040
-1.190624715503902
1070
     2
1040
0.7937499999999998
1040
-1.587499999999999
1040
2.6179938779914931
1040
364.12544351378699
1040
-36.210843575961121
1040
-0.6874075000000002
1040
-1.190624715503902
1070
     2
1040
0.79375
1040
-1.587499999999999
1040
0.0913508346182003
1071
        1
1040
-2.2625221312438248
1040
38.650541135001617
1040
0.0
1002
}
  0
POLYLINE
  5
39
  8
SAPA_ANSLUTNING
 66
     1
 10
0.0
 20
0.0
 30
0.0
 70
     1
1001
ACAD
1000
ASC_BOUNDS
1002
{
1070
    19
1005
36
1002
}
  0
VERTEX
  5
EB7
  8
SAPA_ANSLUTNING
 10
2.3288004586212319
 20
36.477917661319339
 30
0.0
  0
VERTEX
  5
EB8
  8
SAPA_ANSLUTNING
 10
0.8779034025745904
 20
36.477917661319339
 30
0.0
  0
VERTEX
  5
EB9
  8
SAPA_ANSLUTNING
 10
-0.4964983806901256
 20
35.324657631892507
 30
0.0
  0
VERTEX
  5
EBA
  8
SAPA_ANSLUTNING
 10
-0.4964983806901256
 20
32.174817706234762
 30
0.0
  0
VERTEX
  5
EBB
  8
SAPA_ANSLUTNING
 10
-9.4964983806901255
 20
32.174817706234762
 30
0.0
  0
VERTEX
  5
EBC
  8
SAPA_ANSLUTNING
 10
-9.4964983806901255
 20
42.174817706234762
 30
0.0
  0
VERTEX
  5
EBD
  8
SAPA_ANSLUTNING
 10
4.5035016193098736
 20
42.174817706234762
 30
0.0
  0
VERTEX
  5
EBE
  8
SAPA_ANSLUTNING
 10
4.5035016193098736
 20
35.058178468033788
 30
0.0
 42
-1.003947838501007
  0
VERTEX
  5
EBF
  8
SAPA_ANSLUTNING
 10
2.3288004586212319
 20
35.074817706234739
 30
0.0
  0
SEQEND
  5
EC0
  8
SAPA_ANSLUTNING
  0
INSERT
  5
3A
  8
SAPA_ANSLUTNING
  6
CONTINUOUS
  2
*X47
 10
0.0
 20
0.0
 30
0.0
1001
ACAD
1000
HATCH
1002
{
1070
    19
1000
ANSI37
1040
0.5
1040
1.5707963267948959
1000
R14_HATCH_DATA
1000
3A
1011
1.0
1021
0.0
1031
0.0
1021
0.0
1031
0.0
1011
0.0
1021
0.0
1031
0.0
1021
1.0
1031
0.0
1011
0.0
1021
0.0
1031
0.0
1021
0.0
1031
1.0
1040
0.0
1010
0.0
1020
0.0
1030
1.0
1000
ANSI37
1070
     0
1070
     0
1071
        1
1071
        7
1070
     1
1070
     1
1071
       14
1040
-9.9961623224067448
1040
82.174817706234975
1040
0.0
1040
-9.9961623224067448
1040
74.233075045552425
1040
0.0
1040
-9.9095945093716846
1040
74.233075045552397
1040
-0.167892009687241
1040
-9.4461715881656652
1040
75.574294569027586
1040
-0.1053277233169259
1040
-7.73856474185453
1040
76.999656545877798
1040
-0.0677080186897283
1040
-5.4875009926619187
1040
77.822534679898013
1040
-0.0538647880861725
1040
-2.4972352327994241
1040
78.145612124723016
1040
-0.0538647880861779
1040
0.4930305270633557
1040
77.822534679897927
1040
-0.011605038693442
1040
0.8939811134956148
1040
77.725069497290832
1040
0.0
1040
0.9999999999999449
1040
77.999935173991005
1040
0.0
1040
-0.0000000000000551
1040
78.99993517399102
1040
0.0
1040
-0.0000000000000551
1040
81.99993517399102
1040
0.0
1040
0.0035016193095903
1040
81.99993517399102
1040
0.0
1040
0.0035016193095903
1040
82.174817706234933
1040
-0.2032199431463264
1071
        0
1070
     0
1070
     1
1040
1.5707963267948959
1040
0.5
1070
     0
1070
     2
1040
2.3561944901923439
1040
364.12544351378699
1040
-37.004593575961131
1040
-1.122532015133644
1040
-1.1225320151336431
1070
     0
1040
3.926990816987241
1040
364.12544351378699
1040
-37.004593575961131
1040
1.1225320151336431
1040
-1.122532015133644
1070
     0
1040
0.0419992510547561
1071
        1
1040
-6.2070982216338262
1040
80.021540835642895
1040
0.0
1002
}
  0
INSERT
  5
3B
  8
SAPA_ANSLUTNING
  6
CONTINUOUS
  2
*X48
 10
0.0
 20
0.0
 30
0.0
1001
ACAD
1000
HATCH
1002
{
1070
    19
1000
HEX
1040
0.25
1040
1.5707963267948959
1000
ASC_BOUNDS
1070
     1
1070
     1
1070
     1
1005
3C
1000
ASC_SEEDPOINT
1011
-2.0798206617885722
1021
0.0
1031
0.0
1021
73.656307957219923
1031
0.0
1000
R14_HATCH_DATA
1000
3B
1011
1.0
1021
0.0
1031
0.0
1021
0.0
1031
0.0
1011
0.0
1021
0.0
1031
0.0
1021
1.0
1031
0.0
1011
0.0
1021
0.0
1031
0.0
1021
0.0
1031
1.0
1040
0.0
1010
0.0
1020
0.0
1030
1.0
1000
HEX
1070
     0
1070
     1
1071
        1
1071
        7
1070
     1
1070
     1
1071
       16
1040
0.4930305270637536
1040
70.64361541120698
1040
0.0677080186897084
1040
2.7440942762557379
1040
71.466493545227053
1040
0.1053277233169226
1040
4.4517011225667611
1040
72.891855522077208
1040
0.1678920096872452
1040
4.9151240437727219
1040
74.233075045552397
1040
0.1678920096872385
1040
4.4517011225667611
1040
75.574294569027586
1040
0.1053277233169202
1040
2.7440942762557379
1040
76.99965654587777
1040
0.06770801868971
1040
0.4930305270637536
1040
77.822534679897842
1040
0.0538647880861852
1040
-2.4972352327994241
1040
78.145612124723016
1040
0.0538647880861871
1040
-5.4875009926627154
1040
77.822534679897814
1040
0.0677080186897099
1040
-7.7385647418546997
1040
76.99965654587777
1040
0.1053277233169208
1040
-9.4461715881657238
1040
75.574294569027586
1040
0.1678920096872386
1040
-9.9095945093716846
1040
74.233075045552397
1040
0.1678920096872374
1040
-9.4461715881657238
1040
72.891855522077236
1040
0.1053277233169233
1040
-7.7385647418546997
1040
71.466493545227053
1040
0.0677080186897121
1040
-5.4875009926626008
1040
70.64361541120698
1040
0.0538647880861899
1040
-2.4972352327994241
1040
70.320537966381764
1040
0.0538647880861872
1071
        1
1005
3C
1070
     0
1070
     1
1040
1.5707963267948959
1040
0.25
1070
     0
1070
     3
1040
1.5707963267948959
1040
364.12544351378699
1040
-37.004593575961131
1040
-1.374814999999999
1040
0.0000000000000001
1070
     2
1040
0.79375
1040
-1.587499999999999
1040
3.6651914291880909
1040
364.12544351378699
1040
-37.004593575961131
1040
0.6874074999999995
1040
-1.190624715503902
1070
     2
1040
0.7937499999999998
1040
-1.587499999999999
1040
2.6179938779914931
1040
364.12544351378699
1040
-36.210843575961121
1040
-0.6874075000000002
1040
-1.190624715503902
1070
     2
1040
0.79375
1040
-1.587499999999999
1040
0.0913508346182003
1071
        1
1040
-2.0798206617885722
1040
73.656307957219923
1040
0.0
1002
}
  0
POLYLINE
  5
3C
  8
SAPA_ANSLUTNING
 66
     1
 10
0.0
 20
0.0
 30
0.0
 70
     1
1001
ACAD
1000
ASC_BOUNDS
1002
{
1070
    19
1005
3B
1002
}
  0
VERTEX
  5
F33
  8
SAPA_ANSLUTNING
 10
-7.7385647418546997
 20
71.466493545227053
 30
0.0
 42
0.0677080186897121
  0
VERTEX
  5
F34
  8
SAPA_ANSLUTNING
 10
-5.4875009926626008
 20
70.64361541120698
 30
0.0
 42
0.0538647880861899
  0
VERTEX
  5
F35
  8
SAPA_ANSLUTNING
 10
-2.4972352327994241
 20
70.320537966381764
 30
0.0
 42
0.0538647880861872
  0
VERTEX
  5
F36
  8
SAPA_ANSLUTNING
 10
0.4930305270637536
 20
70.64361541120698
 30
0.0
 42
0.0677080186897084
  0
VERTEX
  5
F37
  8
SAPA_ANSLUTNING
 10
2.7440942762557379
 20
71.466493545227053
 30
0.0
 42
0.1053277233169226
  0
VERTEX
  5
F38
  8
SAPA_ANSLUTNING
 10
4.4517011225667611
 20
72.891855522077208
 30
0.0
 42
0.1678920096872452
  0
VERTEX
  5
F39
  8
SAPA_ANSLUTNING
 10
4.9151240437727219
 20
74.233075045552397
 30
0.0
 42
0.1678920096872386
  0
VERTEX
  5
F3A
  8
SAPA_ANSLUTNING
 10
4.4517011225667611
 20
75.574294569027586
 30
0.0
 42
0.1053277233169202
  0
VERTEX
  5
F3B
  8
SAPA_ANSLUTNING
 10
2.7440942762557379
 20
76.99965654587777
 30
0.0
 42
0.0677080186897101
  0
VERTEX
  5
F3C
  8
SAPA_ANSLUTNING
 10
0.4930305270637536
 20
77.822534679897842
 30
0.0
 42
0.0538647880861852
  0
VERTEX
  5
F3D
  8
SAPA_ANSLUTNING
 10
-2.4972352327994241
 20
78.145612124723016
 30
0.0
 42
0.0538647880861871
  0
VERTEX
  5
F3E
  8
SAPA_ANSLUTNING
 10
-5.4875009926627154
 20
77.822534679897814
 30
0.0
 42
0.0677080186897099
  0
VERTEX
  5
F3F
  8
SAPA_ANSLUTNING
 10
-7.7385647418546997
 20
76.99965654587777
 30
0.0
 42
0.1053277233169208
  0
VERTEX
  5
F40
  8
SAPA_ANSLUTNING
 10
-9.4461715881657238
 20
75.574294569027586
 30
0.0
 42
0.1678920096872386
  0
VERTEX
  5
F41
  8
SAPA_ANSLUTNING
 10
-9.9095945093716846
 20
74.233075045552397
 30
0.0
 42
0.1678920096872374
  0
VERTEX
  5
F42
  8
SAPA_ANSLUTNING
 10
-9.4461715881657238
 20
72.891855522077236
 30
0.0
 42
0.1053277233169233
  0
SEQEND
  5
F43
  8
SAPA_ANSLUTNING
  0
ARC
  5
3D
  8
SAPA_ANSLUTNING
 10
2.513624358961466
 20
45.113661749782942
 30
0.0
 40
2.0
 50
270.0
 51
90.0
  0
ARC
  5
3E
  8
SAPA_ANSLUTNING
 10
-7.9429860874872684
 20
49.113661749782779
 30
0.0
 40
2.000000000000056
 50
90.000120705597325
 51
270.0
  0
LINE
  5
3F
  8
SAPA_ANSLUTNING
 10
2.513624358961466
 20
47.113661749782942
 30
0.0
 11
-7.9429860874872684
 21
47.113661749782722
 31
0.0
  0
LINE
  5
40
  8
SAPA_ANSLUTNING
 10
-7.9429903009074661
 20
51.113661749778402
 30
0.0
 11
-1.9429893733199579
 21
51.113661749778402
 31
0.0
  0
ARC
  5
41
  8
SAPA_ANSLUTNING
 10
-7.9429879297997541
 20
57.113661749772042
 30
0.0
 40
2.000000000000004
 50
90.000143322124529
 51
269.99985667787553
  0
ARC
  5
42
  8
SAPA_ANSLUTNING
 10
-1.9429893733199579
 20
53.113661749778402
 30
0.0
 40
2.0
 50
270.0
 51
90.0
  0
LINE
  5
43
  8
SAPA_ANSLUTNING
 10
-1.9429893733199579
 20
55.113661749778402
 30
0.0
 11
-7.942992932685681
 21
55.113661749778288
 31
0.0
  0
LINE
  5
44
  8
SAPA_ANSLUTNING
 10
-7.942992932685681
 20
59.113661749765782
 30
0.0
 11
-1.9429893733199579
 21
59.113661749765669
 31
0.0
  0
ARC
  5
45
  8
SAPA_ANSLUTNING
 10
-1.9429893733199579
 20
61.113661749765662
 30
0.0
 40
2.0000000000000142
 50
270.0
 51
90.0
  0
ARC
  5
46
  8
SAPA_ANSLUTNING
 10
-7.9429860874872684
 20
65.113661749761292
 30
0.0
 40
2.0000000000000608
 50
90.0
 51
269.99987929440272
  0
LINE
  5
47
  8
SAPA_ANSLUTNING
 10
-1.9429893733199579
 20
63.11366174976569
 30
0.0
 11
-7.9429903009074661
 21
63.113661749765669
 31
0.0
  0
LINE
  5
48
  8
SAPA_ANSLUTNING
 10
-7.9429860874872684
 20
67.113661749761334
 30
0.0
 11
2.513624358961466
 21
67.113661749761121
 31
0.0
  0
ARC
  5
49
  8
SAPA_ANSLUTNING
 10
2.513624358961466
 20
69.113661749761121
 30
0.0
 40
2.0
 50
270.0
 51
90.0
  0
ARC
  5
5B
  8
SAPA_ANSLUTNING
 10
-4.9963303515485196
 20
93.968313732041565
 30
0.0
 40
12.809561594665579
 50
247.0255689067439
 51
292.97443109325621
  0
LINE
  5
5C
  8
SAPA_ANSLUTNING
 10
-9.9961623224067448
 20
92.722420084218413
 30
0.0
 11
-9.9961623224067448
 21
16.234319709866551
 31
0.0
  0
LINE
  5
5D
  8
SAPA_LIGHT
 10
-9.9961623224066312
 20
92.719528517958452
 30
0.0
 11
-9.9961623224066312
 21
16.231428143606561
 31
0.0
  0
POLYLINE
  5
5F
  8
SAPA_LIGHT
 66
     1
 10
0.0
 20
0.0
 30
0.0
 70
     1
  0
VERTEX
  5
F44
  8
SAPA_LIGHT
 10
122.0001807228975
 20
58.69798273781803
 30
0.0
  0
VERTEX
  5
F45
  8
SAPA_LIGHT
 10
122.0001807228975
 20
53.69798273781803
 30
0.0
  0
VERTEX
  5
F46
  8
SAPA_LIGHT
 10
143.96698220474121
 20
53.697982737817583
 30
0.0
  0
VERTEX
  5
F47
  8
SAPA_LIGHT
 10
143.96698220474121
 20
58.69798273781803
 30
0.0
  0
SEQEND
  5
F48
  8
SAPA_LIGHT
  0
POLYLINE
  5
97
  8
SAPA_LIGHT
 66
     1
 10
0.0
 20
0.0
 30
0.0
 70
     1
  0
VERTEX
  5
F49
  8
SAPA_LIGHT
 10
45.000000000000107
 20
31.994152041471011
 30
0.0
  0
VERTEX
  5
F4A
  8
SAPA_LIGHT
 10
0.0000000000000568
 20
31.99415204147104
 30
0.0
  0
VERTEX
  5
F4B
  8
SAPA_LIGHT
 10
0.0000000000000568
 20
81.997043607731015
 30
0.0
  0
VERTEX
  5
F4C
  8
SAPA_LIGHT
 10
67.000000000000114
 20
81.997043607731143
 30
0.0
  0
VERTEX
  5
F4D
  8
SAPA_LIGHT
 10
67.000000000000114
 20
81.997043607731143
 30
0.0
  0
VERTEX
  5
F4E
  8
SAPA_LIGHT
 10
67.000180722899813
 20
74.99415204147104
 30
0.0
  0
VERTEX
  5
F4F
  8
SAPA_LIGHT
 10
52.500000000000057
 20
74.994152041471011
 30
0.0
  0
VERTEX
  5
F50
  8
SAPA_LIGHT
 10
52.500000000000057
 20
38.997043607731086
 30
0.0
  0
VERTEX
  5
F51
  8
SAPA_LIGHT
 10
45.000000000000107
 20
38.997043607731086
 30
0.0
  0
SEQEND
  5
F52
  8
SAPA_LIGHT
  0
TEXT
  5
9C
  8
SAPA_ARTIKELNR
 10
86.806534359347097
 20
85.891363138698907
 30
0.0
 40
3.5
  1
68005
  7
ISO
  0
TEXT
  5
9D
  8
SAPA_ARTIKELNR
 10
19.07248359435749
 20
85.891363138698907
 30
0.0
 40
3.5
  1
68040
  7
ISO
  0
TEXT
  5
934
  8
SAPA_ARTIKELNR
 10
115.216455820193
 20
92.227837196687005
 30
0.0
 40
3.5
  1
68717
  7
ISO
  0
POLYLINE
  5
935
  8
SAPA_LIGHT
 66
     1
 10
0.0
 20
0.0
 30
0.0
  0
VERTEX
  5
F53
  8
SAPA_LIGHT
 10
135.00353851250159
 20
58.69798273781803
 30
0.0
  0
VERTEX
  5
F54
  8
SAPA_LIGHT
 10
135.00353851250159
 20
81.999935173991162
 30
0.0
  0
VERTEX
  5
F55
  8
SAPA_LIGHT
 10
72.002798683549514
 20
81.999935173990934
 30
0.0
  0
VERTEX
  5
F56
  8
SAPA_LIGHT
 10
72.002798683549514
 20
81.999935173990934
 30
0.0
  0
VERTEX
  5
F57
  8
SAPA_LIGHT
 10
72.002798683549514
 20
74.999935173990906
 30
0.0
  0
VERTEX
  5
F58
  8
SAPA_LIGHT
 10
68.245351805911497
 20
74.999935173990906
 30
0.0
  0
VERTEX
  5
F59
  8
SAPA_LIGHT
 10
64.502798683549514
 20
74.999935173990906
 30
0.0
  0
VERTEX
  5
F5A
  8
SAPA_LIGHT
 10
64.502798683549514
 20
39.002826740250953
 30
0.0
  0
VERTEX
  5
F5B
  8
SAPA_LIGHT
 10
50.002617960649822
 20
39.002826740250953
 30
0.0
  0
VERTEX
  5
F5C
  8
SAPA_LIGHT
 10
50.002798683549571
 20
31.999935173990881
 30
0.0
  0
VERTEX
  5
F5D
  8
SAPA_LIGHT
 10
64.502798683549514
 20
31.999935173990881
 30
0.0
  0
VERTEX
  5
F5E
  8
SAPA_LIGHT
 10
64.502798683549514
 20
31.999935173990881
 30
0.0
  0
VERTEX
  5
F5F
  8
SAPA_LIGHT
 10
64.502798683549514
 20
31.999935173990881
 30
0.0
  0
VERTEX
  5
F60
  8
SAPA_LIGHT
 10
135.00353851250159
 20
31.999935173991108
 30
0.0
  0
VERTEX
  5
F61
  8
SAPA_LIGHT
 10
135.0035385125019
 20
53.697982737817767
 30
0.0
  0
SEQEND
  5
F62
  8
SAPA_LIGHT
  0
TEXT
  5
9A6
  8
SAPA_ARTIKELNR
 10
62.520907621759477
 20
85.891363138698907
 30
0.0
 40
3.5
  1
42009
  7
ISO
  0
POLYLINE
  5
D8E
  8
SAPA_PROFIL
 66
     1
 10
0.0
 20
0.0
 30
0.0
  0
VERTEX
  5
141D
  8
SAPA_PROFIL
 10
42.403043543299901
 20
77.528961827743714
 30
0.0
 42
-0.5773516046536803
  0
VERTEX
  5
141E
  8
SAPA_PROFIL
 10
43.15304527811557
 20
77.09595012745244
 30
0.0
  0
VERTEX
  5
141F
  8
SAPA_PROFIL
 10
45.042130006213739
 20
77.09595012745244
 30
0.0
  0
VERTEX
  5
1420
  8
SAPA_PROFIL
 10
46.039186281061369
 20
78.093006402300134
 30
0.0
  0
VERTEX
  5
1421
  8
SAPA_PROFIL
 10
46.039186281061369
 20
80.497043607731044
 30
0.0
  0
VERTEX
  5
1422
  8
SAPA_PROFIL
 10
45.539186281061383
 20
80.497043607731044
 30
0.0
  0
VERTEX
  5
1423
  8
SAPA_PROFIL
 10
45.539186281061433
 20
81.997043607731058
 30
0.0
  0
VERTEX
  5
1424
  8
SAPA_PROFIL
 10
66.703538512500543
 20
81.997043607731058
 30
0.0
 42
-0.4142135623730951
  0
VERTEX
  5
1425
  8
SAPA_PROFIL
 10
67.003538512500512
 20
81.697043607731047
 30
0.0
  0
VERTEX
  5
1426
  8
SAPA_PROFIL
 10
67.003538512500555
 20
77.797043607731041
 30
0.0
 42
-0.4142135623730951
  0
VERTEX
  5
1427
  8
SAPA_PROFIL
 10
66.703538512500543
 20
77.49704360773103
 30
0.0
  0
VERTEX
  5
1428
  8
SAPA_PROFIL
 10
65.493538512500521
 20
77.49704360773103
 30
0.0
 42
-0.4142135623730951
  0
VERTEX
  5
1429
  8
SAPA_PROFIL
 10
64.503538512500512
 20
78.487043607731039
 30
0.0
  0
VERTEX
  5
142A
  8
SAPA_PROFIL
 10
64.503538512500512
 20
78.497043607731015
 30
0.0
  0
VERTEX
  5
142B
  8
SAPA_PROFIL
 10
65.753538512500512
 20
78.497043607731015
 30
0.0
  0
VERTEX
  5
142C
  8
SAPA_PROFIL
 10
65.753538512500512
 20
79.997043607731001
 30
0.0
 42
0.4142135623730951
  0
VERTEX
  5
142D
  8
SAPA_PROFIL
 10
65.253538512500512
 20
80.497043607731001
 30
0.0
  0
VERTEX
  5
142E
  8
SAPA_PROFIL
 10
57.253538512500512
 20
80.497043607731001
 30
0.0
 42
0.4142135623730951
  0
VERTEX
  5
142F
  8
SAPA_PROFIL
 10
56.753538512500512
 20
79.997043607731001
 30
0.0
  0
VERTEX
  5
1430
  8
SAPA_PROFIL
 10
56.753538512500512
 20
78.497043607731015
 30
0.0
  0
VERTEX
  5
1431
  8
SAPA_PROFIL
 10
58.003538512500512
 20
78.497043607731015
 30
0.0
  0
VERTEX
  5
1432
  8
SAPA_PROFIL
 10
58.003538512500512
 20
78.487043607731039
 30
0.0
 42
-0.4142135623730804
  0
VERTEX
  5
1433
  8
SAPA_PROFIL
 10
57.01353851250051
 20
77.497043607731086
 30
0.0
  0
VERTEX
  5
1434
  8
SAPA_PROFIL
 10
56.503538512500512
 20
77.497043607731086
 30
0.0
 42
-0.4142135623730951
  0
VERTEX
  5
1435
  8
SAPA_PROFIL
 10
55.503538512500512
 20
78.497043607731072
 30
0.0
  0
VERTEX
  5
1436
  8
SAPA_PROFIL
 10
55.503538512500512
 20
79.997043607731001
 30
0.0
 42
0.4142135623730951
  0
VERTEX
  5
1437
  8
SAPA_PROFIL
 10
55.003538512500512
 20
80.497043607731001
 30
0.0
  0
VERTEX
  5
1438
  8
SAPA_PROFIL
 10
53.003538512500512
 20
80.497043607731001
 30
0.0
 42
0.4142135623730951
  0
VERTEX
  5
1439
  8
SAPA_PROFIL
 10
52.503538512500512
 20
79.997043607731001
 30
0.0
  0
VERTEX
  5
143A
  8
SAPA_PROFIL
 10
52.503538512500533
 20
41.297043607731027
 30
0.0
 42
0.4142135623730951
  0
VERTEX
  5
143B
  8
SAPA_PROFIL
 10
53.003538512500519
 20
40.79704360773102
 30
0.0
  0
VERTEX
  5
143C
  8
SAPA_PROFIL
 10
54.503538512500533
 20
40.79704360773102
 30
0.0
 42
-0.4142135623730534
  0
VERTEX
  5
143D
  8
SAPA_PROFIL
 10
55.003538512500462
 20
40.29704360773114
 30
0.0
  0
VERTEX
  5
143E
  8
SAPA_PROFIL
 10
55.003538512500533
 20
39.997043607731072
 30
0.0
 42
-0.4142135623730951
  0
VERTEX
  5
143F
  8
SAPA_PROFIL
 10
54.003538512500519
 20
38.997043607731072
 30
0.0
  0
VERTEX
  5
1440
  8
SAPA_PROFIL
 10
46.373247983406237
 20
38.997043607731072
 30
0.0
 42
0.4142135623730951
  0
VERTEX
  5
1441
  8
SAPA_PROFIL
 10
45.373247983406237
 20
37.997043607731079
 30
0.0
  0
VERTEX
  5
1442
  8
SAPA_PROFIL
 10
45.373247983406131
 20
35.64935874750374
 30
0.0
 42
-0.6681786379192263
  0
VERTEX
  5
1443
  8
SAPA_PROFIL
 10
45.202537305287521
 20
35.578648069385103
 30
0.0
  0
VERTEX
  5
1444
  8
SAPA_PROFIL
 10
44.073247983406169
 20
36.707937391266498
 30
0.0
  0
VERTEX
  5
1445
  8
SAPA_PROFIL
 10
42.692750211494321
 20
36.68739270208976
 30
0.0
  0
VERTEX
  5
1446
  8
SAPA_PROFIL
 10
42.298779800272811
 20
34.806181327196938
 30
0.0
 42
-0.876976462992782
  0
VERTEX
  5
1447
  8
SAPA_PROFIL
 10
41.492750211494339
 20
34.912297135689002
 30
0.0
  0
VERTEX
  5
1448
  8
SAPA_PROFIL
 10
41.533829041594949
 20
35.817588296907893
 30
0.0
 42
0.5545812804908814
  0
VERTEX
  5
1449
  8
SAPA_PROFIL
 10
41.444617342601177
 20
36.338132986084631
 30
0.0
  0
VERTEX
  5
144A
  8
SAPA_PROFIL
 10
41.355405643607398
 20
36.338132986084631
 30
0.0
 42
-1.034805301450942
  0
VERTEX
  5
144B
  8
SAPA_PROFIL
 10
41.314326813506717
 20
37.497043607731072
 30
0.0
  0
VERTEX
  5
144C
  8
SAPA_PROFIL
 10
42.503538512500533
 20
37.497043607731072
 30
0.0
 42
0.4142135623730951
  0
VERTEX
  5
144D
  8
SAPA_PROFIL
 10
43.503538512500519
 20
38.497043607731072
 30
0.0
  0
VERTEX
  5
144E
  8
SAPA_PROFIL
 10
43.503538512500519
 20
38.997043607731072
 30
0.0
  0
VERTEX
  5
144F
  8
SAPA_PROFIL
 10
43.503538512500519
 20
39.197043607731118
 30
0.0
 42
-0.4142135623730951
  0
VERTEX
  5
1450
  8
SAPA_PROFIL
 10
44.503538512500519
 20
40.197043607731111
 30
0.0
  0
VERTEX
  5
1451
  8
SAPA_PROFIL
 10
45.003538512500533
 20
40.197043607731111
 30
0.0
  0
VERTEX
  5
1452
  8
SAPA_PROFIL
 10
50.503538512500519
 20
40.197043607731111
 30
0.0
 42
0.4142135623730951
  0
VERTEX
  5
1453
  8
SAPA_PROFIL
 10
51.003538512500519
 20
40.697043607731111
 30
0.0
  0
VERTEX
  5
1454
  8
SAPA_PROFIL
 10
51.003538512500519
 20
40.79704360773102
 30
0.0
  0
VERTEX
  5
1455
  8
SAPA_PROFIL
 10
51.003538512500633
 20
48.497043607731072
 30
0.0
  0
VERTEX
  5
1456
  8
SAPA_PROFIL
 10
50.003538512500519
 20
49.074393876920723
 30
0.0
  0
VERTEX
  5
1457
  8
SAPA_PROFIL
 10
50.003538512500519
 20
56.304223284703582
 30
0.0
  0
VERTEX
  5
1458
  8
SAPA_PROFIL
 10
50.40353851250061
 20
56.997043607731072
 30
0.0
  0
VERTEX
  5
1459
  8
SAPA_PROFIL
 10
50.003538512500519
 20
57.689863930758669
 30
0.0
  0
VERTEX
  5
145A
  8
SAPA_PROFIL
 10
50.003538512500519
 20
64.919693338541421
 30
0.0
  0
VERTEX
  5
145B
  8
SAPA_PROFIL
 10
51.003538512500633
 20
65.497043607731115
 30
0.0
  0
VERTEX
  5
145C
  8
SAPA_PROFIL
 10
51.003538512500512
 20
79.997043607731001
 30
0.0
 42
0.4142135623730951
  0
VERTEX
  5
145D
  8
SAPA_PROFIL
 10
50.503538512500512
 20
80.497043607731001
 30
0.0
  0
VERTEX
  5
145E
  8
SAPA_PROFIL
 10
47.739186281061421
 20
80.497043607731001
 30
0.0
 42
0.4142135623730951
  0
VERTEX
  5
145F
  8
SAPA_PROFIL
 10
47.239186281061421
 20
79.997043607731001
 30
0.0
  0
VERTEX
  5
1460
  8
SAPA_PROFIL
 10
47.239186281061421
 20
77.595950127452383
 30
0.0
  0
VERTEX
  5
1461
  8
SAPA_PROFIL
 10
45.539186281061383
 20
75.895950127452394
 30
0.0
  0
VERTEX
  5
1462
  8
SAPA_PROFIL
 10
40.880802091682114
 20
75.895950127452394
 30
0.0
 42
-0.7673269879788865
  0
VERTEX
  5
1463
  8
SAPA_PROFIL
 10
40.705802091682052
 20
76.549059018776958
 30
0.0
  0
VERTEX
  5
1464
  8
SAPA_PROFIL
 10
42.40304527811557
 20
77.528962829344636
 30
0.0
  0
SEQEND
  5
1465
  8
SAPA_PROFIL
  0
POLYLINE
  5
D8F
  8
SAPA_PROFIL
 66
     1
 10
0.0
 20
0.0
 30
0.0
 70
     1
  0
VERTEX
  5
1466
  8
SAPA_PROFIL
 10
6.8035385125006078
 20
80.198429479295214
 30
0.0
  0
VERTEX
  5
1467
  8
SAPA_PROFIL
 10
38.2035385125007
 20
80.198429479295214
 30
0.0
  0
VERTEX
  5
1468
  8
SAPA_PROFIL
 10
38.203538512500593
 20
59.093429479295203
 30
0.0
 42
0.4142135623732293
  0
VERTEX
  5
1469
  8
SAPA_PROFIL
 10
38.698538512500697
 20
58.598429479295191
 30
0.0
  0
VERTEX
  5
146A
  8
SAPA_PROFIL
 10
38.708538512500581
 20
58.598429479295191
 30
0.0
 42
0.414213562373095
  0
VERTEX
  5
146B
  8
SAPA_PROFIL
 10
39.2035385125007
 20
59.093429479295203
 30
0.0
  0
VERTEX
  5
146C
  8
SAPA_PROFIL
 10
39.2035385125007
 20
59.253429479295157
 30
0.0
 42
-0.414213562373028
  0
VERTEX
  5
146D
  8
SAPA_PROFIL
 10
39.698538512500591
 20
59.748429479295162
 30
0.0
  0
VERTEX
  5
146E
  8
SAPA_PROFIL
 10
40.503538512500647
 20
59.748429479295162
 30
0.0
 42
-0.3747564601179658
  0
VERTEX
  5
146F
  8
SAPA_PROFIL
 10
43.227933555735028
 20
57.372824522531459
 30
0.0
  0
VERTEX
  5
1470
  8
SAPA_PROFIL
 10
42.853538512500329
 20
56.998429479295169
 30
0.0
  0
VERTEX
  5
1471
  8
SAPA_PROFIL
 10
43.22793355573674
 20
56.62403443605865
 30
0.0
 42
-0.3747564601179647
  0
VERTEX
  5
1472
  8
SAPA_PROFIL
 10
40.503538512500761
 20
54.248429479295169
 30
0.0
  0
VERTEX
  5
1473
  8
SAPA_PROFIL
 10
39.698538512500591
 20
54.248429479295169
 30
0.0
 42
-0.4142135623730281
  0
VERTEX
  5
1474
  8
SAPA_PROFIL
 10
39.2035385125007
 20
54.74342947929518
 30
0.0
  0
VERTEX
  5
1475
  8
SAPA_PROFIL
 10
39.2035385125007
 20
54.903429479295141
 30
0.0
 42
0.4142135623730951
  0
VERTEX
  5
1476
  8
SAPA_PROFIL
 10
38.708538512500581
 20
55.398429479295139
 30
0.0
  0
VERTEX
  5
1477
  8
SAPA_PROFIL
 10
38.698538512500697
 20
55.39842947929526
 30
0.0
 42
0.4142135623732296
  0
VERTEX
  5
1478
  8
SAPA_PROFIL
 10
38.2035385125007
 20
54.903429479295141
 30
0.0
  0
VERTEX
  5
1479
  8
SAPA_PROFIL
 10
38.2035385125007
 20
33.79842947929513
 30
0.0
  0
VERTEX
  5
147A
  8
SAPA_PROFIL
 10
6.8035385125006078
 20
33.79842947929513
 30
0.0
  0
VERTEX
  5
147B
  8
SAPA_PROFIL
 10
6.8035385125006078
 20
54.903429479295141
 30
0.0
 42
0.4142135623731625
  0
VERTEX
  5
147C
  8
SAPA_PROFIL
 10
6.308538512500717
 20
55.398429479295139
 30
0.0
  0
VERTEX
  5
147D
  8
SAPA_PROFIL
 10
6.298538512500726
 20
55.398429479295139
 30
0.0
 42
0.4142135623731625
  0
VERTEX
  5
147E
  8
SAPA_PROFIL
 10
5.8035385125008361
 20
54.903429479295141
 30
0.0
  0
VERTEX
  5
147F
  8
SAPA_PROFIL
 10
5.8035385125007224
 20
54.74342947929518
 30
0.0
 42
-0.4142135623729606
  0
VERTEX
  5
1480
  8
SAPA_PROFIL
 10
5.308538512500717
 20
54.248429479295282
 30
0.0
  0
VERTEX
  5
1481
  8
SAPA_PROFIL
 10
4.5035385125006542
 20
54.248429479295169
 30
0.0
 42
-0.3747564601179647
  0
VERTEX
  5
1482
  8
SAPA_PROFIL
 10
1.779143469264681
 20
56.62403443605865
 30
0.0
  0
VERTEX
  5
1483
  8
SAPA_PROFIL
 10
2.1535385125009721
 20
56.998429479295169
 30
0.0
  0
VERTEX
  5
1484
  8
SAPA_PROFIL
 10
1.7791434692662731
 20
57.372824522531459
 30
0.0
 42
-0.3747564601179658
  0
VERTEX
  5
1485
  8
SAPA_PROFIL
 10
4.5035385125006542
 20
59.748429479295162
 30
0.0
  0
VERTEX
  5
1486
  8
SAPA_PROFIL
 10
5.308538512500717
 20
59.748429479295162
 30
0.0
 42
-0.4142135623730281
  0
VERTEX
  5
1487
  8
SAPA_PROFIL
 10
5.8035385125008361
 20
59.253429479295157
 30
0.0
  0
VERTEX
  5
1488
  8
SAPA_PROFIL
 10
5.8035385125008361
 20
59.093429479295203
 30
0.0
 42
0.4142135623731625
  0
VERTEX
  5
1489
  8
SAPA_PROFIL
 10
6.298538512500726
 20
58.598429479295191
 30
0.0
  0
VERTEX
  5
148A
  8
SAPA_PROFIL
 10
6.308538512500717
 20
58.598429479295191
 30
0.0
 42
0.4142135623731625
  0
VERTEX
  5
148B
  8
SAPA_PROFIL
 10
6.8035385125006078
 20
59.093429479295203
 30
0.0
  0
SEQEND
  5
148C
  8
SAPA_PROFIL
  0
POLYLINE
  5
D90
  8
SAPA_PROFIL
 66
     1
 10
0.0
 20
0.0
 30
0.0
 70
     1
  0
VERTEX
  5
148D
  8
SAPA_PROFIL
 10
2.0035385125006542
 20
80.198429479295214
 30
0.0
  0
VERTEX
  5
148E
  8
SAPA_PROFIL
 10
2.0035385125006542
 20
77.998429479295169
 30
0.0
  0
VERTEX
  5
148F
  8
SAPA_PROFIL
 10
1.003538512500654
 20
77.998429479295169
 30
0.0
  0
VERTEX
  5
1490
  8
SAPA_PROFIL
 10
0.0035385125006542
 20
78.998429479295169
 30
0.0
  0
VERTEX
  5
1491
  8
SAPA_PROFIL
 10
0.0035385125006542
 20
81.998429479295154
 30
0.0
  0
VERTEX
  5
1492
  8
SAPA_PROFIL
 10
45.003538512500647
 20
81.998429479295154
 30
0.0
  0
VERTEX
  5
1493
  8
SAPA_PROFIL
 10
45.003538512500647
 20
78.998429479295169
 30
0.0
  0
VERTEX
  5
1494
  8
SAPA_PROFIL
 10
44.003538512500647
 20
77.998429479295169
 30
0.0
  0
VERTEX
  5
1495
  8
SAPA_PROFIL
 10
43.003538512500647
 20
77.998429479295169
 30
0.0
  0
VERTEX
  5
1496
  8
SAPA_PROFIL
 10
43.003538512500647
 20
80.198429479295214
 30
0.0
  0
VERTEX
  5
1497
  8
SAPA_PROFIL
 10
40.003538512500647
 20
80.198429479295214
 30
0.0
  0
VERTEX
  5
1498
  8
SAPA_PROFIL
 10
40.003538512500647
 20
61.498429479295169
 30
0.0
  0
VERTEX
  5
1499
  8
SAPA_PROFIL
 10
43.003538512500647
 20
61.498429479295169
 30
0.0
  0
VERTEX
  5
149A
  8
SAPA_PROFIL
 10
43.003538512500647
 20
63.998429479295169
 30
0.0
  0
VERTEX
  5
149B
  8
SAPA_PROFIL
 10
44.003538512500647
 20
63.998429479295169
 30
0.0
  0
VERTEX
  5
149C
  8
SAPA_PROFIL
 10
44.803538512500722
 20
63.198429479295207
 30
0.0
  0
VERTEX
  5
149D
  8
SAPA_PROFIL
 10
44.803538512500722
 20
57.518044721565843
 30
0.0
  0
VERTEX
  5
149E
  8
SAPA_PROFIL
 10
44.503538512500647
 20
56.998429479295169
 30
0.0
  0
VERTEX
  5
149F
  8
SAPA_PROFIL
 10
44.803538512500722
 20
56.478814237024487
 30
0.0
  0
VERTEX
  5
14A0
  8
SAPA_PROFIL
 10
44.803538512500722
 20
50.798429479295123
 30
0.0
  0
VERTEX
  5
14A1
  8
SAPA_PROFIL
 10
44.003538512500647
 20
49.998429479295169
 30
0.0
  0
VERTEX
  5
14A2
  8
SAPA_PROFIL
 10
43.003538512500647
 20
49.998429479295169
 30
0.0
  0
VERTEX
  5
14A3
  8
SAPA_PROFIL
 10
43.003538512500647
 20
52.498429479295169
 30
0.0
  0
VERTEX
  5
14A4
  8
SAPA_PROFIL
 10
40.003538512500647
 20
52.498429479295169
 30
0.0
  0
VERTEX
  5
14A5
  8
SAPA_PROFIL
 10
40.003538512500647
 20
33.79842947929513
 30
0.0
  0
VERTEX
  5
14A6
  8
SAPA_PROFIL
 10
43.003538512500647
 20
33.79842947929513
 30
0.0
  0
VERTEX
  5
14A7
  8
SAPA_PROFIL
 10
43.003538512500647
 20
35.998429479295169
 30
0.0
  0
VERTEX
  5
14A8
  8
SAPA_PROFIL
 10
44.003538512500647
 20
35.998429479295169
 30
0.0
  0
VERTEX
  5
14A9
  8
SAPA_PROFIL
 10
45.003538512500647
 20
34.998429479295169
 30
0.0
  0
VERTEX
  5
14AA
  8
SAPA_PROFIL
 10
45.003538512500647
 20
31.998429479295169
 30
0.0
  0
VERTEX
  5
14AB
  8
SAPA_PROFIL
 10
0.0035385125006542
 20
31.998429479295169
 30
0.0
  0
VERTEX
  5
14AC
  8
SAPA_PROFIL
 10
0.0035385125006542
 20
34.998429479295169
 30
0.0
  0
VERTEX
  5
14AD
  8
SAPA_PROFIL
 10
1.003538512500654
 20
35.998429479295169
 30
0.0
  0
VERTEX
  5
14AE
  8
SAPA_PROFIL
 10
2.0035385125006542
 20
35.998429479295169
 30
0.0
  0
VERTEX
  5
14AF
  8
SAPA_PROFIL
 10
2.0035385125006542
 20
33.79842947929513
 30
0.0
  0
VERTEX
  5
14B0
  8
SAPA_PROFIL
 10
5.0035385125006542
 20
33.79842947929513
 30
0.0
  0
VERTEX
  5
14B1
  8
SAPA_PROFIL
 10
5.0035385125006542
 20
52.498429479295169
 30
0.0
  0
VERTEX
  5
14B2
  8
SAPA_PROFIL
 10
2.0035385125006542
 20
52.498429479295169
 30
0.0
  0
VERTEX
  5
14B3
  8
SAPA_PROFIL
 10
2.0035385125006542
 20
49.998429479295169
 30
0.0
  0
VERTEX
  5
14B4
  8
SAPA_PROFIL
 10
1.003538512500654
 20
49.998429479295169
 30
0.0
  0
VERTEX
  5
14B5
  8
SAPA_PROFIL
 10
0.2035385125006996
 20
50.798429479295123
 30
0.0
  0
VERTEX
  5
14B6
  8
SAPA_PROFIL
 10
0.2035385125006996
 20
56.478814237024487
 30
0.0
  0
VERTEX
  5
14B7
  8
SAPA_PROFIL
 10
0.5035385125006542
 20
56.998429479295169
 30
0.0
  0
VERTEX
  5
14B8
  8
SAPA_PROFIL
 10
0.2035385125006996
 20
57.518044721565843
 30
0.0
  0
VERTEX
  5
14B9
  8
SAPA_PROFIL
 10
0.2035385125006996
 20
63.198429479295207
 30
0.0
  0
VERTEX
  5
14BA
  8
SAPA_PROFIL
 10
1.003538512500654
 20
63.998429479295169
 30
0.0
  0
VERTEX
  5
14BB
  8
SAPA_PROFIL
 10
2.0035385125006542
 20
63.998429479295169
 30
0.0
  0
VERTEX
  5
14BC
  8
SAPA_PROFIL
 10
2.0035385125006542
 20
61.498429479295169
 30
0.0
  0
VERTEX
  5
14BD
  8
SAPA_PROFIL
 10
5.0035385125006542
 20
61.498429479295169
 30
0.0
  0
VERTEX
  5
14BE
  8
SAPA_PROFIL
 10
5.0035385125006542
 20
80.198429479295214
 30
0.0
  0
SEQEND
  5
14BF
  8
SAPA_PROFIL
  0
POLYLINE
  5
D91
  8
SAPA_PROFIL
 66
     1
 10
0.0
 20
0.0
 30
0.0
 70
     1
  0
VERTEX
  5
14C0
  8
SAPA_PROFIL
 10
50.003538512500711
 20
36.197043607730741
 30
0.0
 42
-0.4142135623730951
  0
VERTEX
  5
14C1
  8
SAPA_PROFIL
 10
50.303538512500658
 20
36.497043607730809
 30
0.0
  0
VERTEX
  5
14C2
  8
SAPA_PROFIL
 10
51.513538512500702
 20
36.497043607730923
 30
0.0
 42
-0.4142135623730951
  0
VERTEX
  5
14C3
  8
SAPA_PROFIL
 10
52.503538512500711
 20
35.507043607730907
 30
0.0
  0
VERTEX
  5
14C4
  8
SAPA_PROFIL
 10
52.503538512500711
 20
35.497043607730923
 30
0.0
  0
VERTEX
  5
14C5
  8
SAPA_PROFIL
 10
51.253538512500711
 20
35.497043607730923
 30
0.0
  0
VERTEX
  5
14C6
  8
SAPA_PROFIL
 10
51.253538512500711
 20
33.997043607730923
 30
0.0
 42
0.4142135623730951
  0
VERTEX
  5
14C7
  8
SAPA_PROFIL
 10
51.753538512500711
 20
33.497043607730923
 30
0.0
  0
VERTEX
  5
14C8
  8
SAPA_PROFIL
 10
59.753538512500711
 20
33.497043607730923
 30
0.0
 42
0.4142135623730951
  0
VERTEX
  5
14C9
  8
SAPA_PROFIL
 10
60.253538512500711
 20
33.997043607730923
 30
0.0
  0
VERTEX
  5
14CA
  8
SAPA_PROFIL
 10
60.253538512500711
 20
35.497043607730923
 30
0.0
  0
VERTEX
  5
14CB
  8
SAPA_PROFIL
 10
59.003538512500711
 20
35.497043607730923
 30
0.0
  0
VERTEX
  5
14CC
  8
SAPA_PROFIL
 10
59.003538512500711
 20
35.507043607730907
 30
0.0
 42
-0.4142135623730951
  0
VERTEX
  5
14CD
  8
SAPA_PROFIL
 10
59.99353851250072
 20
36.497043607730923
 30
0.0
  0
VERTEX
  5
14CE
  8
SAPA_PROFIL
 10
60.513538512500702
 20
36.497043607730923
 30
0.0
 42
-0.4142135623730951
  0
VERTEX
  5
14CF
  8
SAPA_PROFIL
 10
61.503538512500711
 20
35.507043607730907
 30
0.0
  0
VERTEX
  5
14D0
  8
SAPA_PROFIL
 10
61.503538512500647
 20
34.29704360773087
 30
0.0
 42
0.4142135623730951
  0
VERTEX
  5
14D1
  8
SAPA_PROFIL
 10
62.003538512500647
 20
33.79704360773087
 30
0.0
  0
VERTEX
  5
14D2
  8
SAPA_PROFIL
 10
64.003538512500711
 20
33.79704360773087
 30
0.0
 42
0.4142135623730951
  0
VERTEX
  5
14D3
  8
SAPA_PROFIL
 10
64.503538512500711
 20
34.29704360773087
 30
0.0
  0
VERTEX
  5
14D4
  8
SAPA_PROFIL
 10
64.503538512500654
 20
72.79704360773087
 30
0.0
 42
0.4142135623730951
  0
VERTEX
  5
14D5
  8
SAPA_PROFIL
 10
64.003538512500654
 20
73.29704360773087
 30
0.0
  0
VERTEX
  5
14D6
  8
SAPA_PROFIL
 10
62.503538512500647
 20
73.29704360773087
 30
0.0
 42
-0.4142135623730951
  0
VERTEX
  5
14D7
  8
SAPA_PROFIL
 10
62.003538512500647
 20
73.79704360773087
 30
0.0
  0
VERTEX
  5
14D8
  8
SAPA_PROFIL
 10
62.003538512500647
 20
73.997043607730802
 30
0.0
 42
-0.4142135623730951
  0
VERTEX
  5
14D9
  8
SAPA_PROFIL
 10
63.003538512500647
 20
74.997043607730802
 30
0.0
  0
VERTEX
  5
14DA
  8
SAPA_PROFIL
 10
71.003538512500654
 20
74.997043607730802
 30
0.0
 42
0.4142135623730951
  0
VERTEX
  5
14DB
  8
SAPA_PROFIL
 10
72.003538512500654
 20
75.997043607730802
 30
0.0
  0
VERTEX
  5
14DC
  8
SAPA_PROFIL
 10
72.003538512500654
 20
81.497043607730802
 30
0.0
 42
-0.4142135623730951
  0
VERTEX
  5
14DD
  8
SAPA_PROFIL
 10
72.503538512500654
 20
81.997043607730816
 30
0.0
  0
VERTEX
  5
14DE
  8
SAPA_PROFIL
 10
117.0035385125006
 20
81.997043607730916
 30
0.0
  0
VERTEX
  5
14DF
  8
SAPA_PROFIL
 10
117.0035385125006
 20
78.997043607730916
 30
0.0
  0
VERTEX
  5
14E0
  8
SAPA_PROFIL
 10
116.0035385125006
 20
77.997043607730916
 30
0.0
  0
VERTEX
  5
14E1
  8
SAPA_PROFIL
 10
115.0035385125006
 20
77.997043607730916
 30
0.0
  0
VERTEX
  5
14E2
  8
SAPA_PROFIL
 10
115.0035385125006
 20
80.197043607730848
 30
0.0
  0
VERTEX
  5
14E3
  8
SAPA_PROFIL
 10
112.0035385125006
 20
80.197043607730848
 30
0.0
  0
VERTEX
  5
14E4
  8
SAPA_PROFIL
 10
112.0035385125007
 20
61.497043607730923
 30
0.0
  0
VERTEX
  5
14E5
  8
SAPA_PROFIL
 10
115.0035385125007
 20
61.497043607730923
 30
0.0
  0
VERTEX
  5
14E6
  8
SAPA_PROFIL
 10
115.0035385125007
 20
63.997043607730923
 30
0.0
  0
VERTEX
  5
14E7
  8
SAPA_PROFIL
 10
116.0035385125007
 20
63.997043607730923
 30
0.0
  0
VERTEX
  5
14E8
  8
SAPA_PROFIL
 10
116.80353851250059
 20
63.197043607730841
 30
0.0
  0
VERTEX
  5
14E9
  8
SAPA_PROFIL
 10
116.80353851250059
 20
57.516658850001591
 30
0.0
  0
VERTEX
  5
14EA
  8
SAPA_PROFIL
 10
116.5035385125007
 20
56.997043607730909
 30
0.0
  0
VERTEX
  5
14EB
  8
SAPA_PROFIL
 10
116.80353851250059
 20
56.477428365460241
 30
0.0
  0
VERTEX
  5
14EC
  8
SAPA_PROFIL
 10
116.80353851250059
 20
50.79704360773087
 30
0.0
  0
VERTEX
  5
14ED
  8
SAPA_PROFIL
 10
116.0035385125007
 20
49.997043607730909
 30
0.0
  0
VERTEX
  5
14EE
  8
SAPA_PROFIL
 10
115.0035385125007
 20
49.997043607730909
 30
0.0
  0
VERTEX
  5
14EF
  8
SAPA_PROFIL
 10
115.0035385125007
 20
52.497043607730909
 30
0.0
  0
VERTEX
  5
14F0
  8
SAPA_PROFIL
 10
112.0035385125007
 20
52.497043607730909
 30
0.0
  0
VERTEX
  5
14F1
  8
SAPA_PROFIL
 10
112.0035385125007
 20
33.79704360773087
 30
0.0
  0
VERTEX
  5
14F2
  8
SAPA_PROFIL
 10
115.0035385125007
 20
33.79704360773087
 30
0.0
  0
VERTEX
  5
14F3
  8
SAPA_PROFIL
 10
115.0035385125007
 20
35.997043607730923
 30
0.0
  0
VERTEX
  5
14F4
  8
SAPA_PROFIL
 10
116.0035385125007
 20
35.997043607730923
 30
0.0
  0
VERTEX
  5
14F5
  8
SAPA_PROFIL
 10
117.0035385125007
 20
34.997043607730923
 30
0.0
  0
VERTEX
  5
14F6
  8
SAPA_PROFIL
 10
117.0035385125007
 20
31.997043607730919
 30
0.0
  0
VERTEX
  5
14F7
  8
SAPA_PROFIL
 10
50.303538512500658
 20
31.997043607730799
 30
0.0
 42
-0.4142135623730951
  0
VERTEX
  5
14F8
  8
SAPA_PROFIL
 10
50.003538512500647
 20
32.29704360773087
 30
0.0
  0
SEQEND
  5
14F9
  8
SAPA_PROFIL
  0
POLYLINE
  5
D92
  8
SAPA_PROFIL
 66
     1
 10
0.0
 20
0.0
 30
0.0
 70
     1
  0
VERTEX
  5
14FA
  8
SAPA_PROFIL
 10
109.5035385125006
 20
48.783762883370287
 30
0.0
  0
VERTEX
  5
14FB
  8
SAPA_PROFIL
 10
109.5035385125007
 20
54.79704360773087
 30
0.0
 42
-0.4142135623730941
  0
VERTEX
  5
14FC
  8
SAPA_PROFIL
 10
110.10353851250071
 20
55.3970436077309
 30
0.0
  0
VERTEX
  5
14FD
  8
SAPA_PROFIL
 10
110.60353851250071
 20
55.3970436077309
 30
0.0
 42
-0.4142135623730951
  0
VERTEX
  5
14FE
  8
SAPA_PROFIL
 10
111.2035385125006
 20
54.79704360773087
 30
0.0
  0
VERTEX
  5
14FF
  8
SAPA_PROFIL
 10
111.2035385125006
 20
54.742043607730807
 30
0.0
 42
0.4142135623730866
  0
VERTEX
  5
1500
  8
SAPA_PROFIL
 10
111.6985385125006
 20
54.247043607730909
 30
0.0
  0
VERTEX
  5
1501
  8
SAPA_PROFIL
 10
112.5035385125007
 20
54.247043607730909
 30
0.0
 42
0.3747564601179694
  0
VERTEX
  5
1502
  8
SAPA_PROFIL
 10
115.2279335557368
 20
56.622648564494391
 30
0.0
  0
VERTEX
  5
1503
  8
SAPA_PROFIL
 10
114.85353851250029
 20
56.997043607730909
 30
0.0
  0
VERTEX
  5
1504
  8
SAPA_PROFIL
 10
115.22793355573511
 20
57.371438650967093
 30
0.0
 42
0.374756460117968
  0
VERTEX
  5
1505
  8
SAPA_PROFIL
 10
112.5035385125007
 20
59.747043607730923
 30
0.0
  0
VERTEX
  5
1506
  8
SAPA_PROFIL
 10
111.6985385125006
 20
59.747043607730923
 30
0.0
 42
0.4142135623730866
  0
VERTEX
  5
1507
  8
SAPA_PROFIL
 10
111.2035385125006
 20
59.252043607730911
 30
0.0
  0
VERTEX
  5
1508
  8
SAPA_PROFIL
 10
111.2035385125006
 20
59.197043607730961
 30
0.0
 42
-0.4142135623730951
  0
VERTEX
  5
1509
  8
SAPA_PROFIL
 10
110.60353851250061
 20
58.597043607730932
 30
0.0
  0
VERTEX
  5
150A
  8
SAPA_PROFIL
 10
110.10353851250071
 20
58.597043607730932
 30
0.0
 42
-0.414213562373096
  0
VERTEX
  5
150B
  8
SAPA_PROFIL
 10
109.5035385125007
 20
59.197043607730961
 30
0.0
  0
VERTEX
  5
150C
  8
SAPA_PROFIL
 10
109.5035385125007
 20
65.210324332091545
 30
0.0
  0
VERTEX
  5
150D
  8
SAPA_PROFIL
 10
110.2035385125006
 20
65.472043607730924
 30
0.0
  0
VERTEX
  5
150E
  8
SAPA_PROFIL
 10
110.2035385125006
 20
70.477428365460241
 30
0.0
  0
VERTEX
  5
150F
  8
SAPA_PROFIL
 10
110.5035385125006
 20
70.997043607730916
 30
0.0
  0
VERTEX
  5
1510
  8
SAPA_PROFIL
 10
110.2035385125006
 20
71.516658850001591
 30
0.0
  0
VERTEX
  5
1511
  8
SAPA_PROFIL
 10
110.2035385125006
 20
79.197043607730848
 30
0.0
 42
0.4142135623730951
  0
VERTEX
  5
1512
  8
SAPA_PROFIL
 10
109.2035385125006
 20
80.197043607730848
 30
0.0
  0
VERTEX
  5
1513
  8
SAPA_PROFIL
 10
74.303538512500594
 20
80.197043607730848
 30
0.0
 42
0.4142135623730951
  0
VERTEX
  5
1514
  8
SAPA_PROFIL
 10
73.803538512500609
 20
79.697043607730848
 30
0.0
  0
VERTEX
  5
1515
  8
SAPA_PROFIL
 10
73.803538512500609
 20
74.29704360773087
 30
0.0
 42
-0.4142135623730951
  0
VERTEX
  5
1516
  8
SAPA_PROFIL
 10
72.803538512500609
 20
73.29704360773087
 30
0.0
  0
VERTEX
  5
1517
  8
SAPA_PROFIL
 10
68.00353851250054
 20
73.297043607730757
 30
0.0
 42
0.4142135623730951
  0
VERTEX
  5
1518
  8
SAPA_PROFIL
 10
67.00353851250054
 20
72.297043607730757
 30
0.0
  0
VERTEX
  5
1519
  8
SAPA_PROFIL
 10
67.003538512500597
 20
34.79704360773087
 30
0.0
 42
0.4142135623730951
  0
VERTEX
  5
151A
  8
SAPA_PROFIL
 10
68.003538512500597
 20
33.79704360773087
 30
0.0
  0
VERTEX
  5
151B
  8
SAPA_PROFIL
 10
109.2035385125006
 20
33.79704360773087
 30
0.0
 42
0.4142135623730951
  0
VERTEX
  5
151C
  8
SAPA_PROFIL
 10
110.2035385125006
 20
34.79704360773087
 30
0.0
  0
VERTEX
  5
151D
  8
SAPA_PROFIL
 10
110.2035385125006
 20
42.477428365460121
 30
0.0
  0
VERTEX
  5
151E
  8
SAPA_PROFIL
 10
110.5035385125007
 20
42.997043607730909
 30
0.0
  0
VERTEX
  5
151F
  8
SAPA_PROFIL
 10
110.2035385125006
 20
43.516658850001591
 30
0.0
  0
VERTEX
  5
1520
  8
SAPA_PROFIL
 10
110.2035385125006
 20
48.5220436077309
 30
0.0
  0
SEQEND
  5
1521
  8
SAPA_PROFIL
  0
POLYLINE
  5
D93
  8
SAPA_PROFIL
  6
CONTINUOUS
 62
     7
 66
     1
 10
0.0
 20
0.0
 30
0.0
 70
     1
  0
VERTEX
  5
1522
  8
SAPA_PROFIL
  6
CONTINUOUS
 62
     7
 10
133.0035385125006
 20
69.297043607733698
 30
0.0
 42
0.4142135623727455
  0
VERTEX
  5
1523
  8
SAPA_PROFIL
  6
CONTINUOUS
 62
     7
 10
133.50353851249989
 20
69.797043607733698
 30
0.0
  0
VERTEX
  5
1524
  8
SAPA_PROFIL
  6
CONTINUOUS
 62
     7
 10
133.50353851249989
 20
70.797043607733684
 30
0.0
 42
0.4142135623730951
  0
VERTEX
  5
1525
  8
SAPA_PROFIL
  6
CONTINUOUS
 62
     7
 10
133.00353851249989
 20
71.297043607733698
 30
0.0
  0
VERTEX
  5
1526
  8
SAPA_PROFIL
  6
CONTINUOUS
 62
     7
 10
126.0035385124999
 20
71.297043607733698
 30
0.0
 42
-0.3371881663440683
  0
VERTEX
  5
1527
  8
SAPA_PROFIL
  6
CONTINUOUS
 62
     7
 10
123.5940664633665
 20
73.130376941067581
 30
0.0
 42
0.3371881663436752
  0
VERTEX
  5
1528
  8
SAPA_PROFIL
  6
CONTINUOUS
 62
     7
 10
123.11217205353989
 20
73.497043607733687
 30
0.0
  0
VERTEX
  5
1529
  8
SAPA_PROFIL
  6
CONTINUOUS
 62
     7
 10
119.10353851250051
 20
73.497043607733687
 30
0.0
 42
0.4142135623730951
  0
VERTEX
  5
152A
  8
SAPA_PROFIL
  6
CONTINUOUS
 62
     7
 10
118.60353851250051
 20
72.997043607733687
 30
0.0
  0
VERTEX
  5
152B
  8
SAPA_PROFIL
  6
CONTINUOUS
 62
     7
 10
118.60353851250019
 20
69.404036435567704
 30
0.0
 42
0.339453859579124
  0
VERTEX
  5
152C
  8
SAPA_PROFIL
  6
CONTINUOUS
 62
     7
 10
118.8258923839746
 20
69.114258798878652
 30
0.0
  0
VERTEX
  5
152D
  8
SAPA_PROFIL
  6
CONTINUOUS
 62
     7
 10
120.1811846410265
 20
68.751107252803692
 30
0.0
 42
-0.3394538595791106
  0
VERTEX
  5
152E
  8
SAPA_PROFIL
  6
CONTINUOUS
 62
     7
 10
120.4035385125006
 20
68.461329616114696
 30
0.0
  0
VERTEX
  5
152F
  8
SAPA_PROFIL
  6
CONTINUOUS
 62
     7
 10
120.4035385125006
 20
68.203262579384656
 30
0.0
 42
-0.2679488738390008
  0
VERTEX
  5
1530
  8
SAPA_PROFIL
  6
CONTINUOUS
 62
     7
 10
120.15353902735249
 20
67.77025017474368
 30
0.0
  0
VERTEX
  5
1531
  8
SAPA_PROFIL
  6
CONTINUOUS
 62
     7
 10
119.40353882141351
 20
67.337236164949658
 30
0.0
 42
-0.2679495024854507
  0
VERTEX
  5
1532
  8
SAPA_PROFIL
  6
CONTINUOUS
 62
     7
 10
119.10353852077949
 20
67.337235981818694
 30
0.0
  0
VERTEX
  5
1533
  8
SAPA_PROFIL
  6
CONTINUOUS
 62
     7
 10
117.7535385538916
 20
68.116658768753652
 30
0.0
 42
-0.2679492009687615
  0
VERTEX
  5
1534
  8
SAPA_PROFIL
  6
CONTINUOUS
 62
     7
 10
117.0035385125006
 20
69.415696898327653
 30
0.0
  0
VERTEX
  5
1535
  8
SAPA_PROFIL
  6
CONTINUOUS
 62
     7
 10
117.0035385125006
 20
88.997043607733687
 30
0.0
 42
-0.4142135623730951
  0
VERTEX
  5
1536
  8
SAPA_PROFIL
  6
CONTINUOUS
 62
     7
 10
118.0035385125006
 20
89.997043607733687
 30
0.0
  0
VERTEX
  5
1537
  8
SAPA_PROFIL
  6
CONTINUOUS
 62
     7
 10
124.0035385124999
 20
89.997043607733687
 30
0.0
 42
-0.4142135623730951
  0
VERTEX
  5
1538
  8
SAPA_PROFIL
  6
CONTINUOUS
 62
     7
 10
125.0035385124999
 20
88.997043607733687
 30
0.0
  0
VERTEX
  5
1539
  8
SAPA_PROFIL
  6
CONTINUOUS
 62
     7
 10
125.0035385124999
 20
73.797043607733698
 30
0.0
 42
0.4142135623730951
  0
VERTEX
  5
153A
  8
SAPA_PROFIL
  6
CONTINUOUS
 62
     7
 10
126.0035385124999
 20
72.797043607733698
 30
0.0
  0
VERTEX
  5
153B
  8
SAPA_PROFIL
  6
CONTINUOUS
 62
     7
 10
134.003538512501
 20
72.797043607733698
 30
0.0
 42
-0.4142135623730951
  0
VERTEX
  5
153C
  8
SAPA_PROFIL
  6
CONTINUOUS
 62
     7
 10
135.003538512501
 20
71.797043607733698
 30
0.0
  0
VERTEX
  5
153D
  8
SAPA_PROFIL
  6
CONTINUOUS
 62
     7
 10
135.0035385125006
 20
65.097043607733653
 30
0.0
 42
-0.4142135623730951
  0
VERTEX
  5
153E
  8
SAPA_PROFIL
  6
CONTINUOUS
 62
     7
 10
134.70353851250059
 20
64.797043607733642
 30
0.0
  0
VERTEX
  5
153F
  8
SAPA_PROFIL
  6
CONTINUOUS
 62
     7
 10
133.9359940444736
 20
64.797043607733698
 30
0.0
 42
-0.2896898632854179
  0
VERTEX
  5
1540
  8
SAPA_PROFIL
  6
CONTINUOUS
 62
     7
 10
133.0324861415958
 20
65.368472179104387
 30
0.0
 42
-0.5507604245879869
  0
VERTEX
  5
1541
  8
SAPA_PROFIL
  6
CONTINUOUS
 62
     7
 10
133.30353851244161
 20
65.797043607693453
 30
0.0
  0
VERTEX
  5
1542
  8
SAPA_PROFIL
  6
CONTINUOUS
 62
     7
 10
133.50353851246459
 20
65.797043607704651
 30
0.0
 42
0.414213562368167
  0
VERTEX
  5
1543
  8
SAPA_PROFIL
  6
CONTINUOUS
 62
     7
 10
133.80353851244749
 20
66.097043607716657
 30
0.0
  0
VERTEX
  5
1544
  8
SAPA_PROFIL
  6
CONTINUOUS
 62
     7
 10
133.80353851237959
 20
67.797043608898704
 30
0.0
 42
0.4142135623613409
  0
VERTEX
  5
1545
  8
SAPA_PROFIL
  6
CONTINUOUS
 62
     7
 10
133.50353851237949
 20
68.097043608886665
 30
0.0
  0
VERTEX
  5
1546
  8
SAPA_PROFIL
  6
CONTINUOUS
 62
     7
 10
129.80353851237851
 20
68.097043608886665
 30
0.0
 42
0.414213562384816
  0
VERTEX
  5
1547
  8
SAPA_PROFIL
  6
CONTINUOUS
 62
     7
 10
129.50353851237861
 20
67.79704360887466
 30
0.0
  0
VERTEX
  5
1548
  8
SAPA_PROFIL
  6
CONTINUOUS
 62
     7
 10
129.5035385124466
 20
66.097043607477687
 30
0.0
 42
0.4142135623779732
  0
VERTEX
  5
1549
  8
SAPA_PROFIL
  6
CONTINUOUS
 62
     7
 10
129.8035385124636
 20
65.79704360748967
 30
0.0
  0
VERTEX
  5
154A
  8
SAPA_PROFIL
  6
CONTINUOUS
 62
     7
 10
130.00353851244159
 20
65.797043607501664
 30
0.0
 42
-0.5507604245831761
  0
VERTEX
  5
154B
  8
SAPA_PROFIL
  6
CONTINUOUS
 62
     7
 10
130.2745908833395
 20
65.36847217894676
 30
0.0
 42
-0.2896898633203427
  0
VERTEX
  5
154C
  8
SAPA_PROFIL
  6
CONTINUOUS
 62
     7
 10
129.3710829804055
 20
64.797043607460225
 30
0.0
  0
VERTEX
  5
154D
  8
SAPA_PROFIL
  6
CONTINUOUS
 62
     7
 10
128.3035385124856
 20
64.797043607460679
 30
0.0
 42
-0.4142135623613741
  0
VERTEX
  5
154E
  8
SAPA_PROFIL
  6
CONTINUOUS
 62
     7
 10
128.00353851248559
 20
65.097043607448697
 30
0.0
  0
VERTEX
  5
154F
  8
SAPA_PROFIL
  6
CONTINUOUS
 62
     7
 10
128.0035385123586
 20
68.297043607694704
 30
0.0
 42
-0.4142135623845163
  0
VERTEX
  5
1550
  8
SAPA_PROFIL
  6
CONTINUOUS
 62
     7
 10
129.0035385123586
 20
69.297043607733698
 30
0.0
  0
SEQEND
  5
1551
  8
SAPA_PROFIL
  6
CONTINUOUS
 62
     7
  0
POLYLINE
  5
D94
  8
SAPA_PROFIL
  6
CONTINUOUS
 62
     7
 66
     1
 10
0.0
 20
0.0
 30
0.0
 70
     1
  0
VERTEX
  5
1552
  8
SAPA_PROFIL
  6
CONTINUOUS
 62
     7
 10
118.5035385125006
 20
75.497043607733687
 30
0.0
  0
VERTEX
  5
1553
  8
SAPA_PROFIL
  6
CONTINUOUS
 62
     7
 10
118.5035385125006
 20
87.997043607733687
 30
0.0
 42
-0.4142135623730951
  0
VERTEX
  5
1554
  8
SAPA_PROFIL
  6
CONTINUOUS
 62
     7
 10
119.0035385125006
 20
88.497043607733687
 30
0.0
  0
VERTEX
  5
1555
  8
SAPA_PROFIL
  6
CONTINUOUS
 62
     7
 10
123.0035385124999
 20
88.497043607733687
 30
0.0
 42
-0.4142135623730951
  0
VERTEX
  5
1556
  8
SAPA_PROFIL
  6
CONTINUOUS
 62
     7
 10
123.5035385124999
 20
87.997043607733687
 30
0.0
  0
VERTEX
  5
1557
  8
SAPA_PROFIL
  6
CONTINUOUS
 62
     7
 10
123.5035385124999
 20
75.497043607733687
 30
0.0
 42
-0.4142135623730951
  0
VERTEX
  5
1558
  8
SAPA_PROFIL
  6
CONTINUOUS
 62
     7
 10
123.0035385124999
 20
74.997043607733687
 30
0.0
  0
VERTEX
  5
1559
  8
SAPA_PROFIL
  6
CONTINUOUS
 62
     7
 10
119.0035385125006
 20
74.997043607733687
 30
0.0
 42
-0.4142135623730951
  0
SEQEND
  5
155A
  8
SAPA_PROFIL
  6
CONTINUOUS
 62
     7
  0
POLYLINE
  5
D95
  8
SAPA_PROFIL
  6
CONTINUOUS
 62
     7
 66
     1
 10
0.0
 20
0.0
 30
0.0
 70
     1
  0
VERTEX
  5
155B
  8
SAPA_PROFIL
  6
CONTINUOUS
 62
     7
 10
133.0035385125006
 20
44.697043607728162
 30
0.0
 42
-0.4142135623727455
  0
VERTEX
  5
155C
  8
SAPA_PROFIL
  6
CONTINUOUS
 62
     7
 10
133.50353851249989
 20
44.197043607728162
 30
0.0
  0
VERTEX
  5
155D
  8
SAPA_PROFIL
  6
CONTINUOUS
 62
     7
 10
133.50353851249989
 20
43.197043607728162
 30
0.0
 42
-0.4142135623730951
  0
VERTEX
  5
155E
  8
SAPA_PROFIL
  6
CONTINUOUS
 62
     7
 10
133.00353851249989
 20
42.697043607728162
 30
0.0
  0
VERTEX
  5
155F
  8
SAPA_PROFIL
  6
CONTINUOUS
 62
     7
 10
126.0035385124999
 20
42.697043607728162
 30
0.0
 42
0.3371881663440683
  0
VERTEX
  5
1560
  8
SAPA_PROFIL
  6
CONTINUOUS
 62
     7
 10
123.5940664633665
 20
40.863710274394279
 30
0.0
 42
-0.3371881663436752
  0
VERTEX
  5
1561
  8
SAPA_PROFIL
  6
CONTINUOUS
 62
     7
 10
123.11217205353989
 20
40.497043607728173
 30
0.0
  0
VERTEX
  5
1562
  8
SAPA_PROFIL
  6
CONTINUOUS
 62
     7
 10
119.10353851250051
 20
40.497043607728173
 30
0.0
 42
-0.4142135623730951
  0
VERTEX
  5
1563
  8
SAPA_PROFIL
  6
CONTINUOUS
 62
     7
 10
118.60353851250051
 20
40.997043607728173
 30
0.0
  0
VERTEX
  5
1564
  8
SAPA_PROFIL
  6
CONTINUOUS
 62
     7
 10
118.60353851250019
 20
44.590050779894163
 30
0.0
 42
-0.339453859579124
  0
VERTEX
  5
1565
  8
SAPA_PROFIL
  6
CONTINUOUS
 62
     7
 10
118.8258923839746
 20
44.879828416583209
 30
0.0
  0
VERTEX
  5
1566
  8
SAPA_PROFIL
  6
CONTINUOUS
 62
     7
 10
120.1811846410265
 20
45.242979962658168
 30
0.0
 42
0.3394538595791106
  0
VERTEX
  5
1567
  8
SAPA_PROFIL
  6
CONTINUOUS
 62
     7
 10
120.4035385125006
 20
45.532757599347157
 30
0.0
  0
VERTEX
  5
1568
  8
SAPA_PROFIL
  6
CONTINUOUS
 62
     7
 10
120.4035385125006
 20
45.790824636077197
 30
0.0
 42
0.2679488738390008
  0
VERTEX
  5
1569
  8
SAPA_PROFIL
  6
CONTINUOUS
 62
     7
 10
120.15353902735249
 20
46.223837040718173
 30
0.0
  0
VERTEX
  5
156A
  8
SAPA_PROFIL
  6
CONTINUOUS
 62
     7
 10
119.40353882141351
 20
46.656851050512202
 30
0.0
 42
0.2679495024854507
  0
VERTEX
  5
156B
  8
SAPA_PROFIL
  6
CONTINUOUS
 62
     7
 10
119.10353852077949
 20
46.65685123364316
 30
0.0
  0
VERTEX
  5
156C
  8
SAPA_PROFIL
  6
CONTINUOUS
 62
     7
 10
117.7535385538916
 20
45.877428446708201
 30
0.0
 42
0.2679492009687615
  0
VERTEX
  5
156D
  8
SAPA_PROFIL
  6
CONTINUOUS
 62
     7
 10
117.0035385125006
 20
44.578390317134208
 30
0.0
  0
VERTEX
  5
156E
  8
SAPA_PROFIL
  6
CONTINUOUS
 62
     7
 10
117.0035385125006
 20
24.99704360772817
 30
0.0
 42
0.4142135623730951
  0
VERTEX
  5
156F
  8
SAPA_PROFIL
  6
CONTINUOUS
 62
     7
 10
118.0035385125006
 20
23.99704360772817
 30
0.0
  0
VERTEX
  5
1570
  8
SAPA_PROFIL
  6
CONTINUOUS
 62
     7
 10
124.0035385124999
 20
23.99704360772817
 30
0.0
 42
0.4142135623730951
  0
VERTEX
  5
1571
  8
SAPA_PROFIL
  6
CONTINUOUS
 62
     7
 10
125.0035385124999
 20
24.99704360772817
 30
0.0
  0
VERTEX
  5
1572
  8
SAPA_PROFIL
  6
CONTINUOUS
 62
     7
 10
125.0035385124999
 20
40.197043607728162
 30
0.0
 42
-0.4142135623730951
  0
VERTEX
  5
1573
  8
SAPA_PROFIL
  6
CONTINUOUS
 62
     7
 10
126.0035385124999
 20
41.197043607728162
 30
0.0
  0
VERTEX
  5
1574
  8
SAPA_PROFIL
  6
CONTINUOUS
 62
     7
 10
134.003538512501
 20
41.197043607728162
 30
0.0
 42
0.4142135623730951
  0
VERTEX
  5
1575
  8
SAPA_PROFIL
  6
CONTINUOUS
 62
     7
 10
135.003538512501
 20
42.197043607728162
 30
0.0
  0
VERTEX
  5
1576
  8
SAPA_PROFIL
  6
CONTINUOUS
 62
     7
 10
135.0035385125006
 20
48.8970436077282
 30
0.0
 42
0.4142135623730951
  0
VERTEX
  5
1577
  8
SAPA_PROFIL
  6
CONTINUOUS
 62
     7
 10
134.70353851250059
 20
49.197043607728212
 30
0.0
  0
VERTEX
  5
1578
  8
SAPA_PROFIL
  6
CONTINUOUS
 62
     7
 10
133.9359940444736
 20
49.197043607728148
 30
0.0
 42
0.2896898632854179
  0
VERTEX
  5
1579
  8
SAPA_PROFIL
  6
CONTINUOUS
 62
     7
 10
133.0324861415958
 20
48.625615036357473
 30
0.0
 42
0.5507604245879869
  0
VERTEX
  5
157A
  8
SAPA_PROFIL
  6
CONTINUOUS
 62
     7
 10
133.30353851244161
 20
48.197043607768407
 30
0.0
  0
VERTEX
  5
157B
  8
SAPA_PROFIL
  6
CONTINUOUS
 62
     7
 10
133.50353851246459
 20
48.197043607757209
 30
0.0
 42
-0.414213562368167
  0
VERTEX
  5
157C
  8
SAPA_PROFIL
  6
CONTINUOUS
 62
     7
 10
133.80353851244749
 20
47.897043607745204
 30
0.0
  0
VERTEX
  5
157D
  8
SAPA_PROFIL
  6
CONTINUOUS
 62
     7
 10
133.80353851237959
 20
46.197043606563149
 30
0.0
 42
-0.4142135623613409
  0
VERTEX
  5
157E
  8
SAPA_PROFIL
  6
CONTINUOUS
 62
     7
 10
133.50353851237949
 20
45.897043606575203
 30
0.0
  0
VERTEX
  5
157F
  8
SAPA_PROFIL
  6
CONTINUOUS
 62
     7
 10
129.80353851237851
 20
45.897043606575203
 30
0.0
 42
-0.414213562384816
  0
VERTEX
  5
1580
  8
SAPA_PROFIL
  6
CONTINUOUS
 62
     7
 10
129.50353851237861
 20
46.197043606587201
 30
0.0
  0
VERTEX
  5
1581
  8
SAPA_PROFIL
  6
CONTINUOUS
 62
     7
 10
129.5035385124466
 20
47.897043607984173
 30
0.0
 42
-0.4142135623779732
  0
VERTEX
  5
1582
  8
SAPA_PROFIL
  6
CONTINUOUS
 62
     7
 10
129.8035385124636
 20
48.197043607972191
 30
0.0
  0
VERTEX
  5
1583
  8
SAPA_PROFIL
  6
CONTINUOUS
 62
     7
 10
130.00353851244159
 20
48.197043607960197
 30
0.0
 42
0.5507604245831761
  0
VERTEX
  5
1584
  8
SAPA_PROFIL
  6
CONTINUOUS
 62
     7
 10
130.2745908833395
 20
48.6256150365151
 30
0.0
 42
0.2896898633203427
  0
VERTEX
  5
1585
  8
SAPA_PROFIL
  6
CONTINUOUS
 62
     7
 10
129.3710829804055
 20
49.197043608001643
 30
0.0
  0
VERTEX
  5
1586
  8
SAPA_PROFIL
  6
CONTINUOUS
 62
     7
 10
128.3035385124856
 20
49.197043608001181
 30
0.0
 42
0.4142135623613741
  0
VERTEX
  5
1587
  8
SAPA_PROFIL
  6
CONTINUOUS
 62
     7
 10
128.00353851248559
 20
48.897043608013163
 30
0.0
  0
VERTEX
  5
1588
  8
SAPA_PROFIL
  6
CONTINUOUS
 62
     7
 10
128.0035385123586
 20
45.697043607767149
 30
0.0
 42
0.4142135623845163
  0
VERTEX
  5
1589
  8
SAPA_PROFIL
  6
CONTINUOUS
 62
     7
 10
129.0035385123586
 20
44.697043607728162
 30
0.0
  0
SEQEND
  5
158A
  8
SAPA_PROFIL
  6
CONTINUOUS
 62
     7
  0
POLYLINE
  5
D96
  8
SAPA_PROFIL
  6
CONTINUOUS
 62
     7
 66
     1
 10
0.0
 20
0.0
 30
0.0
 70
     1
  0
VERTEX
  5
158B
  8
SAPA_PROFIL
  6
CONTINUOUS
 62
     7
 10
118.5035385125006
 20
38.497043607728173
 30
0.0
  0
VERTEX
  5
158C
  8
SAPA_PROFIL
  6
CONTINUOUS
 62
     7
 10
118.5035385125006
 20
25.99704360772817
 30
0.0
 42
0.4142135623730951
  0
VERTEX
  5
158D
  8
SAPA_PROFIL
  6
CONTINUOUS
 62
     7
 10
119.0035385125006
 20
25.49704360772818
 30
0.0
  0
VERTEX
  5
158E
  8
SAPA_PROFIL
  6
CONTINUOUS
 62
     7
 10
123.0035385124999
 20
25.49704360772818
 30
0.0
 42
0.4142135623730951
  0
VERTEX
  5
158F
  8
SAPA_PROFIL
  6
CONTINUOUS
 62
     7
 10
123.5035385124999
 20
25.99704360772817
 30
0.0
  0
VERTEX
  5
1590
  8
SAPA_PROFIL
  6
CONTINUOUS
 62
     7
 10
123.5035385124999
 20
38.497043607728173
 30
0.0
 42
0.4142135623730951
  0
VERTEX
  5
1591
  8
SAPA_PROFIL
  6
CONTINUOUS
 62
     7
 10
123.0035385124999
 20
38.99704360772818
 30
0.0
  0
VERTEX
  5
1592
  8
SAPA_PROFIL
  6
CONTINUOUS
 62
     7
 10
119.0035385125006
 20
38.99704360772818
 30
0.0
 42
0.4142135623730951
  0
SEQEND
  5
1593
  8
SAPA_PROFIL
  6
CONTINUOUS
 62
     7
  0
POLYLINE
  5
DCD
  8
SAPA_GLAS
 66
     1
 10
0.0
 20
0.0
 30
0.0
  0
VERTEX
  5
161B
  8
SAPA_GLAS
 10
143.96698220474121
 20
58.69798273781803
 30
0.0
  0
VERTEX
  5
161C
  8
SAPA_GLAS
 10
122.00353851250151
 20
58.69798273781803
 30
0.0
  0
VERTEX
  5
161D
  8
SAPA_GLAS
 10
122.00353851250139
 20
53.69798273781803
 30
0.0
  0
VERTEX
  5
161E
  8
SAPA_GLAS
 10
143.96698220474121
 20
53.697982737817583
 30
0.0
  0
SEQEND
  5
161F
  8
SAPA_GLAS
  0
POLYLINE
  5
DCE
  8
SAPA_GLAS
 62
     4
 66
     1
 10
0.0
 20
0.0
 30
0.0
  0
VERTEX
  5
1620
  8
SAPA_GLAS
 62
     4
 10
112.17861131790001
 20
39.74781777880343
 30
0.0
  0
VERTEX
  5
1621
  8
SAPA_GLAS
 62
     4
 10
112.0001807228995
 20
39.74781777880343
 30
0.0
  0
VERTEX
  5
1622
  8
SAPA_GLAS
 62
     4
 10
111.99291308893061
 20
37.690116994618208
 30
0.0
 42
0.2140529349479797
  0
VERTEX
  5
1623
  8
SAPA_GLAS
 62
     4
 10
112.3490001478016
 20
36.954694816269452
 30
0.0
  0
VERTEX
  5
1624
  8
SAPA_GLAS
 62
     4
 10
114.06248901885679
 20
35.516906936269478
 30
0.0
  0
VERTEX
  5
1625
  8
SAPA_GLAS
 62
     4
 10
114.33229010280169
 20
35.516906936269478
 30
0.0
 42
0.3406963145532739
  0
VERTEX
  5
1626
  8
SAPA_GLAS
 62
     4
 10
114.6220674998016
 20
35.739261324269457
 30
0.0
  0
VERTEX
  5
1627
  8
SAPA_GLAS
 62
     4
 10
114.6964643898022
 20
36.016907631269518
 30
0.0
  0
VERTEX
  5
1628
  8
SAPA_GLAS
 62
     4
 10
116.18660959580249
 20
36.016907631269518
 30
0.0
 42
0.4143126768888159
  0
VERTEX
  5
1629
  8
SAPA_GLAS
 62
     4
 10
116.6866095868025
 20
36.516907653120469
 30
0.0
 42
0.4142135654047016
  0
VERTEX
  5
162A
  8
SAPA_GLAS
 62
     4
 10
116.18660959580249
 20
37.016907631269518
 30
0.0
  0
VERTEX
  5
162B
  8
SAPA_GLAS
 62
     4
 10
114.60844215780109
 20
37.016907631269518
 30
0.0
  0
VERTEX
  5
162C
  8
SAPA_GLAS
 62
     4
 10
114.39579789180191
 20
37.195338279269542
 30
0.0
  0
VERTEX
  5
162D
  8
SAPA_GLAS
 62
     4
 10
114.0628327998014
 20
37.474729165269409
 30
0.0
 42
-0.7002174037893392
  0
VERTEX
  5
162E
  8
SAPA_GLAS
 62
     4
 10
114.36936052180261
 20
38.31690707826953
 30
0.0
  0
VERTEX
  5
162F
  8
SAPA_GLAS
 62
     4
 10
114.4584942108026
 20
38.316907078269409
 30
0.0
 42
0.2144460213420203
  0
VERTEX
  5
1630
  8
SAPA_GLAS
 62
     4
 10
114.6828828399685
 20
38.417784641211142
 30
0.0
 42
0.1406819131329793
  0
VERTEX
  5
1631
  8
SAPA_GLAS
 62
     4
 10
117.204484605201
 20
44.238016896700657
 30
0.0
 42
0.4163218500992306
  0
VERTEX
  5
1632
  8
SAPA_GLAS
 62
     4
 10
116.7921740151268
 20
44.882756818270572
 30
0.0
 42
0.4161381358961391
  0
VERTEX
  5
1633
  8
SAPA_GLAS
 62
     4
 10
116.36283173124529
 20
44.604000167035579
 30
0.0
 42
-0.0216046274901013
  0
VERTEX
  5
1634
  8
SAPA_GLAS
 62
     4
 10
116.0834732518406
 20
43.507471991432269
 30
0.0
 42
0.0585446842315064
  0
VERTEX
  5
1635
  8
SAPA_GLAS
 62
     4
 10
115.9008703317418
 20
43.520145996855028
 30
0.0
 42
0.6633364648203772
  0
VERTEX
  5
1636
  8
SAPA_GLAS
 62
     4
 10
115.402952822668
 20
42.163469212171861
 30
0.0
 42
0.0585446835702872
  0
VERTEX
  5
1637
  8
SAPA_GLAS
 62
     4
 10
115.5504014135151
 20
42.055010145849288
 30
0.0
 42
-0.0660488412277625
  0
VERTEX
  5
1638
  8
SAPA_GLAS
 62
     4
 10
114.6405187166483
 20
39.349332579941247
 30
0.0
 42
-0.746696463226774
  0
VERTEX
  5
1639
  8
SAPA_GLAS
 62
     4
 10
113.9320382438995
 20
39.618346146803432
 30
0.0
  0
VERTEX
  5
163A
  8
SAPA_GLAS
 62
     4
 10
114.1665103757102
 20
42.74464120358742
 30
0.0
 42
-0.4013066520881259
  0
VERTEX
  5
163B
  8
SAPA_GLAS
 62
     4
 10
114.2762841384491
 20
44.208291356192532
 30
0.0
  0
VERTEX
  5
163C
  8
SAPA_GLAS
 62
     4
 10
114.45348228364441
 20
46.570933279083512
 30
0.0
 42
-0.3774240282006514
  0
VERTEX
  5
163D
  8
SAPA_GLAS
 62
     4
 10
115.10840229191071
 20
47.211280930260479
 30
0.0
  0
VERTEX
  5
163E
  8
SAPA_GLAS
 62
     4
 10
119.7667416337794
 20
47.455414150180779
 30
0.0
 42
-0.4091108014272572
  0
VERTEX
  5
163F
  8
SAPA_GLAS
 62
     4
 10
120.29169163690079
 20
46.990977619803388
 30
0.0
  0
VERTEX
  5
1640
  8
SAPA_GLAS
 62
     4
 10
120.3985461228998
 20
45.462887273803382
 30
0.0
  0
VERTEX
  5
1641
  8
SAPA_GLAS
 62
     4
 10
119.4177539018996
 20
45.12517342880345
 30
0.0
  0
VERTEX
  5
1642
  8
SAPA_GLAS
 62
     4
 10
119.48920606589979
 20
44.103359886803432
 30
0.0
  0
VERTEX
  5
1643
  8
SAPA_GLAS
 62
     4
 10
121.04048446789911
 20
42.754854144803502
 30
0.0
 42
0.6681786379189785
  0
VERTEX
  5
1644
  8
SAPA_GLAS
 62
     4
 10
123.02483220714601
 20
43.744213431179439
 30
0.0
  0
VERTEX
  5
1645
  8
SAPA_GLAS
 62
     4
 10
122.6688240552898
 20
48.83536719641959
 30
0.0
 42
0.4091108014277562
  0
VERTEX
  5
1646
  8
SAPA_GLAS
 62
     4
 10
121.0939740455355
 20
50.228676787935349
 30
0.0
  0
VERTEX
  5
1647
  8
SAPA_GLAS
 62
     4
 10
114.7001817578997
 20
49.893592332803429
 30
0.0
  0
VERTEX
  5
1648
  8
SAPA_GLAS
 62
     4
 10
114.7001817578997
 20
51.193592306803438
 30
0.0
 42
0.4142135623730951
  0
VERTEX
  5
1649
  8
SAPA_GLAS
 62
     4
 10
114.5001817579008
 20
51.393592305803431
 30
0.0
  0
VERTEX
  5
164A
  8
SAPA_GLAS
 62
     4
 10
113.2001817839004
 20
51.393592306803477
 30
0.0
 42
0.4142129984811689
  0
VERTEX
  5
164B
  8
SAPA_GLAS
 62
     4
 10
112.0001807228995
 20
50.193592093803417
 30
0.0
  0
VERTEX
  5
164C
  8
SAPA_GLAS
 62
     4
 10
112.0001807228995
 20
47.742611698803422
 30
0.0
  0
VERTEX
  5
164D
  8
SAPA_GLAS
 62
     4
 10
112.17861131790001
 20
47.742611698803422
 30
0.0
  0
VERTEX
  5
164E
  8
SAPA_GLAS
 62
     4
 10
112.1786113169015
 20
46.543745241803421
 30
0.0
 42
-0.3178372439693919
  0
VERTEX
  5
164F
  8
SAPA_GLAS
 62
     4
 10
112.11194464990091
 20
46.449464336803409
 30
0.0
  0
VERTEX
  5
1650
  8
SAPA_GLAS
 62
     4
 10
111.93351405572621
 20
46.386379594536599
 30
0.0
 42
0.7071067778427834
  0
VERTEX
  5
1651
  8
SAPA_GLAS
 62
     4
 10
111.9335140549005
 20
46.009255968803458
 30
0.0
  0
VERTEX
  5
1652
  8
SAPA_GLAS
 62
     4
 10
112.11194464998761
 20
45.946171225755833
 30
0.0
 42
-0.3178372439683286
  0
VERTEX
  5
1653
  8
SAPA_GLAS
 62
     4
 10
112.17861131790001
 20
45.851890320803463
 30
0.0
  0
VERTEX
  5
1654
  8
SAPA_GLAS
 62
     4
 10
112.17861131790001
 20
39.74781777880343
 30
0.0
  0
VERTEX
  5
1655
  8
SAPA_GLAS
 62
     4
 10
112.17861131790001
 20
45.851890320803463
 30
0.0
  0
SEQEND
  5
1656
  8
SAPA_GLAS
 62
     4
  0
POLYLINE
  5
DCF
  8
SAPA_GLAS
 62
     4
 66
     1
 10
0.0
 20
0.0
 30
0.0
  0
VERTEX
  5
1657
  8
SAPA_GLAS
 62
     4
 10
112.17861131790001
 20
74.246269442959303
 30
0.0
  0
VERTEX
  5
1658
  8
SAPA_GLAS
 62
     4
 10
112.0001807228995
 20
74.246269442959303
 30
0.0
  0
VERTEX
  5
1659
  8
SAPA_GLAS
 62
     4
 10
111.99291308893061
 20
76.303970227144504
 30
0.0
 42
-0.2140529349479797
  0
VERTEX
  5
165A
  8
SAPA_GLAS
 62
     4
 10
112.3490001478016
 20
77.039392405493274
 30
0.0
  0
VERTEX
  5
165B
  8
SAPA_GLAS
 62
     4
 10
114.06248901885679
 20
78.477180285493247
 30
0.0
  0
VERTEX
  5
165C
  8
SAPA_GLAS
 62
     4
 10
114.33229010280169
 20
78.477180285493247
 30
0.0
 42
-0.3406963145532739
  0
VERTEX
  5
165D
  8
SAPA_GLAS
 62
     4
 10
114.6220674998016
 20
78.254825897493262
 30
0.0
  0
VERTEX
  5
165E
  8
SAPA_GLAS
 62
     4
 10
114.6964643898022
 20
77.977179590493208
 30
0.0
  0
VERTEX
  5
165F
  8
SAPA_GLAS
 62
     4
 10
116.18660959580249
 20
77.977179590493208
 30
0.0
 42
-0.4143126768888159
  0
VERTEX
  5
1660
  8
SAPA_GLAS
 62
     4
 10
116.6866095868025
 20
77.477179568642256
 30
0.0
 42
-0.4142135654047016
  0
VERTEX
  5
1661
  8
SAPA_GLAS
 62
     4
 10
116.18660959580249
 20
76.977179590493193
 30
0.0
  0
VERTEX
  5
1662
  8
SAPA_GLAS
 62
     4
 10
114.60844215780109
 20
76.977179590493193
 30
0.0
  0
VERTEX
  5
1663
  8
SAPA_GLAS
 62
     4
 10
114.39579789180191
 20
76.798748942493191
 30
0.0
  0
VERTEX
  5
1664
  8
SAPA_GLAS
 62
     4
 10
114.0628327998014
 20
76.519358056493317
 30
0.0
 42
0.7002174037893392
  0
VERTEX
  5
1665
  8
SAPA_GLAS
 62
     4
 10
114.36936052180261
 20
75.677180143493203
 30
0.0
  0
VERTEX
  5
1666
  8
SAPA_GLAS
 62
     4
 10
114.4584942108026
 20
75.677180143493317
 30
0.0
 42
-0.2144460213420203
  0
VERTEX
  5
1667
  8
SAPA_GLAS
 62
     4
 10
114.6828828399685
 20
75.576302580551584
 30
0.0
 42
-0.1406819131329793
  0
VERTEX
  5
1668
  8
SAPA_GLAS
 62
     4
 10
117.204484605201
 20
69.756070325062055
 30
0.0
 42
-0.4163218500992306
  0
VERTEX
  5
1669
  8
SAPA_GLAS
 62
     4
 10
116.7921740151268
 20
69.111330403492147
 30
0.0
 42
-0.4161381358961391
  0
VERTEX
  5
166A
  8
SAPA_GLAS
 62
     4
 10
116.36283173124529
 20
69.390087054727147
 30
0.0
 42
0.0216046274901013
  0
VERTEX
  5
166B
  8
SAPA_GLAS
 62
     4
 10
116.0834732518406
 20
70.486615230330457
 30
0.0
 42
-0.0585446842315064
  0
VERTEX
  5
166C
  8
SAPA_GLAS
 62
     4
 10
115.9008703317418
 20
70.473941224907691
 30
0.0
 42
-0.6633364648203772
  0
VERTEX
  5
166D
  8
SAPA_GLAS
 62
     4
 10
115.402952822668
 20
71.830618009590864
 30
0.0
 42
-0.0585446835702872
  0
VERTEX
  5
166E
  8
SAPA_GLAS
 62
     4
 10
115.5504014135151
 20
71.939077075913431
 30
0.0
 42
0.0660488412277625
  0
VERTEX
  5
166F
  8
SAPA_GLAS
 62
     4
 10
114.6405187166483
 20
74.644754641821478
 30
0.0
 42
0.746696463226774
  0
VERTEX
  5
1670
  8
SAPA_GLAS
 62
     4
 10
113.9320382438995
 20
74.375741074959294
 30
0.0
  0
VERTEX
  5
1671
  8
SAPA_GLAS
 62
     4
 10
114.1665103757102
 20
71.249446018175306
 30
0.0
 42
0.4013066520881259
  0
VERTEX
  5
1672
  8
SAPA_GLAS
 62
     4
 10
114.2762841384491
 20
69.785795865570194
 30
0.0
  0
VERTEX
  5
1673
  8
SAPA_GLAS
 62
     4
 10
114.45348228364441
 20
67.423153942679207
 30
0.0
 42
0.3774240282006514
  0
VERTEX
  5
1674
  8
SAPA_GLAS
 62
     4
 10
115.10840229191071
 20
66.78280629150224
 30
0.0
  0
VERTEX
  5
1675
  8
SAPA_GLAS
 62
     4
 10
119.7667416337794
 20
66.538673071581925
 30
0.0
 42
0.4091108014272572
  0
VERTEX
  5
1676
  8
SAPA_GLAS
 62
     4
 10
120.29169163690079
 20
67.003109601959338
 30
0.0
  0
VERTEX
  5
1677
  8
SAPA_GLAS
 62
     4
 10
120.3985461228998
 20
68.531199947959337
 30
0.0
  0
VERTEX
  5
1678
  8
SAPA_GLAS
 62
     4
 10
119.4177539018996
 20
68.868913792959276
 30
0.0
  0
VERTEX
  5
1679
  8
SAPA_GLAS
 62
     4
 10
119.48920606589979
 20
69.890727334959294
 30
0.0
  0
VERTEX
  5
167A
  8
SAPA_GLAS
 62
     4
 10
121.04048446789911
 20
71.239233076959223
 30
0.0
 42
-0.6681786379189785
  0
VERTEX
  5
167B
  8
SAPA_GLAS
 62
     4
 10
123.02483220714601
 20
70.24987379058328
 30
0.0
  0
VERTEX
  5
167C
  8
SAPA_GLAS
 62
     4
 10
122.6688240552898
 20
65.158720025343129
 30
0.0
 42
-0.4091108014277562
  0
VERTEX
  5
167D
  8
SAPA_GLAS
 62
     4
 10
121.0939740455355
 20
63.765410433827363
 30
0.0
  0
VERTEX
  5
167E
  8
SAPA_GLAS
 62
     4
 10
114.7001817578997
 20
64.100494888959275
 30
0.0
  0
VERTEX
  5
167F
  8
SAPA_GLAS
 62
     4
 10
114.7001817578997
 20
62.800494914959287
 30
0.0
 42
-0.4142135623730951
  0
VERTEX
  5
1680
  8
SAPA_GLAS
 62
     4
 10
114.5001817579008
 20
62.600494915959281
 30
0.0
  0
VERTEX
  5
1681
  8
SAPA_GLAS
 62
     4
 10
113.2001817839004
 20
62.600494914959242
 30
0.0
 42
-0.4142129984811689
  0
VERTEX
  5
1682
  8
SAPA_GLAS
 62
     4
 10
112.0001807228995
 20
63.800495127959309
 30
0.0
  0
VERTEX
  5
1683
  8
SAPA_GLAS
 62
     4
 10
112.0001807228995
 20
66.251475522959296
 30
0.0
  0
VERTEX
  5
1684
  8
SAPA_GLAS
 62
     4
 10
112.17861131790001
 20
66.251475522959296
 30
0.0
  0
VERTEX
  5
1685
  8
SAPA_GLAS
 62
     4
 10
112.1786113169015
 20
67.450341979959305
 30
0.0
 42
0.3178372439693919
  0
VERTEX
  5
1686
  8
SAPA_GLAS
 62
     4
 10
112.11194464990091
 20
67.54462288495931
 30
0.0
  0
VERTEX
  5
1687
  8
SAPA_GLAS
 62
     4
 10
111.93351405572621
 20
67.607707627226119
 30
0.0
 42
-0.7071067778427834
  0
VERTEX
  5
1688
  8
SAPA_GLAS
 62
     4
 10
111.9335140549005
 20
67.984831252959268
 30
0.0
  0
VERTEX
  5
1689
  8
SAPA_GLAS
 62
     4
 10
112.11194464998761
 20
68.047915996006893
 30
0.0
 42
0.3178372439683286
  0
VERTEX
  5
168A
  8
SAPA_GLAS
 62
     4
 10
112.17861131790001
 20
68.142196900959263
 30
0.0
  0
VERTEX
  5
168B
  8
SAPA_GLAS
 62
     4
 10
112.17861131790001
 20
74.246269442959303
 30
0.0
  0
VERTEX
  5
168C
  8
SAPA_GLAS
 62
     4
 10
112.17861131790001
 20
68.142196900959263
 30
0.0
  0
SEQEND
  5
168D
  8
SAPA_GLAS
 62
     4
  0
POLYLINE
  5
DDE
  8
SAPA_FOGBAND
 66
     1
 10
0.0
 20
0.0
 30
0.0
 70
     1
  0
VERTEX
  5
1707
  8
SAPA_FOGBAND
 10
133.59946376093751
 20
62.479324202662021
 30
0.0
 42
0.6068148963145287
  0
VERTEX
  5
1708
  8
SAPA_FOGBAND
 10
132.96895819053469
 20
61.207852392427739
 30
0.0
  0
VERTEX
  5
1709
  8
SAPA_FOGBAND
 10
134.47095333808161
 20
60.69046993466177
 30
0.0
 42
0.1316524975883116
  0
VERTEX
  5
170A
  8
SAPA_FOGBAND
 10
135.27692005755051
 20
60.040689651144341
 30
0.0
  0
VERTEX
  5
170B
  8
SAPA_FOGBAND
 10
136.4608718596098
 20
59.516623011378996
 30
0.0
 42
1.124972303878051
  0
VERTEX
  5
170C
  8
SAPA_FOGBAND
 10
136.75362505723541
 20
60.465599152852853
 30
0.0
 42
-0.2420391898149514
  0
VERTEX
  5
170D
  8
SAPA_FOGBAND
 10
135.31141381501101
 20
61.772593714729148
 30
0.0
 42
0.3924548244555349
  0
VERTEX
  5
170E
  8
SAPA_FOGBAND
 10
134.499290643336
 20
62.496975879999219
 30
0.0
  0
SEQEND
  5
170F
  8
SAPA_FOGBAND
  0
POLYLINE
  5
DDF
  8
SAPA_FOGBAND
 66
     1
 10
0.0
 20
0.0
 30
0.0
 70
     1
  0
VERTEX
  5
1710
  8
SAPA_FOGBAND
 10
135.41476249872369
 20
66.81576173738982
 30
0.0
 42
-0.3435051548069418
  0
VERTEX
  5
1711
  8
SAPA_FOGBAND
 10
136.7926502348929
 20
65.785273462135464
 30
0.0
 42
-0.0844492164087781
  0
VERTEX
  5
1712
  8
SAPA_FOGBAND
 10
137.96497377056329
 20
59.852788429796291
 30
0.0
 42
-0.5082987633250707
  0
VERTEX
  5
1713
  8
SAPA_FOGBAND
 10
136.3769656863839
 20
58.740350792079752
 30
0.0
  0
VERTEX
  5
1714
  8
SAPA_FOGBAND
 10
135.5371849614545
 20
59.027482119749372
 30
0.0
 42
-0.1227845609027522
  0
VERTEX
  5
1715
  8
SAPA_FOGBAND
 10
134.3181228095529
 20
59.815410288001978
 30
0.0
  0
VERTEX
  5
1716
  8
SAPA_FOGBAND
 10
131.88578473026621
 20
60.960155071082099
 30
0.0
 42
-0.185339044931303
  0
VERTEX
  5
1717
  8
SAPA_FOGBAND
 10
131.61585532084851
 20
61.62411927416575
 30
0.0
  0
VERTEX
  5
1718
  8
SAPA_FOGBAND
 10
131.6044060530154
 20
62.20776686659552
 30
0.0
 42
0.637070260806495
  0
VERTEX
  5
1719
  8
SAPA_FOGBAND
 10
130.72199480885831
 20
62.598359029905488
 30
0.0
  0
VERTEX
  5
171A
  8
SAPA_FOGBAND
 10
129.48801468825889
 20
61.52098609244409
 30
0.0
  0
VERTEX
  5
171B
  8
SAPA_FOGBAND
 10
128.10556994145111
 20
61.663708816157261
 30
0.0
  0
VERTEX
  5
171C
  8
SAPA_FOGBAND
 10
126.9407892203027
 20
60.646753027258328
 30
0.0
 42
0.5130095229949326
  0
VERTEX
  5
171D
  8
SAPA_FOGBAND
 10
126.986994456419
 20
60.161597314067293
 30
0.0
  0
VERTEX
  5
171E
  8
SAPA_FOGBAND
 10
127.9141891873962
 20
59.621021543662081
 30
0.0
 42
-0.9999999999911414
  0
VERTEX
  5
171F
  8
SAPA_FOGBAND
 10
127.4105182631326
 20
58.7571259480968
 30
0.0
  0
VERTEX
  5
1720
  8
SAPA_FOGBAND
 10
125.6295518681046
 20
59.795470158742638
 30
0.0
 42
-0.4074844101255689
  0
VERTEX
  5
1721
  8
SAPA_FOGBAND
 10
125.2579581068232
 20
61.143009972973097
 30
0.0
 42
-0.1341701473004443
  0
VERTEX
  5
1722
  8
SAPA_FOGBAND
 10
131.04706897601289
 20
66.082706446169013
 30
0.0
 42
-0.4801675429815227
  0
VERTEX
  5
1723
  8
SAPA_FOGBAND
 10
131.493446393563
 20
65.941290899358009
 30
0.0
  0
VERTEX
  5
1724
  8
SAPA_FOGBAND
 10
131.904192891626
 20
64.878132286789295
 30
0.0
 42
0.3152987888694689
  0
VERTEX
  5
1725
  8
SAPA_FOGBAND
 10
132.0946762537298
 20
64.750247661866396
 30
0.0
  0
VERTEX
  5
1726
  8
SAPA_FOGBAND
 10
134.8541038600967
 20
64.804378658278765
 30
0.0
 42
0.4142135623730628
  0
VERTEX
  5
1727
  8
SAPA_FOGBAND
 10
135.1481622617836
 20
65.110204844857293
 30
0.0
  0
VERTEX
  5
1728
  8
SAPA_FOGBAND
 10
134.9207425676147
 20
66.506012955846799
 30
0.0
 42
-0.4142135623730295
  0
VERTEX
  5
1729
  8
SAPA_FOGBAND
 10
135.21480096930199
 20
66.811839142425796
 30
0.0
  0
SEQEND
  5
172A
  8
SAPA_FOGBAND
  0
POLYLINE
  5
DE0
  8
SAPA_FOGBAND
 66
     1
 10
0.0
 20
0.0
 30
0.0
  0
VERTEX
  5
172B
  8
SAPA_FOGBAND
 10
133.20908795614071
 20
49.197982737818037
 30
0.0
  0
VERTEX
  5
172C
  8
SAPA_FOGBAND
 10
133.0167295361486
 20
48.107063927665301
 30
0.0
  0
VERTEX
  5
172D
  8
SAPA_FOGBAND
 10
133.44852609605019
 20
47.99136438814535
 30
0.0
 42
-0.443015895426252
  0
VERTEX
  5
172E
  8
SAPA_FOGBAND
 10
133.58400314359429
 20
47.727887960038387
 30
0.0
  0
VERTEX
  5
172F
  8
SAPA_FOGBAND
 10
133.1070549503753
 20
46.457400212120191
 30
0.0
 42
-0.3125358528825162
  0
VERTEX
  5
1730
  8
SAPA_FOGBAND
 10
132.7325732372457
 20
46.197982737818492
 30
0.0
  0
VERTEX
  5
1731
  8
SAPA_FOGBAND
 10
130.86241792133541
 20
46.19798273781803
 30
0.0
 42
-0.3125358528825104
  0
VERTEX
  5
1732
  8
SAPA_FOGBAND
 10
130.48793620820621
 20
46.457400212120191
 30
0.0
  0
VERTEX
  5
1733
  8
SAPA_FOGBAND
 10
130.01098801498679
 20
47.727887960038387
 30
0.0
 42
-0.443015895426252
  0
VERTEX
  5
1734
  8
SAPA_FOGBAND
 10
130.14646506253089
 20
47.99136438814535
 30
0.0
  0
VERTEX
  5
1735
  8
SAPA_FOGBAND
 10
130.57826162243299
 20
48.107063927665301
 30
0.0
  0
VERTEX
  5
1736
  8
SAPA_FOGBAND
 10
130.38911776609041
 20
49.17975204143282
 30
0.0
  0
SEQEND
  5
1737
  8
SAPA_FOGBAND
  0
POLYLINE
  5
DE1
  8
SAPA_FOGBAND
 66
     1
 10
0.0
 20
0.0
 30
0.0
  0
VERTEX
  5
1738
  8
SAPA_FOGBAND
 10
133.1974955792904
 20
49.197982737818037
 30
0.0
 42
0.285714285714282
  0
VERTEX
  5
1739
  8
SAPA_FOGBAND
 10
130.39749557929071
 20
49.197982737818037
 30
0.0
  0
VERTEX
  5
173A
  8
SAPA_FOGBAND
 10
128.3237154099026
 20
49.197982737818492
 30
0.0
 42
-0.3882600129940275
  0
VERTEX
  5
173B
  8
SAPA_FOGBAND
 10
128.0249139125614
 20
49.47119346409805
 30
0.0
  0
VERTEX
  5
173C
  8
SAPA_FOGBAND
 10
127.5587039886347
 20
53.371193464098141
 30
0.0
 42
-0.4406523138893894
  0
VERTEX
  5
173D
  8
SAPA_FOGBAND
 10
127.8575054859768
 20
53.69798273781803
 30
0.0
  0
VERTEX
  5
173E
  8
SAPA_FOGBAND
 10
129.56729748289689
 20
53.69798273781803
 30
0.0
 42
-0.3394542588634375
  0
VERTEX
  5
173F
  8
SAPA_FOGBAND
 10
129.85707523078341
 20
53.475628451349039
 30
0.0
  0
VERTEX
  5
1740
  8
SAPA_FOGBAND
 10
130.05945495871509
 20
53.258042669181449
 30
0.0
 42
0.3394542588633663
  0
VERTEX
  5
1741
  8
SAPA_FOGBAND
 10
130.34923270660161
 20
53.035688382712451
 30
0.0
  0
VERTEX
  5
1742
  8
SAPA_FOGBAND
 10
133.2457584519795
 20
53.035688382712451
 30
0.0
 42
0.3394542588634373
  0
VERTEX
  5
1743
  8
SAPA_FOGBAND
 10
133.53553619986599
 20
53.258042669181449
 30
0.0
  0
VERTEX
  5
1744
  8
SAPA_FOGBAND
 10
133.7379159277977
 20
53.475628451349039
 30
0.0
 42
-0.3394542588633662
  0
VERTEX
  5
1745
  8
SAPA_FOGBAND
 10
134.02769367568419
 20
53.69798273781803
 30
0.0
  0
VERTEX
  5
1746
  8
SAPA_FOGBAND
 10
135.73748567260429
 20
53.69798273781803
 30
0.0
 42
-0.4406523138893994
  0
VERTEX
  5
1747
  8
SAPA_FOGBAND
 10
136.03628716994601
 20
53.371193464098141
 30
0.0
  0
VERTEX
  5
1748
  8
SAPA_FOGBAND
 10
135.57007724601971
 20
49.47119346409805
 30
0.0
 42
-0.3882600129940462
  0
VERTEX
  5
1749
  8
SAPA_FOGBAND
 10
135.27127574867851
 20
49.197982737818037
 30
0.0
  0
VERTEX
  5
174A
  8
SAPA_FOGBAND
 10
133.20908795614071
 20
49.197982737818037
 30
0.0
  0
SEQEND
  5
174B
  8
SAPA_FOGBAND
  0
POLYLINE
  5
DE2
  8
SAPA_FOGBAND
 66
     1
 10
0.0
 20
0.0
 30
0.0
 70
     1
  0
VERTEX
  5
174C
  8
SAPA_FOGBAND
 10
59.837010347776612
 20
35.116286684135602
 30
0.0
  0
VERTEX
  5
174D
  8
SAPA_FOGBAND
 10
59.057864709238373
 20
33.723553114993912
 30
0.0
  0
VERTEX
  5
174E
  8
SAPA_FOGBAND
 10
55.788058127057752
 20
33.723553114994033
 30
0.0
  0
VERTEX
  5
174F
  8
SAPA_FOGBAND
 10
52.518251544877039
 20
33.723553114994033
 30
0.0
  0
VERTEX
  5
1750
  8
SAPA_FOGBAND
 10
51.739105906338857
 20
35.116286684135709
 30
0.0
 42
-0.5728458134769883
  0
VERTEX
  5
1751
  8
SAPA_FOGBAND
 10
51.82637747421478
 20
35.265109562384261
 30
0.0
  0
VERTEX
  5
1752
  8
SAPA_FOGBAND
 10
52.518251544877039
 20
35.265109562384261
 30
0.0
 42
0.9999999999999998
  0
VERTEX
  5
1753
  8
SAPA_FOGBAND
 10
52.518251544877039
 20
36.550628952768513
 30
0.0
 42
-0.9999999999999998
  0
VERTEX
  5
1754
  8
SAPA_FOGBAND
 10
52.518251544877039
 20
38.814956675665243
 30
0.0
  0
VERTEX
  5
1755
  8
SAPA_FOGBAND
 10
55.788058127057752
 20
38.814956675665243
 30
0.0
  0
VERTEX
  5
1756
  8
SAPA_FOGBAND
 10
59.05786470923843
 20
38.814956675665243
 30
0.0
 42
-1.000000000000012
  0
VERTEX
  5
1757
  8
SAPA_FOGBAND
 10
59.05786470923843
 20
36.550628952768513
 30
0.0
 42
0.9999999999999998
  0
VERTEX
  5
1758
  8
SAPA_FOGBAND
 10
59.05786470923843
 20
35.265109562384261
 30
0.0
  0
VERTEX
  5
1759
  8
SAPA_FOGBAND
 10
59.749738779900703
 20
35.265109562384261
 30
0.0
 42
-0.5728458134769883
  0
SEQEND
  5
175A
  8
SAPA_FOGBAND
  0
POLYLINE
  5
DE3
  8
SAPA_FOGBAND
 66
     1
 10
0.0
 20
0.0
 30
0.0
 70
     1
  0
VERTEX
  5
175B
  8
SAPA_FOGBAND
 10
52.518251544877039
 20
38.414956675665259
 30
0.0
 42
0.9999999999999998
  0
VERTEX
  5
175C
  8
SAPA_FOGBAND
 10
52.518251544877039
 20
36.95062895276849
 30
0.0
  0
VERTEX
  5
175D
  8
SAPA_FOGBAND
 10
59.05786470923843
 20
36.95062895276849
 30
0.0
 42
1.000000000000012
  0
VERTEX
  5
175E
  8
SAPA_FOGBAND
 10
59.05786470923843
 20
38.414956675665259
 30
0.0
  0
VERTEX
  5
175F
  8
SAPA_FOGBAND
 10
55.788058127057752
 20
38.414956675665259
 30
0.0
  0
SEQEND
  5
1760
  8
SAPA_FOGBAND
  0
POLYLINE
  5
DE4
  8
SAPA_FOGBAND
 66
     1
 10
0.0
 20
0.0
 30
0.0
 70
     1
  0
VERTEX
  5
1761
  8
SAPA_FOGBAND
 10
54.36703289387242
 20
34.445917848585381
 30
0.0
 42
-0.9999999999999998
  0
VERTEX
  5
1762
  8
SAPA_FOGBAND
 10
54.36703289387242
 20
35.808913742105098
 30
0.0
  0
VERTEX
  5
1763
  8
SAPA_FOGBAND
 10
57.003073050355141
 20
35.808913742105098
 30
0.0
 42
-0.9944227986505279
  0
VERTEX
  5
1764
  8
SAPA_FOGBAND
 10
57.010696069893839
 20
34.44591784858526
 30
0.0
  0
SEQEND
  5
1765
  8
SAPA_FOGBAND
  0
POLYLINE
  5
DE5
  8
SAPA_FOGBAND
 66
     1
 10
0.0
 20
0.0
 30
0.0
 70
     1
  0
VERTEX
  5
1766
  8
SAPA_FOGBAND
 10
62.640044131128903
 20
79.512206390807933
 30
0.0
 42
-0.9999999999999998
  0
VERTEX
  5
1767
  8
SAPA_FOGBAND
 10
62.640044131128903
 20
78.149210497288209
 30
0.0
  0
VERTEX
  5
1768
  8
SAPA_FOGBAND
 10
60.004003974646153
 20
78.149210497288209
 30
0.0
 42
-0.9944227986505279
  0
VERTEX
  5
1769
  8
SAPA_FOGBAND
 10
59.996380955107462
 20
79.512206390807933
 30
0.0
  0
SEQEND
  5
176A
  8
SAPA_FOGBAND
  0
POLYLINE
  5
DE6
  8
SAPA_FOGBAND
 66
     1
 10
0.0
 20
0.0
 30
0.0
 70
     1
  0
VERTEX
  5
176B
  8
SAPA_FOGBAND
 10
57.170066677224682
 20
78.841837555257626
 30
0.0
  0
VERTEX
  5
176C
  8
SAPA_FOGBAND
 10
57.949212315762921
 20
80.234571124399281
 30
0.0
  0
VERTEX
  5
176D
  8
SAPA_FOGBAND
 10
61.21901889794357
 20
80.234571124399267
 30
0.0
  0
VERTEX
  5
176E
  8
SAPA_FOGBAND
 10
64.488825480124277
 20
80.234571124399267
 30
0.0
  0
VERTEX
  5
176F
  8
SAPA_FOGBAND
 10
65.267971118662459
 20
78.841837555257598
 30
0.0
 42
-0.5728458134769883
  0
VERTEX
  5
1770
  8
SAPA_FOGBAND
 10
65.180699550786542
 20
78.693014677009018
 30
0.0
  0
VERTEX
  5
1771
  8
SAPA_FOGBAND
 10
64.488825480124277
 20
78.693014677008989
 30
0.0
 42
0.9999999999999998
  0
VERTEX
  5
1772
  8
SAPA_FOGBAND
 10
64.488825480124277
 20
77.407495286624723
 30
0.0
 42
-0.9999999999999998
  0
VERTEX
  5
1773
  8
SAPA_FOGBAND
 10
64.488825480124277
 20
75.143167563727985
 30
0.0
  0
VERTEX
  5
1774
  8
SAPA_FOGBAND
 10
61.21901889794357
 20
75.143167563727985
 30
0.0
  0
VERTEX
  5
1775
  8
SAPA_FOGBAND
 10
57.949212315762857
 20
75.143167563728042
 30
0.0
 42
-1.000000000000012
  0
VERTEX
  5
1776
  8
SAPA_FOGBAND
 10
57.949212315762857
 20
77.407495286624794
 30
0.0
 42
0.9999999999999998
  0
VERTEX
  5
1777
  8
SAPA_FOGBAND
 10
57.949212315762857
 20
78.693014677009046
 30
0.0
  0
VERTEX
  5
1778
  8
SAPA_FOGBAND
 10
57.257338245100598
 20
78.693014677009046
 30
0.0
 42
-0.5728458134769883
  0
SEQEND
  5
1779
  8
SAPA_FOGBAND
  0
POLYLINE
  5
DE7
  8
SAPA_FOGBAND
 66
     1
 10
0.0
 20
0.0
 30
0.0
 70
     1
  0
VERTEX
  5
177A
  8
SAPA_FOGBAND
 10
64.488825480124277
 20
75.543167563727991
 30
0.0
 42
0.9999999999999998
  0
VERTEX
  5
177B
  8
SAPA_FOGBAND
 10
64.488825480124277
 20
77.007495286624732
 30
0.0
  0
VERTEX
  5
177C
  8
SAPA_FOGBAND
 10
57.949212315762857
 20
77.007495286624788
 30
0.0
 42
1.000000000000012
  0
VERTEX
  5
177D
  8
SAPA_FOGBAND
 10
57.949212315762857
 20
75.543167563728048
 30
0.0
  0
VERTEX
  5
177E
  8
SAPA_FOGBAND
 10
61.21901889794357
 20
75.543167563727991
 30
0.0
  0
SEQEND
  5
177F
  8
SAPA_FOGBAND
  0
TEXT
  5
E06
  8
SAPA_MATT
 62
     2
 10
90.338048688544035
 20
13.0
 30
0.0
 40
3.0
  1
85
  7
ISO
  0
TEXT
  5
E07
  8
SAPA_MATT
 62
     2
 10
46.388048688543797
 20
13.00000000000003
 30
0.0
 40
3.0
  1
5
  7
ISO
  0
TEXT
  5
E08
  8
SAPA_MATT
 62
     2
 10
20.18804868854382
 20
13.00000000000006
 30
0.0
 40
3.0
  1
45
  7
ISO
  0
TEXT
  5
E09
  8
SAPA_MATT
 62
     2
 10
64.591406478144862
 20
1.0
 30
0.0
 40
3.0
  1
135
  7
ISO
  0
SOLID
  5
E0A
  8
SAPA_MATT
 10
132.003538512501
 20
0.5
 30
0.0
 11
132.003538512501
 21
-0.5
 31
0.0
 12
135.003538512501
 22
0.0
 32
0.0
 13
135.003538512501
 23
0.0
 33
0.0
  0
SOLID
  5
E0B
  8
SAPA_MATT
 10
3.003538512500652
 20
0.5
 30
0.0
 11
3.003538512500652
 21
-0.5
 31
0.0
 12
0.0035385125006522
 22
0.0
 32
0.0
 13
0.0035385125006522
 23
0.0
 33
0.0
  0
LINE
  5
E0C
  8
SAPA_MATT
 10
3.003538512500652
 20
0.0
 30
0.0
 11
132.003538512501
 21
0.0
 31
0.0
  0
LINE
  5
E0D
  8
SAPA_MATT
 10
135.003538512501
 20
40.697043607728162
 30
0.0
 11
135.003538512501
 21
-1.5
 31
0.0
  0
LINE
  5
E0E
  8
SAPA_MATT
 10
0.0035385125006541
 20
30.498429479295169
 30
0.0
 11
0.0035385125006521
 21
-1.5
 31
0.0
  0
SOLID
  5
E0F
  8
SAPA_MATT
 10
42.000180722899778
 20
12.50000000000005
 30
0.0
 11
42.000180722899778
 21
11.50000000000005
 31
0.0
 12
45.000180722899778
 22
12.00000000000005
 32
0.0
 13
45.000180722899778
 23
12.00000000000005
 33
0.0
  0
SOLID
  5
E10
  8
SAPA_MATT
 10
3.0001807228997852
 20
12.50000000000005
 30
0.0
 11
3.0001807228997852
 21
11.50000000000005
 31
0.0
 12
0.0001807228997853
 22
12.00000000000005
 32
0.0
 13
0.0001807228997853
 23
12.00000000000005
 33
0.0
  0
LINE
  5
E11
  8
SAPA_MATT
 10
3.0001807228997852
 20
12.00000000000005
 30
0.0
 11
42.000180722899778
 21
12.00000000000005
 31
0.0
  0
LINE
  5
E12
  8
SAPA_MATT
 10
45.000180722899778
 20
30.999935173991162
 30
0.0
 11
45.000180722899778
 21
10.50000000000006
 31
0.0
  0
LINE
  5
E13
  8
SAPA_MATT
 10
0.0001807228997865
 20
30.499935173991108
 30
0.0
 11
0.0001807228997852
 21
10.50000000000006
 31
0.0
  0
SOLID
  5
E14
  8
SAPA_MATT
 10
53.000180722899763
 20
12.50000000000003
 30
0.0
 11
53.000180722899763
 21
11.50000000000003
 31
0.0
 12
50.000180722899749
 22
12.00000000000003
 32
0.0
 13
50.000180722899749
 23
12.00000000000003
 33
0.0
  0
SOLID
  5
E15
  8
SAPA_MATT
 10
42.000180722899778
 20
12.50000000000003
 30
0.0
 11
42.000180722899778
 21
11.50000000000003
 31
0.0
 12
45.000180722899778
 22
12.00000000000003
 32
0.0
 13
45.000180722899778
 23
12.00000000000003
 33
0.0
  0
LINE
  5
E16
  8
SAPA_MATT
 10
45.000180722899778
 20
12.00000000000003
 30
0.0
 11
50.000180722899749
 21
12.00000000000003
 31
0.0
  0
LINE
  5
E17
  8
SAPA_MATT
 10
53.000180722899763
 20
12.00000000000003
 30
0.0
 11
56.000180722899763
 21
12.00000000000003
 31
0.0
  0
LINE
  5
E18
  8
SAPA_MATT
 10
42.000180722899778
 20
12.00000000000003
 30
0.0
 11
39.000180722899792
 21
12.00000000000003
 31
0.0
  0
LINE
  5
E19
  8
SAPA_MATT
 10
50.000180722899749
 20
30.797043607731069
 30
0.0
 11
50.000180722899749
 21
10.50000000000003
 31
0.0
  0
LINE
  5
E1A
  8
SAPA_MATT
 10
45.000180722899778
 20
30.99704360773114
 30
0.0
 11
45.000180722899778
 21
10.50000000000003
 31
0.0
  0
SOLID
  5
E1B
  8
SAPA_MATT
 10
132.00018072290021
 20
12.5
 30
0.0
 11
132.00018072290021
 21
11.5
 31
0.0
 12
135.00018072290021
 22
12.0
 32
0.0
 13
135.00018072290021
 23
12.0
 33
0.0
  0
SOLID
  5
E1C
  8
SAPA_MATT
 10
53.000180722899763
 20
12.5
 30
0.0
 11
53.000180722899763
 21
11.5
 31
0.0
 12
50.000180722899749
 22
12.0
 32
0.0
 13
50.000180722899749
 23
12.0
 33
0.0
  0
LINE
  5
E1D
  8
SAPA_MATT
 10
53.000180722899763
 20
12.0
 30
0.0
 11
132.00018072290021
 21
12.0
 31
0.0
  0
LINE
  5
E1E
  8
SAPA_MATT
 10
135.00018072290021
 20
40.697043607728162
 30
0.0
 11
135.00018072290021
 21
10.5
 31
0.0
  0
LINE
  5
E1F
  8
SAPA_MATT
 10
50.000180722899749
 20
16.371413089924229
 30
0.0
 11
50.000180722899749
 21
10.5
 31
0.0
  0
ENDSEC
  0
EOF
