  0
SECTION
  2
HEADER
  9
$ACADVER
  1
AC1009
  9
$INSBASE
 10
118.7578405227144
 20
81.942791422822495
 30
0.0
  9
$EXTMIN
 10
-30.990409860800892
 20
-5.7549353617691841
 30
0.0
  9
$EXTMAX
 10
68.409363641069362
 20
149.71654090754029
 30
0.0
  9
$LIMMIN
 10
0.0
 20
0.0
  9
$LIMMAX
 10
420.0
 20
297.0
  9
$ORTHOMODE
 70
     0
  9
$REGENMODE
 70
     1
  9
$FILLMODE
 70
     1
  9
$QTEXTMODE
 70
     0
  9
$MIRRTEXT
 70
     1
  9
$DRAGMODE
 70
     2
  9
$LTSCALE
 40
7.0
  9
$OSMODE
 70
   167
  9
$ATTMODE
 70
     1
  9
$TEXTSIZE
 40
5.25
  9
$TRACEWID
 40
0.05
  9
$TEXTSTYLE
  7
ISO
  9
$CLAYER
  8
0
  9
$CELTYPE
  6
BYLAYER
  9
$CECOLOR
 62
   256
  9
$DIMSCALE
 40
0.0
  9
$DIMASZ
 40
3.0
  9
$DIMEXO
 40
1.5
  9
$DIMDLI
 40
10.0
  9
$DIMRND
 40
0.0
  9
$DIMDLE
 40
0.0
  9
$DIMEXE
 40
1.5
  9
$DIMTP
 40
0.0
  9
$DIMTM
 40
0.0
  9
$DIMTXT
 40
3.0
  9
$DIMCEN
 40
-5.0
  9
$DIMTSZ
 40
0.0
  9
$DIMTOL
 70
     0
  9
$DIMLIM
 70
     0
  9
$DIMTIH
 70
     0
  9
$DIMTOH
 70
     1
  9
$DIMSE1
 70
     0
  9
$DIMSE2
 70
     0
  9
$DIMTAD
 70
     1
  9
$DIMZIN
 70
     8
  9
$DIMBLK
  1

  9
$DIMASO
 70
     1
  9
$DIMSHO
 70
     1
  9
$DIMPOST
  1

  9
$DIMAPOST
  1

  9
$DIMALT
 70
     0
  9
$DIMALTD
 70
     0
  9
$DIMALTF
 40
25.399999999999999
  9
$DIMLFAC
 40
-1.0
  9
$DIMTOFL
 70
     1
  9
$DIMTVP
 40
0.0
  9
$DIMTIX
 70
     0
  9
$DIMSOXD
 70
     0
  9
$DIMSAH
 70
     0
  9
$DIMBLK1
  1

  9
$DIMBLK2
  1

  9
$DIMSTYLE
  2
MASKIN
  9
$DIMCLRD
 70
   256
  9
$DIMCLRE
 70
   256
  9
$DIMCLRT
 70
     2
  9
$DIMTFAC
 40
1.0
  9
$DIMGAP
 40
1.0
  9
$LUNITS
 70
     2
  9
$LUPREC
 70
     2
  9
$SKETCHINC
 40
0.1
  9
$FILLETRAD
 40
0.0
  9
$AUNITS
 70
     0
  9
$AUPREC
 70
     2
  9
$MENU
  1
ACAD
  9
$ELEVATION
 40
0.0
  9
$PELEVATION
 40
0.0
  9
$THICKNESS
 40
0.0
  9
$LIMCHECK
 70
     0
  9
$BLIPMODE
 70
     0
  9
$CHAMFERA
 40
0.0
  9
$CHAMFERB
 40
0.0
  9
$SKPOLY
 70
     0
  9
$TDCREATE
 40
2450345.5798625001
  9
$TDUPDATE
 40
2454866.3537464011
  9
$TDINDWG
 40
0.2739984606
  9
$TDUSRTIMER
 40
0.2739984606
  9
$USRTIMER
 70
     1
  9
$ANGBASE
 50
0.0
  9
$ANGDIR
 70
     0
  9
$PDMODE
 70
     3
  9
$PDSIZE
 40
0.0
  9
$PLINEWID
 40
0.0
  9
$COORDS
 70
     1
  9
$SPLFRAME
 70
     0
  9
$SPLINETYPE
 70
     6
  9
$SPLINESEGS
 70
     8
  9
$ATTDIA
 70
     0
  9
$ATTREQ
 70
     1
  9
$HANDLING
 70
     1
  9
$HANDSEED
  5
15A8
  9
$SURFTAB1
 70
     6
  9
$SURFTAB2
 70
     6
  9
$SURFTYPE
 70
     6
  9
$SURFU
 70
     6
  9
$SURFV
 70
     6
  9
$UCSNAME
  2

  9
$UCSORG
 10
0.0
 20
0.0
 30
0.0
  9
$UCSXDIR
 10
1.0
 20
0.0
 30
0.0
  9
$UCSYDIR
 10
0.0
 20
1.0
 30
0.0
  9
$PUCSNAME
  2

  9
$PUCSORG
 10
0.0
 20
0.0
 30
0.0
  9
$PUCSXDIR
 10
1.0
 20
0.0
 30
0.0
  9
$PUCSYDIR
 10
0.0
 20
1.0
 30
0.0
  9
$USERI1
 70
     0
  9
$USERI2
 70
     0
  9
$USERI3
 70
     0
  9
$USERI4
 70
     0
  9
$USERI5
 70
     0
  9
$USERR1
 40
0.0
  9
$USERR2
 40
0.0
  9
$USERR3
 40
0.0
  9
$USERR4
 40
0.0
  9
$USERR5
 40
0.0
  9
$WORLDVIEW
 70
     1
  9
$SHADEDGE
 70
     1
  9
$SHADEDIF
 70
    70
  9
$TILEMODE
 70
     1
  9
$MAXACTVP
 70
    16
  9
$PLIMCHECK
 70
     0
  9
$PEXTMIN
 10
0.0
 20
0.0
 30
0.0
  9
$PEXTMAX
 10
0.0
 20
0.0
 30
0.0
  9
$PLIMMIN
 10
0.0
 20
0.0
  9
$PLIMMAX
 10
12.0
 20
9.0
  9
$UNITMODE
 70
     0
  9
$VISRETAIN
 70
     1
  9
$PLINEGEN
 70
     0
  9
$PSLTSCALE
 70
     1
  0
ENDSEC
  0
SECTION
  2
TABLES
  0
TABLE
  2
VPORT
 70
     1
  0
VPORT
  2
*ACTIVE
 70
     0
 10
0.0
 20
0.0
 11
1.0
 21
1.0
 12
53.814809634143401
 22
71.977116105912259
 13
0.0
 23
0.0
 14
5.0
 24
5.0
 15
0.0
 25
0.0
 16
0.0
 26
0.0
 36
1.0
 17
0.0
 27
0.0
 37
0.0
 40
156.79496509929959
 41
1.995238095238095
 42
50.0
 43
0.0
 44
0.0
 50
0.0
 51
0.0
 71
     0
 72
   100
 73
     1
 74
     0
 75
     0
 76
     0
 77
     0
 78
     0
  0
ENDTAB
  0
TABLE
  2
LTYPE
 70
    21
  0
LTYPE
  2
CONTINUOUS
 70
     0
  3
Solid line
 72
    65
 73
     0
 40
0.0
  0
LTYPE
  2
BYGG-022298$0$NEWDOT
 70
     0
  3
____ . ____ . ____ . ____ . ____ . ____ . ____
 72
    65
 73
     4
 40
2.0
 49
1.0
 49
-0.5
 49
0.0
 49
-0.5
  0
LTYPE
  2
BYGG-022298$0$DASHDOT
 70
     0
  3
__ . __ . __ . __ . __ . __ . __ . __ . __ . __
 72
    65
 73
     4
 40
1.0
 49
0.5
 49
-0.25
 49
0.0
 49
-0.25
  0
LTYPE
  2
BYGG-022298$0$DASHED
 70
     0
  3
__ __ __ __ __ __ __ __ __ __ __ __ __ __ __
 72
    65
 73
     2
 40
0.75
 49
0.5
 49
-0.25
  0
LTYPE
  2
BYGG-022298$0$PHANTOM
 70
     0
  3
Phantom ______  __  __  ______  __  __  ______
 72
    65
 73
     6
 40
63.5
 49
31.75
 49
-6.3499999999999988
 49
6.3499999999999988
 49
-6.3499999999999988
 49
6.3499999999999988
 49
-6.3499999999999988
  0
LTYPE
  2
BYGG-014303$0$DASHDOT
 70
     0
  3
__ . __ . __ . __ . __ . __ . __ . __ . __ . __
 72
    65
 73
     4
 40
1.0
 49
0.5
 49
-0.25
 49
0.0
 49
-0.25
  0
LTYPE
  2
BYGG-022306$0$NEWDOT
 70
     0
  3
____ . ____ . ____ . ____ . ____ . ____ . ____
 72
    65
 73
     4
 40
2.0
 49
1.0
 49
-0.5
 49
0.0
 49
-0.5
  0
LTYPE
  2
BYGG-022306$0$DASHDOT
 70
     0
  3
__ . __ . __ . __ . __ . __ . __ . __ . __ . __
 72
    65
 73
     4
 40
1.0
 49
0.5
 49
-0.25
 49
0.0
 49
-0.25
  0
LTYPE
  2
BYGG-022306$0$DASHED
 70
     0
  3
__ __ __ __ __ __ __ __ __ __ __ __ __ __ __
 72
    65
 73
     2
 40
0.75
 49
0.5
 49
-0.25
  0
LTYPE
  2
BYGG-022306$0$PHANTOM
 70
     0
  3
Phantom ______  __  __  ______  __  __  ______
 72
    65
 73
     6
 40
63.5
 49
31.75
 49
-6.3499999999999988
 49
6.3499999999999988
 49
-6.3499999999999988
 49
6.3499999999999988
 49
-6.3499999999999988
  0
LTYPE
  2
BYGG-01458001$0$NEWDOT
 70
     0
  3
____ . ____ . ____ . ____ . ____ . ____ . ____
 72
    65
 73
     4
 40
2.0
 49
1.0
 49
-0.5
 49
0.0
 49
-0.5
  0
LTYPE
  2
BYGG-022629$0$NEWDOT
 70
     0
  3
____ . ____ . ____ . ____ . ____ . ____ . ____
 72
    65
 73
     4
 40
2.0
 49
1.0
 49
-0.5
 49
0.0
 49
-0.5
  0
LTYPE
  2
BYGG-022629$0$DASHDOT
 70
     0
  3
__ . __ . __ . __ . __ . __ . __ . __ . __ . __
 72
    65
 73
     4
 40
1.0
 49
0.5
 49
-0.25
 49
0.0
 49
-0.25
  0
LTYPE
  2
BYGG-022629$0$DASHED
 70
     0
  3
__ __ __ __ __ __ __ __ __ __ __ __ __ __ __
 72
    65
 73
     2
 40
0.75
 49
0.5
 49
-0.25
  0
LTYPE
  2
BYGG-022629$0$PHANTOM
 70
     0
  3
Phantom ______  __  __  ______  __  __  ______
 72
    65
 73
     6
 40
63.5
 49
31.75
 49
-6.3499999999999988
 49
6.3499999999999988
 49
-6.3499999999999988
 49
6.3499999999999988
 49
-6.3499999999999988
  0
LTYPE
  2
BYGG-014203$0$DASHDOT
 70
     0
  3
__ . __ . __ . __ . __ . __ . __ . __ . __ . __
 72
    65
 73
     4
 40
1.0
 49
0.5
 49
-0.25
 49
0.0
 49
-0.25
  0
LTYPE
  2
BYGG-014557$0$NEWDOT
 70
     0
  3
____ . ____ . ____ . ____ . ____ . ____ . ____
 72
    65
 73
     4
 40
2.0
 49
1.0
 49
-0.5
 49
0.0
 49
-0.5
  0
LTYPE
  2
BYGG-021959$0$NEWDOT
 70
     0
  3
____ . ____ . ____ . ____ . ____ . ____ . ____
 72
    65
 73
     4
 40
2.0
 49
1.0
 49
-0.5
 49
0.0
 49
-0.5
  0
LTYPE
  2
BYGG-021959$0$DASHDOT
 70
     0
  3
__ . __ . __ . __ . __ . __ . __ . __ . __ . __
 72
    65
 73
     4
 40
1.0
 49
0.5
 49
-0.25
 49
0.0
 49
-0.25
  0
LTYPE
  2
BYGG-021959$0$DASHED
 70
     0
  3
__ __ __ __ __ __ __ __ __ __ __ __ __ __ __
 72
    65
 73
     2
 40
0.75
 49
0.5
 49
-0.25
  0
LTYPE
  2
BYGG-021959$0$PHANTOM
 70
     0
  3
Phantom ______  __  __  ______  __  __  ______
 72
    65
 73
     6
 40
63.5
 49
31.75
 49
-6.3499999999999988
 49
6.3499999999999988
 49
-6.3499999999999988
 49
6.3499999999999988
 49
-6.3499999999999988
  0
ENDTAB
  0
TABLE
  2
LAYER
 70
   137
  0
LAYER
  2
0
 70
     0
 62
     7
  6
CONTINUOUS
  0
LAYER
  2
SAPA_GLAS
 70
     0
 62
     4
  6
CONTINUOUS
  0
LAYER
  2
SAPA_ARTIKELNR
 70
     0
 62
     4
  6
CONTINUOUS
  0
LAYER
  2
SAPA_LIGHT
 70
     1
 62
     1
  6
CONTINUOUS
  0
LAYER
  2
SAPA_MATT
 70
     0
 62
     1
  6
CONTINUOUS
  0
LAYER
  2
SAPA_FOGBAND
 70
     0
 62
     2
  6
CONTINUOUS
  0
LAYER
  2
SAPA_PROFIL
 70
     0
 62
     7
  6
CONTINUOUS
  0
ENDTAB
  0
TABLE
  2
STYLE
 70
    18
  0
STYLE
  2
STANDARD
 70
     0
 40
0.0
 41
1.0
 50
0.0
 71
     0
 42
0.2
  3
txt
  4

  0
STYLE
  2
ISO
 70
     0
 40
0.0
 41
1.0
 50
0.0
 71
     0
 42
5.25
  3
isocp3.shx
  4

  0
STYLE
  2
BYGG-022298$0$STANDARD
 70
     0
 40
0.0
 41
1.0
 50
0.0
 71
     0
 42
0.2
  3
txt
  4

  0
STYLE
  2
BYGG-022298$0$ISO
 70
     0
 40
0.0
 41
1.0
 50
0.0
 71
     0
 42
3.5
  3
txt
  4

  0
STYLE
  2
BYGG-014303$0$STANDARD
 70
     0
 40
0.0
 41
1.0
 50
0.0
 71
     0
 42
0.2
  3
txt
  4

  0
STYLE
  2
BYGG-014303$0$ISO
 70
     0
 40
0.0
 41
1.0
 50
0.0
 71
     0
 42
3.5
  3
isocp3.shx
  4

  0
STYLE
  2
BYGG-022306$0$STANDARD
 70
     0
 40
0.0
 41
1.0
 50
0.0
 71
     0
 42
0.2
  3
txt
  4

  0
STYLE
  2
BYGG-022306$0$ISO
 70
     0
 40
0.0
 41
1.0
 50
0.0
 71
     0
 42
3.5
  3
txt
  4

  0
STYLE
  2
BYGG-01458001$0$STANDARD
 70
     0
 40
0.0
 41
1.0
 50
0.0
 71
     0
 42
0.2
  3
txt
  4

  0
STYLE
  2
BYGG-01458001$0$ISO
 70
     0
 40
0.0
 41
1.0
 50
0.0
 71
     0
 42
2.5
  3
isocp3.shx
  4

  0
STYLE
  2
BYGG-022629$0$STANDARD
 70
     0
 40
0.0
 41
1.0
 50
0.0
 71
     0
 42
0.2
  3
txt
  4

  0
STYLE
  2
BYGG-022629$0$ISO
 70
     0
 40
0.0
 41
1.0
 50
0.0
 71
     0
 42
3.5
  3
txt
  4

  0
STYLE
  2
BYGG-014203$0$STANDARD
 70
     0
 40
0.0
 41
1.0
 50
0.0
 71
     0
 42
0.2
  3
txt
  4

  0
STYLE
  2
BYGG-014203$0$ISO
 70
     0
 40
0.0
 41
1.0
 50
0.0
 71
     0
 42
3.5
  3
isocp3.shx
  4

  0
STYLE
  2
BYGG-021959$0$STANDARD
 70
     0
 40
0.0
 41
1.0
 50
0.0
 71
     0
 42
0.2
  3
txt
  4

  0
STYLE
  2
BYGG-021959$0$ISO
 70
     0
 40
0.0
 41
1.0
 50
0.0
 71
     0
 42
3.5
  3
txt
  4

  0
STYLE
  2
BYGG-014557$0$STANDARD
 70
     0
 40
0.0
 41
1.0
 50
0.0
 71
     0
 42
0.2
  3
txt
  4

  0
STYLE
  2
BYGG-014557$0$ISO
 70
     0
 40
0.0
 41
1.0
 50
0.0
 71
     0
 42
2.5
  3
isocp3.shx
  4

  0
ENDTAB
  0
TABLE
  2
VIEW
 70
     0
  0
ENDTAB
  0
TABLE
  2
UCS
 70
     0
  0
ENDTAB
  0
TABLE
  2
APPID
 70
    16
  0
APPID
  2
ACAD
 70
     0
  0
APPID
  2
ACAECLAYERSTANDARD
 70
     0
  0
APPID
  2
ACAD_MLEADERVER
 70
     0
  0
APPID
  2
ACAD_DSTYLE_DIMTEXT_FILL
 70
     0
  0
APPID
  2
ACAD_DSTYLE_DIMEXT_LENGTH
 70
     0
  0
APPID
  2
ACAD_DSTYLE_DIMEXT_ENABLED
 70
     0
  0
APPID
  2
ACAD_DSTYLE_DIM_LINETYPE
 70
     0
  0
APPID
  2
ACAD_DSTYLE_DIM_EXT1_LINETYPE
 70
     0
  0
APPID
  2
ACAD_DSTYLE_DIM_EXT2_LINETYPE
 70
     0
  0
APPID
  2
ACAD_DSTYLE_DIMJOGGED_JOGA
 70
     0
  0
APPID
  2
ACAD_DSTYLE_DIMARC_LENGTH_
 70
     0
  0
APPID
  2
ACAD_PSEXT
 70
     0
  0
APPID
  2
AMG_ARCHIVE11
 70
     0
  0
APPID
  2
ACAD_EXEMPT_FROM_CAD_STANDARDS
 70
     0
  0
APPID
  2
ACAD_DSTYLE_DIMJAG
 70
     0
  0
APPID
  2
ACAD_DSTYLE_DIMTALN
 70
     0
  0
ENDTAB
  0
TABLE
  2
DIMSTYLE
 70
    17
  0
DIMSTYLE
  2
MASKIN
 70
     0
  3

  4

  5

  6

  7

 40
0.0
 41
3.0
 42
1.5
 43
10.0
 44
1.5
 45
0.0
 46
0.0
 47
0.0
 48
0.0
140
3.0
141
-5.0
142
0.0
143
25.399999999999999
144
-1.0
145
0.0
146
1.0
147
1.0
 71
     0
 72
     0
 73
     0
 74
     1
 75
     0
 76
     0
 77
     1
 78
     8
170
     0
171
     0
172
     1
173
     0
174
     0
175
     0
176
   256
177
   256
178
     2
  0
DIMSTYLE
  2
BYGG-022298$0$STANDARD
 70
     0
  3

  4

  5

  6

  7

 40
1.0
 41
0.18
 42
0.0625
 43
0.38
 44
0.18
 45
0.0
 46
0.0
 47
0.0
 48
0.0
140
0.18
141
0.09
142
0.0
143
25.399999999999999
144
1.0
145
0.0
146
1.0
147
0.09
 71
     0
 72
     0
 73
     1
 74
     1
 75
     0
 76
     0
 77
     0
 78
     0
170
     0
171
     2
172
     0
173
     0
174
     0
175
     0
176
     0
177
     0
178
     0
  0
DIMSTYLE
  2
BYGG-022298$0$MASKIN
 70
     0
  3

  4

  5

  6

  7

 40
0.0
 41
3.0
 42
1.5
 43
10.0
 44
1.5
 45
0.0
 46
0.0
 47
0.0
 48
0.0
140
3.0
141
-5.0
142
0.0
143
25.399999999999999
144
-1.0
145
0.0
146
1.0
147
1.0
 71
     0
 72
     0
 73
     0
 74
     0
 75
     0
 76
     0
 77
     1
 78
     8
170
     0
171
     0
172
     1
173
     0
174
     0
175
     0
176
   256
177
   256
178
     2
  0
DIMSTYLE
  2
BYGG-014303$0$STANDARD
 70
     0
  3

  4

  5

  6

  7

 40
1.0
 41
0.18
 42
0.0625
 43
0.38
 44
0.18
 45
0.0
 46
0.0
 47
0.0
 48
0.0
140
0.18
141
0.09
142
0.0
143
25.399999999999999
144
1.0
145
0.0
146
1.0
147
0.09
 71
     0
 72
     0
 73
     1
 74
     1
 75
     0
 76
     0
 77
     0
 78
     0
170
     0
171
     2
172
     0
173
     0
174
     0
175
     0
176
     0
177
     0
178
     0
  0
DIMSTYLE
  2
BYGG-014303$0$MASKIN
 70
     0
  3

  4

  5

  6

  7

 40
0.0
 41
3.0
 42
1.5
 43
10.0
 44
1.5
 45
0.0
 46
0.0
 47
0.0
 48
0.0
140
3.0
141
-5.0
142
0.0
143
25.399999999999999
144
-1.0
145
0.0
146
1.0
147
1.0
 71
     0
 72
     0
 73
     0
 74
     0
 75
     0
 76
     0
 77
     1
 78
     8
170
     0
171
     0
172
     1
173
     0
174
     0
175
     0
176
   256
177
   256
178
   256
  0
DIMSTYLE
  2
BYGG-022306$0$STANDARD
 70
     0
  3

  4

  5

  6

  7

 40
1.0
 41
0.18
 42
0.0625
 43
0.38
 44
0.18
 45
0.0
 46
0.0
 47
0.0
 48
0.0
140
0.18
141
0.09
142
0.0
143
25.399999999999999
144
1.0
145
0.0
146
1.0
147
0.09
 71
     0
 72
     0
 73
     1
 74
     1
 75
     0
 76
     0
 77
     0
 78
     0
170
     0
171
     2
172
     0
173
     0
174
     0
175
     0
176
     0
177
     0
178
     0
  0
DIMSTYLE
  2
BYGG-022306$0$MASKIN
 70
     0
  3

  4

  5

  6

  7

 40
0.0
 41
3.0
 42
1.5
 43
10.0
 44
1.5
 45
0.0
 46
0.0
 47
0.0
 48
0.0
140
3.0
141
-5.0
142
0.0
143
25.399999999999999
144
-1.0
145
0.0
146
1.0
147
1.0
 71
     0
 72
     0
 73
     0
 74
     0
 75
     0
 76
     0
 77
     1
 78
     8
170
     0
171
     0
172
     1
173
     0
174
     0
175
     0
176
   256
177
   256
178
     2
  0
DIMSTYLE
  2
BYGG-01458001$0$STANDARD
 70
     0
  3

  4

  5

  6

  7

 40
1.0
 41
0.18
 42
0.0625
 43
0.38
 44
0.18
 45
0.0
 46
0.0
 47
0.0
 48
0.0
140
0.18
141
0.09
142
0.0
143
25.399999999999999
144
1.0
145
0.0
146
1.0
147
0.09
 71
     0
 72
     0
 73
     1
 74
     1
 75
     0
 76
     0
 77
     0
 78
     0
170
     0
171
     2
172
     0
173
     0
174
     0
175
     0
176
     0
177
     0
178
     0
  0
DIMSTYLE
  2
BYGG-01458001$0$MASKIN
 70
     0
  3

  4

  5

  6

  7

 40
0.0
 41
3.0
 42
1.5
 43
10.0
 44
1.5
 45
0.0
 46
0.0
 47
0.0
 48
0.0
140
3.0
141
-5.0
142
0.0
143
25.399999999999999
144
-1.0
145
0.0
146
1.0
147
1.0
 71
     0
 72
     0
 73
     0
 74
     1
 75
     0
 76
     0
 77
     1
 78
     8
170
     0
171
     0
172
     1
173
     0
174
     0
175
     0
176
   256
177
   256
178
     2
  0
DIMSTYLE
  2
BYGG-022629$0$STANDARD
 70
     0
  3

  4

  5

  6

  7

 40
1.0
 41
0.18
 42
0.0625
 43
0.38
 44
0.18
 45
0.0
 46
0.0
 47
0.0
 48
0.0
140
0.18
141
0.09
142
0.0
143
25.399999999999999
144
1.0
145
0.0
146
1.0
147
0.09
 71
     0
 72
     0
 73
     1
 74
     1
 75
     0
 76
     0
 77
     0
 78
     0
170
     0
171
     2
172
     0
173
     0
174
     0
175
     0
176
     0
177
     0
178
     0
  0
DIMSTYLE
  2
BYGG-022629$0$MASKIN
 70
     0
  3

  4

  5

  6

  7

 40
0.0
 41
3.0
 42
1.5
 43
10.0
 44
1.5
 45
0.0
 46
0.0
 47
0.0
 48
0.0
140
3.0
141
-5.0
142
0.0
143
25.399999999999999
144
-1.0
145
0.0
146
1.0
147
1.0
 71
     0
 72
     0
 73
     0
 74
     0
 75
     0
 76
     0
 77
     1
 78
     8
170
     0
171
     0
172
     1
173
     0
174
     0
175
     0
176
   256
177
   256
178
     2
  0
DIMSTYLE
  2
BYGG-014203$0$STANDARD
 70
     0
  3

  4

  5

  6

  7

 40
1.0
 41
0.18
 42
0.0625
 43
0.38
 44
0.18
 45
0.0
 46
0.0
 47
0.0
 48
0.0
140
0.18
141
0.09
142
0.0
143
25.399999999999999
144
1.0
145
0.0
146
1.0
147
0.09
 71
     0
 72
     0
 73
     1
 74
     1
 75
     0
 76
     0
 77
     0
 78
     0
170
     0
171
     2
172
     0
173
     0
174
     0
175
     0
176
     0
177
     0
178
     0
  0
DIMSTYLE
  2
BYGG-014203$0$MASKIN
 70
     0
  3

  4

  5

  6

  7

 40
0.0
 41
3.0
 42
1.5
 43
10.0
 44
1.5
 45
0.0
 46
0.0
 47
0.0
 48
0.0
140
3.0
141
-5.0
142
0.0
143
25.399999999999999
144
-1.0
145
0.0
146
1.0
147
1.0
 71
     0
 72
     0
 73
     0
 74
     0
 75
     0
 76
     0
 77
     1
 78
     8
170
     0
171
     0
172
     1
173
     0
174
     0
175
     0
176
   256
177
   256
178
   256
  0
DIMSTYLE
  2
BYGG-021959$0$STANDARD
 70
     0
  3

  4

  5

  6

  7

 40
1.0
 41
0.18
 42
0.0625
 43
0.38
 44
0.18
 45
0.0
 46
0.0
 47
0.0
 48
0.0
140
0.18
141
0.09
142
0.0
143
25.399999999999999
144
1.0
145
0.0
146
1.0
147
0.09
 71
     0
 72
     0
 73
     1
 74
     1
 75
     0
 76
     0
 77
     0
 78
     0
170
     0
171
     2
172
     0
173
     0
174
     0
175
     0
176
     0
177
     0
178
     0
  0
DIMSTYLE
  2
BYGG-021959$0$MASKIN
 70
     0
  3

  4

  5

  6

  7

 40
0.0
 41
3.0
 42
1.5
 43
10.0
 44
1.5
 45
0.0
 46
0.0
 47
0.0
 48
0.0
140
3.0
141
-5.0
142
0.0
143
25.399999999999999
144
-1.0
145
0.0
146
1.0
147
1.0
 71
     0
 72
     0
 73
     0
 74
     0
 75
     0
 76
     0
 77
     1
 78
     8
170
     0
171
     0
172
     1
173
     0
174
     0
175
     0
176
   256
177
   256
178
     2
  0
DIMSTYLE
  2
BYGG-014557$0$STANDARD
 70
     0
  3

  4

  5

  6

  7

 40
1.0
 41
0.18
 42
0.0625
 43
0.38
 44
0.18
 45
0.0
 46
0.0
 47
0.0
 48
0.0
140
0.18
141
0.09
142
0.0
143
25.399999999999999
144
1.0
145
0.0
146
1.0
147
0.09
 71
     0
 72
     0
 73
     1
 74
     1
 75
     0
 76
     0
 77
     0
 78
     0
170
     0
171
     2
172
     0
173
     0
174
     0
175
     0
176
     0
177
     0
178
     0
  0
DIMSTYLE
  2
BYGG-014557$0$MASKIN
 70
     0
  3

  4

  5

  6

  7

 40
0.0
 41
3.0
 42
1.5
 43
10.0
 44
1.5
 45
0.0
 46
0.0
 47
0.0
 48
0.0
140
3.0
141
-5.0
142
0.0
143
25.399999999999999
144
-1.0
145
0.0
146
1.0
147
1.0
 71
     0
 72
     0
 73
     0
 74
     1
 75
     0
 76
     0
 77
     1
 78
     8
170
     0
171
     0
172
     1
173
     0
174
     0
175
     0
176
   256
177
   256
178
     2
  0
ENDTAB
  0
ENDSEC
  0
SECTION
  2
BLOCKS
  0
BLOCK
  8
0
  2
$MODEL_SPACE
 70
     0
 10
0.0
 20
0.0
 30
0.0
  3
$MODEL_SPACE
  1

  0
ENDBLK
  5
D
  8
0
  0
BLOCK
 67
     1
  8
0
  2
$PAPER_SPACE
 70
     0
 10
0.0
 20
0.0
 30
0.0
  3
$PAPER_SPACE
  1

  0
ENDBLK
  5
12
 67
     1
  8
0
  0
BLOCK
  8
0
  2
BYGG-022629$0$18049
 70
     0
 10
0.0
 20
0.0
 30
0.0
  3
BYGG-022629$0$18049
  1

  0
LINE
  5
7A9
  8
0
 10
1.257104106126135
 20
1.175882970362522
 30
0.0
 11
0.4756705193898512
 21
3.7049892555045281
 31
0.0
  0
LINE
  5
7AA
  8
0
 10
4.2044423602476391
 20
-3.6036842434053251
 30
0.0
 11
1.257104106126135
 21
1.175882970362522
 31
0.0
  0
LINE
  5
7AB
  8
0
 10
1.8046723971954881
 20
-1.3930204203302869
 30
0.0
 11
3.8614632483672291
 21
-4.0897212559317486
 31
0.0
  0
LINE
  5
7AC
  8
0
 10
1.5165716772223581
 20
-5.4492779234504951
 30
0.0
 11
1.365416573142894
 21
-1.670607021296405
 31
0.0
  0
LINE
  5
7AD
  8
0
 10
-1.360859991273756
 20
-1.626983735284284
 30
0.0
 11
-2.700553210624562
 21
-2.0440140738289752
 31
0.0
  0
LINE
  5
7AE
  8
0
 10
4.2213954165827374
 20
-11.20389088691797
 30
0.0
 11
1.8374940511294251
 21
-6.144112628652123
 31
0.0
  0
ARC
  5
7AF
  8
0
 10
-15.61932099734079
 20
-27.035324816149512
 30
0.0
 40
24.584181139217058
 50
49.137781603725038
 51
55.430876072989847
  0
ARC
  5
7B0
  8
0
 10
0.6928349840118671
 20
-8.6374822721460305
 30
0.0
 40
0.3000000000000043
 50
139.5071087518125
 51
319.08060320227031
  0
ARC
  5
7B1
  8
0
 10
2.5157725486285609
 20
-5.4093077022735647
 30
0.0
 40
0.9999999999999417
 50
182.29073520949271
 51
227.290735209491
  0
ARC
  5
7B2
  8
0
 10
-1.547436887770814
 20
-6.4109931887336984
 30
0.0
 40
0.3999999999999566
 50
92.290735209487536
 51
252.11880956275439
  0
LINE
  5
7B3
  8
0
 10
-0.264463843413381
 20
-5.9593515526413512
 30
0.0
 11
-1.5634249762415491
 21
-6.0113128401712279
 31
0.0
  0
ARC
  5
7B4
  8
0
 10
-0.2764549097664855
 20
-5.6595912912194422
 30
0.0
 40
0.3000000000000553
 50
272.2907352094972
 51
2.2907352094997808
  0
LINE
  5
7B5
  8
0
 10
-0.0606321128159806
 20
-3.5492783949131872
 30
0.0
 11
0.023305351655452
 21
-5.6476002248663226
 31
0.0
  0
ARC
  5
7B6
  8
0
 10
-0.3603923742378612
 20
-3.561269461266249
 30
0.0
 40
0.3000000000000252
 50
2.2907352094893678
 51
92.290735209491856
  0
LINE
  5
7B7
  8
0
 10
-1.271664224856621
 20
-3.2974823989035249
 30
0.0
 11
-0.3723834405909372
 21
-3.26150919984434
 31
0.0
  0
LINE
  5
7B8
  8
0
 10
-1.2576746474447731
 20
-3.6472027038957431
 30
0.0
 11
-1.271664224856621
 21
-3.2974823989035249
 31
0.0
  0
ARC
  5
7B9
  8
0
 10
-1.557434908866596
 20
-3.6591937702488049
 30
0.0
 40
0.2999999999999189
 50
227.29073520948009
 51
2.2907352094898008
  0
LINE
  5
7BA
  8
0
 10
-2.6479064675971951
 20
-3.060880674298005
 30
0.0
 11
-1.760918458116336
 21
-3.8796352481622871
 31
0.0
  0
ARC
  5
7BB
  8
0
 10
-2.1052836695978661
 20
-2.4730367331951579
 30
0.0
 40
0.7999999999999711
 50
182.29073520948941
 51
227.2907352094899
  0
LINE
  5
7BC
  8
0
 10
-2.911147326750366
 20
-2.3424478020412489
 30
0.0
 11
-2.9046443667228621
 21
-2.5050129101366561
 31
0.0
  0
ARC
  5
7BD
  8
0
 10
-2.6113870653285431
 20
-2.3304567356881871
 30
0.0
 40
0.2999999999999028
 50
107.2907352094865
 51
182.29073520948981
  0
ARC
  5
7BE
  8
0
 10
1.665176834564803
 20
-1.658615954943286
 30
0.0
 40
0.3000000000000269
 50
62.29073520950076
 51
182.29073520950001
  0
ARC
  5
7BF
  8
0
 10
-1.45002613656969
 20
-1.340541073425072
 30
0.0
 40
0.2999999999999088
 50
287.29073520947099
 51
2.2907352094791711
  0
LINE
  5
7C0
  8
0
 10
-1.2531886636523799
 20
1.24437896187652
 30
0.0
 11
-1.150265875147894
 21
-1.3285500070720671
 31
0.0
  0
ARC
  5
7C1
  8
0
 10
-1.552948925074346
 20
1.2323878955234591
 30
0.0
 40
0.3000000000000847
 50
2.2907352094887168
 51
77.290735209486655
  0
LINE
  5
7C2
  8
0
 10
-2.8556712716364099
 20
1.8337253324163489
 30
0.0
 11
-1.4869477411285881
 21
1.5250375900693589
 31
0.0
  0
ARC
  5
7C3
  8
0
 10
-2.7896700876906229
 20
2.1263750269621928
 30
0.0
 40
0.3000000000000366
 50
182.29073520947821
 51
257.29073520947901
  0
LINE
  5
7C4
  8
0
 10
-3.0959333091400651
 20
2.276949068704595
 30
0.0
 11
-3.0894303491125461
 21
2.1143839606091879
 31
0.0
  0
ARC
  5
7C5
  8
0
 10
-2.296572612015197
 20
2.3089252456460372
 30
0.0
 40
0.7999999999998441
 50
137.29073520948589
 51
182.29073520948569
  0
LINE
  5
7C6
  8
0
 10
-2.0656619792536191
 20
3.7385360531263241
 30
0.0
 11
-2.8844165531179149
 21
2.8515480436453231
 31
0.0
  0
ARC
  5
7C7
  8
0
 10
-1.8452205013400651
 20
3.5350525038765559
 30
0.0
 40
0.3000000000000082
 50
2.2907352094784108
 51
137.29073520948529
  0
LINE
  5
7C8
  8
0
 10
-1.5434617288593271
 20
3.497083526659253
 30
0.0
 11
-1.5454602399181701
 21
3.5470435702295608
 31
0.0
  0
ARC
  5
7C9
  8
0
 10
-1.2437014674374249
 20
3.5090745930123139
 30
0.0
 40
0.3000000000000243
 50
182.29073520948921
 51
272.29073520948782
  0
LINE
  5
7CA
  8
0
 10
-0.6321898782405812
 20
3.2332964642965289
 30
0.0
 11
-1.23171040108437
 21
3.2093143315904049
 31
0.0
  0
ARC
  5
7CB
  8
0
 10
-0.6441809445936002
 20
3.5330567257183811
 30
0.0
 40
0.2999999999999656
 50
272.2907352094814
 51
2.2907352094787372
  0
LINE
  5
7CC
  8
0
 10
-0.3464191942305916
 20
3.5950078356417521
 30
0.0
 11
-0.344420683171748
 21
3.5450477920713861
 31
0.0
  0
ARC
  5
7CD
  8
0
 10
-0.046658932808711
 20
3.606998901994813
 30
0.0
 40
0.2999999999999673
 50
92.290735209486854
 51
182.2907352094893
  0
LINE
  5
7CE
  8
0
 10
0.177049383927411
 20
3.9161876544667962
 30
0.0
 11
-0.0586499991617586
 21
3.9067591634166661
 31
0.0
  0
ARC
  5
7CF
  8
0
 10
0.1890404502804017
 20
3.6164273930448871
 30
0.0
 40
0.3000000000000138
 50
17.169902926059759
 51
92.290735209475557
  0
CIRCLE
  5
7D0
  8
0
 10
0.0
 20
0.0
 30
0.0
 40
0.2
  0
ARC
  5
7D1
  8
0
 10
4.000958810997929
 20
-3.8241257213188642
 30
0.0
 40
0.2999999999999325
 50
242.29073520948819
 51
47.290735209489483
  0
ARC
  5
7D2
  8
0
 10
4.017911867332927
 20
-11.42433236483151
 30
0.0
 40
0.2999999999999948
 50
222.87790223034321
 51
47.290735209474143
  0
ARC
  5
7D3
  8
0
 10
-25.590924134226238
 20
-39.188544039530477
 30
0.0
 40
40.30140653252819
 50
43.041593976239149
 51
48.867350427507773
  0
ENDBLK
  5
7D4
  8
0
  0
BLOCK
  8
0
  2
BYGG-022629$0$18058
 70
     0
 10
0.0
 20
0.0
 30
0.0
  3
BYGG-022629$0$18058
  1

  0
POLYLINE
  5
7D8
  8
0
 66
     1
 10
0.0
 20
0.0
 30
0.0
 70
     1
  0
VERTEX
  5
E5E
  8
0
 10
4.8334507297417977
 20
-5.2617122271897747
 30
0.0
 42
0.6997223268137053
  0
VERTEX
  5
E5F
  8
0
 10
4.575936757014289
 20
-4.5556296340060376
 30
0.0
  0
VERTEX
  5
E60
  8
0
 10
3.3759367570143008
 20
-4.5556296340060376
 30
0.0
 42
-0.4142135623730951
  0
VERTEX
  5
E61
  8
0
 10
3.1759367570143122
 20
-4.355629634006049
 30
0.0
  0
VERTEX
  5
E62
  8
0
 10
3.1759367570142838
 20
-1.555629634006038
 30
0.0
 42
-0.59729408155688
  0
VERTEX
  5
E63
  8
0
 10
3.486028500133556
 20
-1.38865715694186
 30
0.0
  0
VERTEX
  5
E64
  8
0
 10
3.778230334995953
 20
-1.5813177074005571
 30
0.0
 42
0.7267081950900313
  0
VERTEX
  5
E65
  8
0
 10
4.447090661358259
 20
-1.0471071155557179
 30
0.0
  0
VERTEX
  5
E66
  8
0
 10
0.5873176626473935
 20
5.5050401533857212
 30
0.0
 42
0.7363258036229955
  0
VERTEX
  5
E67
  8
0
 10
-0.7166888610518641
 20
5.2103713392397699
 30
0.0
  0
VERTEX
  5
E68
  8
0
 10
-1.3240632429856301
 20
1.765780049277339
 30
0.0
  0
VERTEX
  5
E69
  8
0
 10
-2.7574321456306592
 20
-2.6694904128274279
 30
0.0
 42
0.885993824690421
  0
VERTEX
  5
E6A
  8
0
 10
-2.3382360028933951
 20
-3.0926345791103809
 30
0.0
  0
VERTEX
  5
E6B
  8
0
 10
-1.624063242985442
 20
-0.9471580705006203
 30
0.0
 42
-0.5773502691892892
  0
VERTEX
  5
E6C
  8
0
 10
-1.3240632429856301
 20
-1.120363151257606
 30
0.0
  0
VERTEX
  5
E6D
  8
0
 10
-1.3240632429856869
 20
-5.6510692487698293
 30
0.0
 42
-0.1989123673796363
  0
VERTEX
  5
E6E
  8
0
 10
-1.3826418867483881
 20
-5.7924906050071172
 30
0.0
  0
VERTEX
  5
E6F
  8
0
 10
-2.7562272241133172
 20
-10.167977501831951
 30
0.0
 42
0.7660459440748996
  0
VERTEX
  5
E70
  8
0
 10
-2.4141837562942068
 20
-10.635523841217941
 30
0.0
  0
VERTEX
  5
E71
  8
0
 10
1.832706186540491
 20
-6.8303485721410757
 30
0.0
 42
-0.3419987131192184
  0
VERTEX
  5
E72
  8
0
 10
1.953259031429212
 20
-6.851959023057872
 30
0.0
 42
0.7745966692401299
  0
VERTEX
  5
E73
  8
0
 10
2.4681048871406972
 20
-6.5828238435410071
 30
0.0
 42
-0.3419987131192394
  0
VERTEX
  5
E74
  8
0
 10
2.519167327488105
 20
-6.4715016661200471
 30
0.0
  0
SEQEND
  5
E75
  8
0
  0
CIRCLE
  5
7D9
  8
0
 10
0.0
 20
0.0
 30
0.0
 40
0.2
  0
ENDBLK
  5
7DA
  8
0
  0
BLOCK
  8
0
  2
*U73
 70
     1
 10
0.0
 20
0.0
 30
0.0
  3
*U73
  1

  0
TEXT
  5
C66
  8
SAPA_ARTIKELNR
 10
59.105172135275559
 20
70.040772241503021
 30
0.0
 40
3.5
  1
68047
 50
90.0
  7
ISO
  0
ENDBLK
  5
C68
  8
0
  0
BLOCK
  8
0
  2
*U74
 70
     1
 10
0.0
 20
0.0
 30
0.0
  3
*U74
  1

  0
TEXT
  5
C6A
  8
SAPA_ARTIKELNR
 10
59.105172135275559
 20
3.8668643411813362
 30
0.0
 40
3.5
  1
68076
 50
90.0
  7
ISO
  0
ENDBLK
  5
C6C
  8
0
  0
BLOCK
  8
0
  2
*U75
 70
     1
 10
0.0
 20
0.0
 30
0.0
  3
*U75
  1

  0
TEXT
  5
C6E
  8
SAPA_ARTIKELNR
 10
59.10586111165351
 20
23.843374665125889
 30
0.0
 40
3.5
  1
42300
 50
90.0
  7
ISO
  0
ENDBLK
  5
C70
  8
0
  0
BLOCK
  8
0
  2
*U76
 70
     1
 10
0.0
 20
0.0
 30
0.0
  3
*U76
  1

  0
TEXT
  5
C86
  8
0
 62
     2
 10
-15.894565732361061
 20
71.148818897637753
 30
0.0
 40
3.0
  1
120
 50
90.0
  7
ISO
  0
ENDBLK
  5
C88
  8
0
  0
BLOCK
  8
0
  2
*U77
 70
     1
 10
0.0
 20
0.0
 30
0.0
  3
*U77
  1

  0
TEXT
  5
C8A
  8
0
 62
     2
 10
-15.89934844336403
 20
5.0499999999999901
 30
0.0
 40
3.0
  1
14
 50
90.0
  7
ISO
  0
ENDBLK
  5
C8C
  8
0
  0
BLOCK
  8
0
  2
*U78
 70
     1
 10
0.0
 20
0.0
 30
0.0
  3
*U78
  1

  0
TEXT
  5
C8E
  8
0
 62
     2
 10
-28.14040986080089
 20
63.999999999999972
 30
0.0
 40
3.0
  1
134
 50
90.0
  7
ISO
  0
ENDBLK
  5
C90
  8
0
  0
BLOCK
  8
0
  2
*U79
 70
     1
 10
0.0
 20
0.0
 30
0.0
  3
*U79
  1

  0
TEXT
  5
1023
  8
0
 10
122.90663016463461
 20
339.704964701959
 30
0.0
 40
1.5
  1
11
 50
90.0
  7
BYGG-014303$0$ISO
  0
ENDBLK
  5
1025
  8
0
  0
BLOCK
  8
0
  2
*U80
 70
     1
 10
0.0
 20
0.0
 30
0.0
  3
*U80
  1

  0
TEXT
  5
1027
  8
0
 10
105.7446136328857
 20
351.87108308439639
 30
0.0
 40
1.5
  1
17.7
  7
BYGG-014303$0$ISO
  0
ENDBLK
  5
1029
  8
0
  0
BLOCK
  8
0
  2
*U81
 70
     1
 10
0.0
 20
0.0
 30
0.0
  3
*U81
  1

  0
TEXT
  5
1089
  8
0
 62
     2
 10
95.570444297889253
 20
343.2587803040318
 30
0.0
 40
3.0
  1
20
 50
90.0
  7
BYGG-01458001$0$ISO
  0
ENDBLK
  5
108B
  8
0
  0
BLOCK
  8
0
  2
*U82
 70
     1
 10
0.0
 20
0.0
 30
0.0
  3
*U82
  1

  0
TEXT
  5
108D
  8
0
 62
     2
 10
127.3179711801931
 20
367.75956837978538
 30
0.0
 40
3.0
  1
43
  7
BYGG-01458001$0$ISO
  0
ENDBLK
  5
108F
  8
0
  0
BLOCK
  8
0
  2
*U83
 70
     1
 10
0.0
 20
0.0
 30
0.0
  3
*U83
  1

  0
TEXT
  5
10CC
  8
0
 10
269.13695666615928
 20
387.12121780868893
 30
0.0
 40
3.0
  1
22
 50
90.0
  7
BYGG-014203$0$ISO
  0
ENDBLK
  5
10CE
  8
0
  0
BLOCK
  8
0
  2
*U84
 70
     1
 10
0.0
 20
0.0
 30
0.0
  3
*U84
  1

  0
TEXT
  5
10D0
  8
0
 10
243.50583563664401
 20
406.8346351471406
 30
0.0
 40
3.0
  1
29
  7
BYGG-014203$0$ISO
  0
ENDBLK
  5
10D2
  8
0
  0
BLOCK
  8
0
  2
*U85
 70
     1
 10
0.0
 20
0.0
 30
0.0
  3
*U85
  1

  0
TEXT
  5
10D5
  8
0
 10
89.477352001818133
 20
536.91038923748056
 30
0.0
 40
3.0
  1
29.00259511
  7
BYGG-014203$0$ISO
  0
ENDBLK
  5
10D7
  8
0
  0
BLOCK
  8
0
  2
*U86
 70
     1
 10
0.0
 20
0.0
 30
0.0
  3
*U86
  1

  0
TEXT
  5
10D9
  8
0
 10
139.81857160131429
 20
500.42082458589999
 30
0.0
 40
3.0
  1
21.99913956
 50
90.0
  7
BYGG-014203$0$ISO
  0
ENDBLK
  5
10DB
  8
0
  0
BLOCK
  8
0
  2
*U87
 70
     1
 10
0.0
 20
0.0
 30
0.0
  3
*U87
  1

  0
TEXT
  5
127D
  8
0
 62
     2
 10
724.43576367800563
 20
504.89051800140891
 30
0.0
 40
6.0
  1
50
 50
90.0
  7
BYGG-014557$0$ISO
  0
ENDBLK
  5
127F
  8
0
  0
BLOCK
  8
0
  2
*U88
 70
     1
 10
0.0
 20
0.0
 30
0.0
  3
*U88
  1

  0
TEXT
  5
1281
  8
0
 62
     2
 10
643.97846611151215
 20
469.29273540499821
 30
0.0
 40
6.0
  1
120
  7
BYGG-014557$0$ISO
  0
ENDBLK
  5
1283
  8
0
  0
BLOCK
  8
0
  2
*U89
 70
     1
 10
0.0
 20
0.0
 30
0.0
  3
*U89
  1

  0
TEXT
  5
12A1
  8
0
 10
61.452934706525639
 20
29.032877803732688
 30
0.0
 40
1.5
  1
11
 50
90.0
  7
BYGG-014303$0$ISO
  0
ENDBLK
  5
12A3
  8
0
  0
BLOCK
  8
0
  2
*U90
 70
     1
 10
0.0
 20
0.0
 30
0.0
  3
*U90
  1

  0
TEXT
  5
12A5
  8
0
 10
44.290918174776699
 20
41.198996186170064
 30
0.0
 40
1.5
  1
17.7
  7
BYGG-014303$0$ISO
  0
ENDBLK
  5
12A7
  8
0
  0
BLOCK
  8
0
  2
*U91
 70
     1
 10
0.0
 20
0.0
 30
0.0
  3
*U91
  1

  0
TEXT
  5
12A9
  8
0
 10
37.887468859255961
 20
140.86073041397509
 30
0.0
 40
3.0
  1
29
  7
BYGG-014203$0$ISO
  0
ENDBLK
  5
12AB
  8
0
  0
BLOCK
  8
0
  2
*U92
 70
     1
 10
0.0
 20
0.0
 30
0.0
  3
*U92
  1

  0
TEXT
  5
12AD
  8
0
 10
63.518589888771153
 20
121.1473130755232
 30
0.0
 40
3.0
  1
22
 50
90.0
  7
BYGG-014203$0$ISO
  0
ENDBLK
  5
12AF
  8
0
  0
BLOCK
  8
0
  2
*U93
 70
     1
 10
0.0
 20
0.0
 30
0.0
  3
*U93
  1

  0
TEXT
  5
1517
  8
0
 62
     2
 10
25.357001436344859
 20
-0.754935361769185
 30
0.0
 40
6.0
  1
50
  7
BYGG-014557$0$ISO
  0
ENDBLK
  5
1519
  8
0
  0
BLOCK
  8
0
  2
*U94
 70
     1
 10
0.0
 20
0.0
 30
0.0
  3
*U94
  1

  0
TEXT
  5
151B
  8
0
 62
     2
 10
-14.24196226242808
 20
68.297637795275534
 30
0.0
 40
6.0
  1
120
 50
90.0
  7
BYGG-014557$0$ISO
  0
ENDBLK
  5
151D
  8
0
  0
BLOCK
  8
0
  2
*U95
 70
     1
 10
0.0
 20
0.0
 30
0.0
  3
*U95
  1

  0
TEXT
  5
151F
  8
0
 62
     2
 10
-1.0002952755905259
 20
7.936909448818902
 30
0.0
 40
3.0
  1
20
 50
90.0
  7
BYGG-01458001$0$ISO
  0
ENDBLK
  5
1521
  8
0
  0
BLOCK
  8
0
  2
*U96
 70
     1
 10
0.0
 20
0.0
 30
0.0
  3
*U96
  1

  0
TEXT
  5
1523
  8
0
 62
     2
 10
30.747231606713289
 20
32.437697524572513
 30
0.0
 40
3.0
  1
43
  7
BYGG-01458001$0$ISO
  0
ENDBLK
  5
1525
  8
0
  0
ENDSEC
  0
SECTION
  2
ENTITIES
  0
POLYLINE
  5
37E
  8
SAPA_GLAS
 66
     1
 10
0.0
 20
0.0
 30
0.0
 70
     1
  0
VERTEX
  5
C60
  8
SAPA_GLAS
 10
10.98358277760695
 20
107.3092751125676
 30
0.0
  0
VERTEX
  5
C61
  8
SAPA_GLAS
 10
21.017285725239159
 20
107.3092751125676
 30
0.0
  0
VERTEX
  5
C62
  8
SAPA_GLAS
 10
21.017285725239159
 20
109.3496573829707
 30
0.0
  0
VERTEX
  5
C63
  8
SAPA_GLAS
 10
10.98358277760695
 20
109.3496573829707
 30
0.0
  0
SEQEND
  5
C64
  8
SAPA_GLAS
  0
INSERT
  5
3FD
  8
0
  2
*U73
 10
0.0
 20
0.0
 30
0.0
  0
INSERT
  5
3FE
  8
0
  2
*U74
 10
0.0
 20
0.0
 30
0.0
  0
INSERT
  5
3FF
  8
0
  2
*U75
 10
0.0
 20
0.0
 30
0.0
  0
POLYLINE
  5
62D
  8
SAPA_LIGHT
 66
     1
 10
0.0
 20
0.0
 30
0.0
  0
VERTEX
  5
C71
  8
SAPA_LIGHT
 10
19.577956940433442
 20
133.99999999999989
 30
0.0
  0
VERTEX
  5
C72
  8
SAPA_LIGHT
 10
54.577956940433438
 20
133.99999999999989
 30
0.0
  0
VERTEX
  5
C73
  8
SAPA_LIGHT
 10
54.577956940433438
 20
-0.0000000000000142
 30
0.0
  0
VERTEX
  5
C74
  8
SAPA_LIGHT
 10
11.57795694043344
 20
-0.0000000000000142
 30
0.0
  0
VERTEX
  5
C75
  8
SAPA_LIGHT
 10
11.57795694043344
 20
28.499999999999901
 30
0.0
  0
VERTEX
  5
C76
  8
SAPA_LIGHT
 10
54.577956940433467
 20
28.499999999999901
 30
0.0
  0
SEQEND
  5
C77
  8
SAPA_LIGHT
  0
POLYLINE
  5
62E
  8
SAPA_LIGHT
 66
     1
 10
0.0
 20
0.0
 30
0.0
  0
VERTEX
  5
C78
  8
SAPA_LIGHT
 10
11.57795694043344
 20
13.99999999999998
 30
0.0
  0
VERTEX
  5
C79
  8
SAPA_LIGHT
 10
4.5779569404334381
 20
13.99999999999997
 30
0.0
  0
VERTEX
  5
C7A
  8
SAPA_LIGHT
 10
4.5779569404334381
 20
133.99999999999989
 30
0.0
  0
VERTEX
  5
C7B
  8
SAPA_LIGHT
 10
13.57795694043344
 20
133.99999999999989
 30
0.0
  0
SEQEND
  5
C7C
  8
SAPA_LIGHT
  0
POLYLINE
  5
630
  8
SAPA_LIGHT
 66
     1
 10
0.0
 20
0.0
 30
0.0
 70
     1
  0
VERTEX
  5
C7D
  8
SAPA_LIGHT
 10
19.577956940433442
 20
117.0042850016612
 30
0.0
  0
VERTEX
  5
C7E
  8
SAPA_LIGHT
 10
13.57795694043344
 20
117.0042850016612
 30
0.0
  0
VERTEX
  5
C7F
  8
SAPA_LIGHT
 10
13.57795694043344
 20
149.71654090754021
 30
0.0
  0
VERTEX
  5
C80
  8
SAPA_LIGHT
 10
19.577956940433442
 20
149.71654090754021
 30
0.0
  0
SEQEND
  5
C81
  8
SAPA_LIGHT
  0
POLYLINE
  5
632
  8
SAPA_LIGHT
 66
     1
 10
0.0
 20
0.0
 30
0.0
  0
VERTEX
  5
C82
  8
SAPA_LIGHT
 10
11.57795694043341
 20
19.99999999999994
 30
0.0
  0
VERTEX
  5
C83
  8
SAPA_LIGHT
 10
54.577956940433438
 20
19.99999999999994
 30
0.0
  0
SEQEND
  5
C84
  8
SAPA_LIGHT
  0
POLYLINE
  5
B3F
  8
SAPA_PROFIL
 66
     1
 10
0.0
 20
0.0
 30
0.0
 70
     1
  0
VERTEX
  5
13E3
  8
SAPA_PROFIL
 10
6.8593636410693071
 20
30.299999999999962
 30
0.0
  0
VERTEX
  5
13E4
  8
SAPA_PROFIL
 10
15.03974839879862
 20
30.299999999999962
 30
0.0
  0
VERTEX
  5
13E5
  8
SAPA_PROFIL
 10
15.55936364106924
 20
30.0
 30
0.0
  0
VERTEX
  5
13E6
  8
SAPA_PROFIL
 10
16.078978883339861
 20
30.299999999999962
 30
0.0
  0
VERTEX
  5
13E7
  8
SAPA_PROFIL
 10
21.0593636410693
 20
30.299999999999962
 30
0.0
  0
VERTEX
  5
13E8
  8
SAPA_PROFIL
 10
21.0593636410693
 20
30.309999999999949
 30
0.0
  0
VERTEX
  5
13E9
  8
SAPA_PROFIL
 10
21.749363641069301
 20
30.99999999999989
 30
0.0
  0
VERTEX
  5
13EA
  8
SAPA_PROFIL
 10
29.039748398798618
 20
30.999999999999769
 30
0.0
  0
VERTEX
  5
13EB
  8
SAPA_PROFIL
 10
29.5593636410693
 20
30.699999999999822
 30
0.0
  0
VERTEX
  5
13EC
  8
SAPA_PROFIL
 10
30.078978883339971
 20
30.999999999999769
 30
0.0
  0
VERTEX
  5
13ED
  8
SAPA_PROFIL
 10
37.369363641069363
 20
30.999999999999769
 30
0.0
  0
VERTEX
  5
13EE
  8
SAPA_PROFIL
 10
38.059363641069297
 20
30.309999999999722
 30
0.0
  0
VERTEX
  5
13EF
  8
SAPA_PROFIL
 10
38.059363641069297
 20
30.299999999999962
 30
0.0
  0
VERTEX
  5
13F0
  8
SAPA_PROFIL
 10
41.539748398798622
 20
30.299999999999962
 30
0.0
  0
VERTEX
  5
13F1
  8
SAPA_PROFIL
 10
42.059363641069289
 20
30.0
 30
0.0
  0
VERTEX
  5
13F2
  8
SAPA_PROFIL
 10
42.578978883339971
 20
30.299999999999962
 30
0.0
  0
VERTEX
  5
13F3
  8
SAPA_PROFIL
 10
45.359363641069251
 20
30.299999999999962
 30
0.0
 42
0.4142135623730951
  0
VERTEX
  5
13F4
  8
SAPA_PROFIL
 10
45.859363641069251
 20
30.799999999999962
 30
0.0
  0
VERTEX
  5
13F5
  8
SAPA_PROFIL
 10
45.859363641069358
 20
36.799999999999962
 30
0.0
 42
-0.4142135623730935
  0
VERTEX
  5
13F6
  8
SAPA_PROFIL
 10
46.859363641069358
 20
37.799999999999962
 30
0.0
  0
VERTEX
  5
13F7
  8
SAPA_PROFIL
 10
52.259363641069228
 20
37.799999999999962
 30
0.0
 42
0.4142135623730951
  0
VERTEX
  5
13F8
  8
SAPA_PROFIL
 10
52.759363641069228
 20
38.299999999999962
 30
0.0
  0
VERTEX
  5
13F9
  8
SAPA_PROFIL
 10
52.759363641069228
 20
105.1999999999999
 30
0.0
  0
VERTEX
  5
13FA
  8
SAPA_PROFIL
 10
31.654363641069331
 20
105.1999999999999
 30
0.0
 42
-0.4142135623730951
  0
VERTEX
  5
13FB
  8
SAPA_PROFIL
 10
31.159363641069319
 20
105.69499999999989
 30
0.0
  0
VERTEX
  5
13FC
  8
SAPA_PROFIL
 10
31.159363641069319
 20
105.7049999999999
 30
0.0
 42
-0.4142135623730951
  0
VERTEX
  5
13FD
  8
SAPA_PROFIL
 10
31.654363641069331
 20
106.1999999999999
 30
0.0
  0
VERTEX
  5
13FE
  8
SAPA_PROFIL
 10
31.814363641069288
 20
106.1999999999999
 30
0.0
 42
0.4142135623730824
  0
VERTEX
  5
13FF
  8
SAPA_PROFIL
 10
32.309363641069297
 20
106.69499999999979
 30
0.0
  0
VERTEX
  5
1400
  8
SAPA_PROFIL
 10
32.309363641069297
 20
107.4999999999999
 30
0.0
 42
0.3747564601179689
  0
VERTEX
  5
1401
  8
SAPA_PROFIL
 10
29.933758684305591
 20
110.2243950432342
 30
0.0
  0
VERTEX
  5
1402
  8
SAPA_PROFIL
 10
29.5593636410693
 20
109.8499999999996
 30
0.0
  0
VERTEX
  5
1403
  8
SAPA_PROFIL
 10
29.184968597832778
 20
110.2243950432361
 30
0.0
 42
0.3747564601179689
  0
VERTEX
  5
1404
  8
SAPA_PROFIL
 10
26.8093636410693
 20
107.5
 30
0.0
  0
VERTEX
  5
1405
  8
SAPA_PROFIL
 10
26.8093636410693
 20
106.69499999999989
 30
0.0
 42
0.4142135623730826
  0
VERTEX
  5
1406
  8
SAPA_PROFIL
 10
27.304363641069191
 20
106.1999999999999
 30
0.0
  0
VERTEX
  5
1407
  8
SAPA_PROFIL
 10
27.464363641069269
 20
106.1999999999999
 30
0.0
 42
-0.4142135623730951
  0
VERTEX
  5
1408
  8
SAPA_PROFIL
 10
27.95936364106927
 20
105.7049999999999
 30
0.0
  0
VERTEX
  5
1409
  8
SAPA_PROFIL
 10
27.95936364106927
 20
105.69499999999989
 30
0.0
 42
-0.4142135623730951
  0
VERTEX
  5
140A
  8
SAPA_PROFIL
 10
27.464363641069269
 20
105.1999999999999
 30
0.0
  0
VERTEX
  5
140B
  8
SAPA_PROFIL
 10
6.3593636410692511
 20
105.1999999999999
 30
0.0
  0
VERTEX
  5
140C
  8
SAPA_PROFIL
 10
6.3593636410693071
 20
30.799999999999962
 30
0.0
 42
0.414213562373095
  0
SEQEND
  5
140D
  8
SAPA_PROFIL
  0
POLYLINE
  5
B40
  8
SAPA_PROFIL
 66
     1
 10
0.0
 20
0.0
 30
0.0
 70
     1
  0
VERTEX
  5
140E
  8
SAPA_PROFIL
 10
8.7593636410692852
 20
14.0
 30
0.0
 42
0.4142135623730951
  0
VERTEX
  5
140F
  8
SAPA_PROFIL
 10
9.0593636410692966
 20
14.299999999999949
 30
0.0
  0
VERTEX
  5
1410
  8
SAPA_PROFIL
 10
9.0593636410692966
 20
15.509999999999989
 30
0.0
 42
0.4142135623730951
  0
VERTEX
  5
1411
  8
SAPA_PROFIL
 10
8.0693636410692875
 20
16.5
 30
0.0
  0
VERTEX
  5
1412
  8
SAPA_PROFIL
 10
8.0593636410692966
 20
16.5
 30
0.0
  0
VERTEX
  5
1413
  8
SAPA_PROFIL
 10
8.0593636410692966
 20
15.25
 30
0.0
  0
VERTEX
  5
1414
  8
SAPA_PROFIL
 10
6.5593636410692957
 20
15.25
 30
0.0
 42
-0.4142135623730951
  0
VERTEX
  5
1415
  8
SAPA_PROFIL
 10
6.0593636410692957
 20
15.749999999999879
 30
0.0
  0
VERTEX
  5
1416
  8
SAPA_PROFIL
 10
6.0593636410692957
 20
23.74999999999989
 30
0.0
 42
-0.414213562373095
  0
VERTEX
  5
1417
  8
SAPA_PROFIL
 10
6.5593636410692957
 20
24.25
 30
0.0
  0
VERTEX
  5
1418
  8
SAPA_PROFIL
 10
8.0593636410692966
 20
24.25
 30
0.0
  0
VERTEX
  5
1419
  8
SAPA_PROFIL
 10
8.0593636410692966
 20
23.0
 30
0.0
  0
VERTEX
  5
141A
  8
SAPA_PROFIL
 10
8.0693636410692875
 20
23.0
 30
0.0
 42
0.4142135623730951
  0
VERTEX
  5
141B
  8
SAPA_PROFIL
 10
9.0593636410692966
 20
23.990000000000009
 30
0.0
  0
VERTEX
  5
141C
  8
SAPA_PROFIL
 10
9.0593636410692966
 20
24.509999999999991
 30
0.0
 42
0.4142135623730951
  0
VERTEX
  5
141D
  8
SAPA_PROFIL
 10
8.0693636410692875
 20
25.5
 30
0.0
  0
VERTEX
  5
141E
  8
SAPA_PROFIL
 10
6.8593636410693071
 20
25.5
 30
0.0
 42
-0.4142135623730951
  0
VERTEX
  5
141F
  8
SAPA_PROFIL
 10
6.3593636410693071
 20
25.99999999999989
 30
0.0
  0
VERTEX
  5
1420
  8
SAPA_PROFIL
 10
6.3593636410692511
 20
27.99999999999989
 30
0.0
 42
-0.414213562373095
  0
VERTEX
  5
1421
  8
SAPA_PROFIL
 10
6.8593636410692511
 20
28.5
 30
0.0
  0
VERTEX
  5
1422
  8
SAPA_PROFIL
 10
45.359363641069372
 20
28.5
 30
0.0
 42
-0.4142135623730951
  0
VERTEX
  5
1423
  8
SAPA_PROFIL
 10
45.859363641069358
 20
28.0
 30
0.0
  0
VERTEX
  5
1424
  8
SAPA_PROFIL
 10
45.859363641069358
 20
26.5
 30
0.0
 42
0.4142135623730951
  0
VERTEX
  5
1425
  8
SAPA_PROFIL
 10
46.359363641069358
 20
26.0
 30
0.0
  0
VERTEX
  5
1426
  8
SAPA_PROFIL
 10
46.559363641069297
 20
26.0
 30
0.0
 42
0.4142135623730951
  0
VERTEX
  5
1427
  8
SAPA_PROFIL
 10
47.559363641069289
 20
27.0
 30
0.0
  0
VERTEX
  5
1428
  8
SAPA_PROFIL
 10
47.559363641069289
 20
35.0
 30
0.0
 42
-0.4142135623730951
  0
VERTEX
  5
1429
  8
SAPA_PROFIL
 10
48.559363641069297
 20
36.0
 30
0.0
  0
VERTEX
  5
142A
  8
SAPA_PROFIL
 10
54.059363641069297
 20
36.0
 30
0.0
 42
0.4142135623730951
  0
VERTEX
  5
142B
  8
SAPA_PROFIL
 10
54.559363641069289
 20
36.5
 30
0.0
  0
VERTEX
  5
142C
  8
SAPA_PROFIL
 10
54.559363641069289
 20
111.9999999999999
 30
0.0
  0
VERTEX
  5
142D
  8
SAPA_PROFIL
 10
51.559363641069297
 20
111.9999999999999
 30
0.0
  0
VERTEX
  5
142E
  8
SAPA_PROFIL
 10
50.559363641069297
 20
110.9999999999999
 30
0.0
  0
VERTEX
  5
142F
  8
SAPA_PROFIL
 10
50.559363641069297
 20
109.9999999999999
 30
0.0
  0
VERTEX
  5
1430
  8
SAPA_PROFIL
 10
52.759363641069228
 20
109.9999999999999
 30
0.0
  0
VERTEX
  5
1431
  8
SAPA_PROFIL
 10
52.759363641069228
 20
106.9999999999999
 30
0.0
  0
VERTEX
  5
1432
  8
SAPA_PROFIL
 10
34.059363641069297
 20
106.9999999999999
 30
0.0
  0
VERTEX
  5
1433
  8
SAPA_PROFIL
 10
34.059363641069297
 20
109.9999999999999
 30
0.0
  0
VERTEX
  5
1434
  8
SAPA_PROFIL
 10
36.559363641069297
 20
109.9999999999999
 30
0.0
  0
VERTEX
  5
1435
  8
SAPA_PROFIL
 10
36.559363641069297
 20
110.9999999999999
 30
0.0
  0
VERTEX
  5
1436
  8
SAPA_PROFIL
 10
35.759363641069342
 20
111.7999999999999
 30
0.0
  0
VERTEX
  5
1437
  8
SAPA_PROFIL
 10
30.078978883339971
 20
111.7999999999999
 30
0.0
  0
VERTEX
  5
1438
  8
SAPA_PROFIL
 10
29.5593636410693
 20
111.4999999999999
 30
0.0
  0
VERTEX
  5
1439
  8
SAPA_PROFIL
 10
29.039748398798618
 20
111.7999999999999
 30
0.0
  0
VERTEX
  5
143A
  8
SAPA_PROFIL
 10
23.359363641069251
 20
111.7999999999999
 30
0.0
  0
VERTEX
  5
143B
  8
SAPA_PROFIL
 10
22.55936364106924
 20
111.0
 30
0.0
  0
VERTEX
  5
143C
  8
SAPA_PROFIL
 10
22.55936364106924
 20
110.0
 30
0.0
  0
VERTEX
  5
143D
  8
SAPA_PROFIL
 10
25.0593636410693
 20
110.0
 30
0.0
  0
VERTEX
  5
143E
  8
SAPA_PROFIL
 10
25.0593636410693
 20
107.0
 30
0.0
  0
VERTEX
  5
143F
  8
SAPA_PROFIL
 10
6.3593636410692511
 20
107.0
 30
0.0
  0
VERTEX
  5
1440
  8
SAPA_PROFIL
 10
6.3593636410692511
 20
110.0
 30
0.0
  0
VERTEX
  5
1441
  8
SAPA_PROFIL
 10
8.5593636410692397
 20
110.0
 30
0.0
  0
VERTEX
  5
1442
  8
SAPA_PROFIL
 10
8.5593636410692397
 20
111.0
 30
0.0
  0
VERTEX
  5
1443
  8
SAPA_PROFIL
 10
7.5593636410692389
 20
112.0
 30
0.0
  0
VERTEX
  5
1444
  8
SAPA_PROFIL
 10
6.3593636410692511
 20
112.0
 30
0.0
  0
VERTEX
  5
1445
  8
SAPA_PROFIL
 10
6.3593636410692511
 20
122.0
 30
0.0
 42
-0.4142135623730951
  0
VERTEX
  5
1446
  8
SAPA_PROFIL
 10
6.8593636410692511
 20
122.5
 30
0.0
  0
VERTEX
  5
1447
  8
SAPA_PROFIL
 10
8.0693636410692307
 20
122.5
 30
0.0
 42
0.4142135623730951
  0
VERTEX
  5
1448
  8
SAPA_PROFIL
 10
9.0593636410692397
 20
123.48999999999999
 30
0.0
  0
VERTEX
  5
1449
  8
SAPA_PROFIL
 10
9.0593636410692397
 20
124.01000000000001
 30
0.0
 42
0.4142135623730951
  0
VERTEX
  5
144A
  8
SAPA_PROFIL
 10
8.0693636410692307
 20
125.0
 30
0.0
  0
VERTEX
  5
144B
  8
SAPA_PROFIL
 10
8.0593636410692397
 20
125.0
 30
0.0
  0
VERTEX
  5
144C
  8
SAPA_PROFIL
 10
8.0593636410692397
 20
123.75
 30
0.0
  0
VERTEX
  5
144D
  8
SAPA_PROFIL
 10
6.5593636410692389
 20
123.75
 30
0.0
 42
-0.4142135623730951
  0
VERTEX
  5
144E
  8
SAPA_PROFIL
 10
6.0593636410692389
 20
124.25
 30
0.0
  0
VERTEX
  5
144F
  8
SAPA_PROFIL
 10
6.0593636410692389
 20
132.25
 30
0.0
 42
-0.4142135623730951
  0
VERTEX
  5
1450
  8
SAPA_PROFIL
 10
6.5593636410692389
 20
132.75
 30
0.0
  0
VERTEX
  5
1451
  8
SAPA_PROFIL
 10
8.0593636410692397
 20
132.75
 30
0.0
  0
VERTEX
  5
1452
  8
SAPA_PROFIL
 10
8.0593636410692397
 20
131.5
 30
0.0
  0
VERTEX
  5
1453
  8
SAPA_PROFIL
 10
8.0693636410692307
 20
131.5
 30
0.0
 42
0.4142135623730951
  0
VERTEX
  5
1454
  8
SAPA_PROFIL
 10
9.0593636410692397
 20
132.49000000000001
 30
0.0
  0
VERTEX
  5
1455
  8
SAPA_PROFIL
 10
9.0593636410692397
 20
133.6999999999999
 30
0.0
 42
0.4142135623730951
  0
VERTEX
  5
1456
  8
SAPA_PROFIL
 10
8.7593636410692284
 20
134.0
 30
0.0
  0
VERTEX
  5
1457
  8
SAPA_PROFIL
 10
4.8593636410692511
 20
134.0
 30
0.0
 42
0.4142135623730951
  0
VERTEX
  5
1458
  8
SAPA_PROFIL
 10
4.5593636410692389
 20
133.6999999999999
 30
0.0
  0
VERTEX
  5
1459
  8
SAPA_PROFIL
 10
4.5593636410692957
 20
14.299999999999949
 30
0.0
 42
0.4142135623730951
  0
VERTEX
  5
145A
  8
SAPA_PROFIL
 10
4.8593636410693071
 20
14.0
 30
0.0
  0
SEQEND
  5
145B
  8
SAPA_PROFIL
  0
LINE
  5
B41
  8
SAPA_PROFIL
 10
4.8593636410692858
 20
14.000000000000041
 30
0.0
 11
8.7593636410692621
 21
14.000000000000041
 31
0.0
  0
ARC
  5
B42
  8
SAPA_PROFIL
 10
4.8593636410692582
 20
14.30000000000002
 30
0.0
 40
0.2999999999999829
 50
180.0000000000054
 51
270.0000000000054
  0
LINE
  5
B43
  8
SAPA_PROFIL
 10
4.559363641069246
 20
133.6999999999999
 30
0.0
 11
4.5593636410692753
 21
14.29999999999999
 31
0.0
  0
ARC
  5
B44
  8
SAPA_PROFIL
 10
4.8593636410692858
 20
133.69999999999999
 30
0.0
 40
0.3000000000000398
 50
90.000000000005414
 51
180.0000000000054
  0
LINE
  5
B45
  8
SAPA_PROFIL
 10
8.7593636410692355
 20
134.0
 30
0.0
 11
4.8593636410692582
 21
134.0
 31
0.0
  0
ARC
  5
B46
  8
SAPA_PROFIL
 10
8.7593636410692071
 20
133.69999999999999
 30
0.0
 40
0.3000000000000398
 50
359.99999999999449
 51
89.999999999994586
  0
LINE
  5
B47
  8
SAPA_PROFIL
 10
9.0593636410692469
 20
132.49000000000001
 30
0.0
 11
9.0593636410692469
 21
133.6999999999999
 31
0.0
  0
ARC
  5
B48
  8
SAPA_PROFIL
 10
8.0693636410692378
 20
132.49000000000001
 30
0.0
 40
0.990000000000009
 50
270.0
 51
0.0
  0
LINE
  5
B49
  8
SAPA_PROFIL
 10
8.0593636410692469
 20
131.5
 30
0.0
 11
8.0693636410692378
 21
131.5
 31
0.0
  0
LINE
  5
B4A
  8
SAPA_PROFIL
 10
8.0593636410692469
 20
132.75
 30
0.0
 11
8.0593636410692469
 21
131.5
 31
0.0
  0
LINE
  5
B4B
  8
SAPA_PROFIL
 10
6.559363641069246
 20
132.75
 30
0.0
 11
8.0593636410692469
 21
132.75
 31
0.0
  0
ARC
  5
B4C
  8
SAPA_PROFIL
 10
6.559363641069246
 20
132.25
 30
0.0
 40
0.5
 50
90.0
 51
180.0
  0
LINE
  5
B4D
  8
SAPA_PROFIL
 10
6.0593636410692389
 20
124.25
 30
0.0
 11
6.059363641069246
 21
132.25
 31
0.0
  0
ARC
  5
B4E
  8
SAPA_PROFIL
 10
6.5593636410692389
 20
124.25
 30
0.0
 40
0.5
 50
180.0
 51
270.0
  0
LINE
  5
B4F
  8
SAPA_PROFIL
 10
8.0593636410692397
 20
123.75
 30
0.0
 11
6.5593636410692389
 21
123.75
 31
0.0
  0
LINE
  5
B50
  8
SAPA_PROFIL
 10
8.0593636410692397
 20
125.0
 30
0.0
 11
8.0593636410692397
 21
123.75
 31
0.0
  0
LINE
  5
B51
  8
SAPA_PROFIL
 10
8.0693636410692307
 20
125.0
 30
0.0
 11
8.0593636410692397
 21
125.0
 31
0.0
  0
ARC
  5
B52
  8
SAPA_PROFIL
 10
8.0693636410692307
 20
124.01000000000001
 30
0.0
 40
0.990000000000009
 50
0.0
 51
90.0
  0
LINE
  5
B53
  8
SAPA_PROFIL
 10
9.0593636410692397
 20
123.48999999999999
 30
0.0
 11
9.0593636410692397
 21
124.01000000000001
 31
0.0
  0
ARC
  5
B54
  8
SAPA_PROFIL
 10
8.0693636410692307
 20
123.48999999999999
 30
0.0
 40
0.990000000000009
 50
270.0
 51
0.0
  0
LINE
  5
B55
  8
SAPA_PROFIL
 10
6.8593636410692511
 20
122.5
 30
0.0
 11
8.0693636410692307
 21
122.5
 31
0.0
  0
ARC
  5
B56
  8
SAPA_PROFIL
 10
6.8593636410692511
 20
122.0
 30
0.0
 40
0.5
 50
90.0
 51
180.0
  0
LINE
  5
B57
  8
SAPA_PROFIL
 10
6.3593636410692511
 20
112.0
 30
0.0
 11
6.3593636410692511
 21
122.0
 31
0.0
  0
LINE
  5
B58
  8
SAPA_PROFIL
 10
7.5593636410692389
 20
112.0
 30
0.0
 11
6.3593636410692511
 21
112.0
 31
0.0
  0
LINE
  5
B59
  8
SAPA_PROFIL
 10
8.5593636410692397
 20
111.0
 30
0.0
 11
7.5593636410692389
 21
112.0
 31
0.0
  0
LINE
  5
B5A
  8
SAPA_PROFIL
 10
8.5593636410692397
 20
110.0
 30
0.0
 11
8.5593636410692397
 21
111.0
 31
0.0
  0
LINE
  5
B5B
  8
SAPA_PROFIL
 10
6.3593636410692511
 20
110.0
 30
0.0
 11
8.5593636410692397
 21
110.0
 31
0.0
  0
LINE
  5
B5C
  8
SAPA_PROFIL
 10
6.3593636410692511
 20
107.0
 30
0.0
 11
6.3593636410692511
 21
110.0
 31
0.0
  0
LINE
  5
B5D
  8
SAPA_PROFIL
 10
25.0593636410693
 20
107.0
 30
0.0
 11
6.3593636410692511
 21
107.0
 31
0.0
  0
LINE
  5
B5E
  8
SAPA_PROFIL
 10
25.0593636410693
 20
110.0
 30
0.0
 11
25.0593636410693
 21
107.0
 31
0.0
  0
LINE
  5
B5F
  8
SAPA_PROFIL
 10
22.55936364106924
 20
110.0
 30
0.0
 11
25.0593636410693
 21
110.0
 31
0.0
  0
LINE
  5
B60
  8
SAPA_PROFIL
 10
22.55936364106924
 20
111.0
 30
0.0
 11
22.55936364106924
 21
110.0
 31
0.0
  0
LINE
  5
B61
  8
SAPA_PROFIL
 10
23.359363641069251
 20
111.8
 30
0.0
 11
22.55936364106924
 21
111.0
 31
0.0
  0
LINE
  5
B62
  8
SAPA_PROFIL
 10
29.039748398798618
 20
111.8
 30
0.0
 11
23.359363641069251
 21
111.8
 31
0.0
  0
LINE
  5
B63
  8
SAPA_PROFIL
 10
29.5593636410693
 20
111.4999999999999
 30
0.0
 11
29.039748398798618
 21
111.8
 31
0.0
  0
LINE
  5
B64
  8
SAPA_PROFIL
 10
30.078978883339971
 20
111.8
 30
0.0
 11
29.5593636410693
 21
111.4999999999999
 31
0.0
  0
LINE
  5
B65
  8
SAPA_PROFIL
 10
35.759363641069342
 20
111.8
 30
0.0
 11
30.078978883339971
 21
111.8
 31
0.0
  0
LINE
  5
B66
  8
SAPA_PROFIL
 10
36.559363641069297
 20
110.9999999999999
 30
0.0
 11
35.759363641069342
 21
111.8
 31
0.0
  0
LINE
  5
B67
  8
SAPA_PROFIL
 10
36.559363641069297
 20
109.9999999999999
 30
0.0
 11
36.559363641069297
 21
110.9999999999999
 31
0.0
  0
LINE
  5
B68
  8
SAPA_PROFIL
 10
34.059363641069297
 20
109.9999999999999
 30
0.0
 11
36.559363641069297
 21
109.9999999999999
 31
0.0
  0
LINE
  5
B69
  8
SAPA_PROFIL
 10
34.059363641069297
 20
106.9999999999999
 30
0.0
 11
34.059363641069297
 21
109.9999999999999
 31
0.0
  0
LINE
  5
B6A
  8
SAPA_PROFIL
 10
52.759363641069228
 20
106.9999999999999
 30
0.0
 11
34.059363641069297
 21
106.9999999999999
 31
0.0
  0
LINE
  5
B6B
  8
SAPA_PROFIL
 10
52.759363641069228
 20
109.9999999999999
 30
0.0
 11
52.759363641069228
 21
106.9999999999999
 31
0.0
  0
LINE
  5
B6C
  8
SAPA_PROFIL
 10
50.559363641069297
 20
109.9999999999999
 30
0.0
 11
52.759363641069228
 21
109.9999999999999
 31
0.0
  0
LINE
  5
B6D
  8
SAPA_PROFIL
 10
50.559363641069297
 20
110.9999999999999
 30
0.0
 11
50.559363641069297
 21
109.9999999999999
 31
0.0
  0
LINE
  5
B6E
  8
SAPA_PROFIL
 10
51.559363641069297
 20
111.9999999999999
 30
0.0
 11
50.559363641069297
 21
110.9999999999999
 31
0.0
  0
LINE
  5
B6F
  8
SAPA_PROFIL
 10
54.559363641069289
 20
111.9999999999999
 30
0.0
 11
51.559363641069297
 21
111.9999999999999
 31
0.0
  0
LINE
  5
B70
  8
SAPA_PROFIL
 10
54.559363641069282
 20
36.500000000000028
 30
0.0
 11
54.559363641069289
 21
111.9999999999999
 31
0.0
  0
ARC
  5
B71
  8
SAPA_PROFIL
 10
54.059363641069282
 20
36.500000000000028
 30
0.0
 40
0.5
 50
270.0
 51
0.0
  0
LINE
  5
B72
  8
SAPA_PROFIL
 10
48.559363641069282
 20
36.000000000000028
 30
0.0
 11
54.059363641069282
 21
36.000000000000028
 31
0.0
  0
ARC
  5
B73
  8
SAPA_PROFIL
 10
48.559363641069282
 20
35.000000000000028
 30
0.0
 40
1.0
 50
90.0
 51
180.0
  0
LINE
  5
B74
  8
SAPA_PROFIL
 10
47.559363641069282
 20
27.000000000000028
 30
0.0
 11
47.559363641069282
 21
35.000000000000028
 31
0.0
  0
ARC
  5
B75
  8
SAPA_PROFIL
 10
46.559363641069282
 20
27.000000000000028
 30
0.0
 40
1.0
 50
270.0
 51
0.0
  0
LINE
  5
B76
  8
SAPA_PROFIL
 10
46.359363641069343
 20
26.000000000000028
 30
0.0
 11
46.559363641069282
 21
26.000000000000028
 31
0.0
  0
ARC
  5
B77
  8
SAPA_PROFIL
 10
46.359363641069343
 20
26.500000000000028
 30
0.0
 40
0.5
 50
180.0
 51
270.0
  0
LINE
  5
B78
  8
SAPA_PROFIL
 10
45.859363641069351
 20
28.000000000000028
 30
0.0
 11
45.859363641069351
 21
26.500000000000028
 31
0.0
  0
ARC
  5
B79
  8
SAPA_PROFIL
 10
45.359363641069351
 20
28.000000000000028
 30
0.0
 40
0.5
 50
0.0
 51
90.0
  0
LINE
  5
B7A
  8
SAPA_PROFIL
 10
6.859363641069236
 20
28.500000000000039
 30
0.0
 11
45.359363641069351
 21
28.500000000000028
 31
0.0
  0
ARC
  5
B7B
  8
SAPA_PROFIL
 10
6.8593636410692929
 20
27.999999999999989
 30
0.0
 40
0.500000000000057
 50
90.000000000006494
 51
180.00000000000651
  0
LINE
  5
B7C
  8
SAPA_PROFIL
 10
6.3593636410692929
 20
25.999999999999929
 30
0.0
 11
6.359363641069236
 21
27.999999999999929
 31
0.0
  0
ARC
  5
B7D
  8
SAPA_PROFIL
 10
6.859363641069236
 20
25.999999999999989
 30
0.0
 40
0.4999999999999432
 50
180.00000000000651
 51
270.00000000000648
  0
LINE
  5
B7E
  8
SAPA_PROFIL
 10
8.0693636410692733
 20
25.500000000000039
 30
0.0
 11
6.8593636410692929
 21
25.500000000000039
 31
0.0
  0
ARC
  5
B7F
  8
SAPA_PROFIL
 10
8.0693636410692733
 20
24.510000000000041
 30
0.0
 40
0.990000000000009
 50
0.0
 51
90.0
  0
LINE
  5
B80
  8
SAPA_PROFIL
 10
9.0593636410692824
 20
23.990000000000052
 30
0.0
 11
9.0593636410692824
 21
24.510000000000041
 31
0.0
  0
ARC
  5
B81
  8
SAPA_PROFIL
 10
8.0693636410692733
 20
23.990000000000052
 30
0.0
 40
0.990000000000009
 50
270.0
 51
0.0
  0
LINE
  5
B82
  8
SAPA_PROFIL
 10
8.0593636410692824
 20
23.000000000000039
 30
0.0
 11
8.0693636410692733
 21
23.000000000000039
 31
0.0
  0
LINE
  5
B83
  8
SAPA_PROFIL
 10
8.0593636410692824
 20
24.250000000000039
 30
0.0
 11
8.0593636410692824
 21
23.000000000000039
 31
0.0
  0
LINE
  5
B84
  8
SAPA_PROFIL
 10
6.5593636410692824
 20
24.250000000000039
 30
0.0
 11
8.0593636410692824
 21
24.250000000000039
 31
0.0
  0
ARC
  5
B85
  8
SAPA_PROFIL
 10
6.5593636410693392
 20
23.749999999999989
 30
0.0
 40
0.500000000000057
 50
90.000000000006494
 51
180.00000000000651
  0
LINE
  5
B86
  8
SAPA_PROFIL
 10
6.0593636410692824
 20
15.749999999999931
 30
0.0
 11
6.0593636410692824
 21
23.749999999999929
 31
0.0
  0
ARC
  5
B87
  8
SAPA_PROFIL
 10
6.5593636410692211
 20
15.74999999999998
 30
0.0
 40
0.4999999999999396
 50
180.00000000000611
 51
270.00000000000608
  0
LINE
  5
B88
  8
SAPA_PROFIL
 10
8.0593636410692753
 20
15.250000000000041
 30
0.0
 11
6.5593636410692753
 21
15.250000000000041
 31
0.0
  0
LINE
  5
B89
  8
SAPA_PROFIL
 10
8.0593636410692824
 20
16.500000000000039
 30
0.0
 11
8.0593636410692753
 21
15.250000000000041
 31
0.0
  0
LINE
  5
B8A
  8
SAPA_PROFIL
 10
8.0693636410692733
 20
16.500000000000039
 30
0.0
 11
8.0593636410692824
 21
16.500000000000039
 31
0.0
  0
ARC
  5
B8B
  8
SAPA_PROFIL
 10
8.0693636410692733
 20
15.51000000000003
 30
0.0
 40
0.990000000000009
 50
0.0
 51
90.0
  0
LINE
  5
B8C
  8
SAPA_PROFIL
 10
9.0593636410692753
 20
14.29999999999999
 30
0.0
 11
9.0593636410692824
 21
15.51000000000003
 31
0.0
  0
ARC
  5
B8D
  8
SAPA_PROFIL
 10
8.7593636410692923
 20
14.30000000000002
 30
0.0
 40
0.2999999999999829
 50
269.9999999999946
 51
359.99999999999449
  0
ARC
  5
B8E
  8
SAPA_PROFIL
 10
6.8593636410692929
 20
30.800000000000001
 30
0.0
 40
0.5
 50
180.0
 51
270.0
  0
LINE
  5
B8F
  8
SAPA_PROFIL
 10
6.3593636410692511
 20
105.2
 30
0.0
 11
6.3593636410692929
 21
30.800000000000001
 31
0.0
  0
LINE
  5
B90
  8
SAPA_PROFIL
 10
27.464363641069269
 20
105.1999999999999
 30
0.0
 11
6.3593636410692511
 21
105.2
 31
0.0
  0
ARC
  5
B91
  8
SAPA_PROFIL
 10
27.464363641069269
 20
105.69499999999989
 30
0.0
 40
0.4950000000000046
 50
270.0
 51
0.0
  0
LINE
  5
B92
  8
SAPA_PROFIL
 10
27.95936364106927
 20
105.7049999999999
 30
0.0
 11
27.95936364106927
 21
105.69499999999989
 31
0.0
  0
ARC
  5
B93
  8
SAPA_PROFIL
 10
27.464363641069269
 20
105.7049999999999
 30
0.0
 40
0.4950000000000046
 50
0.0
 51
90.0
  0
LINE
  5
B94
  8
SAPA_PROFIL
 10
27.304363641069191
 20
106.1999999999999
 30
0.0
 11
27.464363641069269
 21
106.1999999999999
 31
0.0
  0
ARC
  5
B95
  8
SAPA_PROFIL
 10
27.304363641069259
 20
106.69499999999989
 30
0.0
 40
0.4949999999999584
 50
179.999999999995
 51
269.99999999999221
  0
LINE
  5
B96
  8
SAPA_PROFIL
 10
26.8093636410693
 20
107.5
 30
0.0
 11
26.8093636410693
 21
106.69499999999989
 31
0.0
  0
ARC
  5
B97
  8
SAPA_PROFIL
 10
29.559363641070139
 20
107.50000000000099
 30
0.0
 40
2.7500000000008442
 50
97.824756939157169
 51
180.00000000002069
  0
LINE
  5
B98
  8
SAPA_PROFIL
 10
29.5593636410693
 20
109.8499999999996
 30
0.0
 11
29.184968597832778
 21
110.2243950432361
 31
0.0
  0
LINE
  5
B99
  8
SAPA_PROFIL
 10
29.933758684305591
 20
110.2243950432343
 30
0.0
 11
29.5593636410693
 21
109.8499999999996
 31
0.0
  0
ARC
  5
B9A
  8
SAPA_PROFIL
 10
29.559363641069321
 20
107.4999999999999
 30
0.0
 40
2.7499999999999778
 50
359.99999999999972
 51
82.175243060863366
  0
LINE
  5
B9B
  8
SAPA_PROFIL
 10
32.309363641069297
 20
106.69499999999979
 30
0.0
 11
32.309363641069297
 21
107.4999999999999
 31
0.0
  0
ARC
  5
B9C
  8
SAPA_PROFIL
 10
31.814363641069338
 20
106.69499999999989
 30
0.0
 40
0.494999999999962
 50
269.9999999999946
 51
359.9999999999917
  0
LINE
  5
B9D
  8
SAPA_PROFIL
 10
31.654363641069331
 20
106.1999999999999
 30
0.0
 11
31.814363641069288
 21
106.1999999999999
 31
0.0
  0
ARC
  5
B9E
  8
SAPA_PROFIL
 10
31.654363641069331
 20
105.7049999999999
 30
0.0
 40
0.4950000000000046
 50
90.0
 51
180.0
  0
LINE
  5
B9F
  8
SAPA_PROFIL
 10
31.159363641069319
 20
105.69499999999989
 30
0.0
 11
31.159363641069319
 21
105.7049999999999
 31
0.0
  0
ARC
  5
BA0
  8
SAPA_PROFIL
 10
31.654363641069331
 20
105.69499999999989
 30
0.0
 40
0.4950000000000046
 50
180.0
 51
270.0
  0
LINE
  5
BA1
  8
SAPA_PROFIL
 10
52.759363641069228
 20
105.1999999999999
 30
0.0
 11
31.654363641069331
 21
105.1999999999999
 31
0.0
  0
LINE
  5
BA2
  8
SAPA_PROFIL
 10
52.759363641069221
 20
38.299999999999983
 30
0.0
 11
52.759363641069228
 21
105.1999999999999
 31
0.0
  0
ARC
  5
BA3
  8
SAPA_PROFIL
 10
52.259363641069207
 20
38.299999999999983
 30
0.0
 40
0.5
 50
270.0
 51
0.0
  0
LINE
  5
BA4
  8
SAPA_PROFIL
 10
46.859363641069351
 20
37.799999999999983
 30
0.0
 11
52.259363641069207
 21
37.799999999999983
 31
0.0
  0
ARC
  5
BA5
  8
SAPA_PROFIL
 10
46.859363641069351
 20
36.799999999999983
 30
0.0
 40
1.0
 50
90.0
 51
180.0
  0
LINE
  5
BA6
  8
SAPA_PROFIL
 10
45.85936364106923
 20
30.799999999999979
 30
0.0
 11
45.859363641069351
 21
36.799999999999983
 31
0.0
  0
ARC
  5
BA7
  8
SAPA_PROFIL
 10
45.35936364106923
 20
30.799999999999979
 30
0.0
 40
0.5
 50
270.0
 51
0.0
  0
LINE
  5
BA8
  8
SAPA_PROFIL
 10
42.57897888333995
 20
30.299999999999979
 30
0.0
 11
45.35936364106923
 21
30.299999999999979
 31
0.0
  0
LINE
  5
BA9
  8
SAPA_PROFIL
 10
42.059363641069282
 20
30.000000000000028
 30
0.0
 11
42.57897888333995
 21
30.299999999999979
 31
0.0
  0
LINE
  5
BAA
  8
SAPA_PROFIL
 10
41.539748398798601
 20
30.299999999999979
 30
0.0
 11
42.059363641069282
 21
30.000000000000028
 31
0.0
  0
LINE
  5
BAB
  8
SAPA_PROFIL
 10
38.059363641069282
 20
30.299999999999979
 30
0.0
 11
41.539748398798601
 21
30.299999999999979
 31
0.0
  0
LINE
  5
BAC
  8
SAPA_PROFIL
 10
38.059363641069282
 20
30.30999999999975
 30
0.0
 11
38.059363641069282
 21
30.299999999999979
 31
0.0
  0
LINE
  5
BAD
  8
SAPA_PROFIL
 10
37.369363641069341
 20
30.999999999999801
 30
0.0
 11
38.059363641069282
 21
30.30999999999975
 31
0.0
  0
LINE
  5
BAE
  8
SAPA_PROFIL
 10
30.078978883339961
 20
30.999999999999801
 30
0.0
 11
37.369363641069341
 21
30.999999999999801
 31
0.0
  0
LINE
  5
BAF
  8
SAPA_PROFIL
 10
29.559363641069279
 20
30.69999999999985
 30
0.0
 11
30.078978883339961
 21
30.999999999999801
 31
0.0
  0
LINE
  5
BB0
  8
SAPA_PROFIL
 10
29.039748398798611
 20
30.999999999999801
 30
0.0
 11
29.559363641069279
 21
30.69999999999985
 31
0.0
  0
LINE
  5
BB1
  8
SAPA_PROFIL
 10
21.74936364106928
 20
30.999999999999918
 30
0.0
 11
29.039748398798611
 21
30.999999999999801
 31
0.0
  0
LINE
  5
BB2
  8
SAPA_PROFIL
 10
21.059363641069279
 20
30.30999999999997
 30
0.0
 11
21.74936364106928
 21
30.999999999999918
 31
0.0
  0
LINE
  5
BB3
  8
SAPA_PROFIL
 10
21.059363641069279
 20
30.299999999999979
 30
0.0
 11
21.059363641069279
 21
30.30999999999997
 31
0.0
  0
LINE
  5
BB4
  8
SAPA_PROFIL
 10
16.07897888333984
 20
30.300000000000001
 30
0.0
 11
21.059363641069279
 21
30.299999999999979
 31
0.0
  0
LINE
  5
BB5
  8
SAPA_PROFIL
 10
15.55936364106922
 20
30.000000000000039
 30
0.0
 11
16.07897888333984
 21
30.300000000000001
 31
0.0
  0
LINE
  5
BB6
  8
SAPA_PROFIL
 10
15.03974839879861
 20
30.300000000000001
 30
0.0
 11
15.55936364106922
 21
30.000000000000039
 31
0.0
  0
LINE
  5
BB7
  8
SAPA_PROFIL
 10
6.8593636410692929
 20
30.300000000000001
 30
0.0
 11
15.03974839879861
 21
30.300000000000001
 31
0.0
  0
POLYLINE
  5
BB8
  8
SAPA_PROFIL
 66
     1
 10
0.0
 20
0.0
 30
0.0
  0
VERTEX
  5
145C
  8
SAPA_PROFIL
 10
38.237808460435851
 20
114.87873692155171
 30
0.0
  0
VERTEX
  5
145D
  8
SAPA_PROFIL
 10
37.556768526577542
 20
132.0000000000021
 30
0.0
 42
-0.4142135623730951
  0
VERTEX
  5
145E
  8
SAPA_PROFIL
 10
38.056768526577542
 20
132.5000000000021
 30
0.0
  0
VERTEX
  5
145F
  8
SAPA_PROFIL
 10
49.85638200958627
 20
132.50000000000199
 30
0.0
 42
-0.4076767287637263
  0
VERTEX
  5
1460
  8
SAPA_PROFIL
 10
52.855631841975821
 20
129.5671036491851
 30
0.0
  0
VERTEX
  5
1461
  8
SAPA_PROFIL
 10
53.01007106408661
 20
114.87873692155171
 30
0.0
 42
-0.4182129759575463
  0
VERTEX
  5
1462
  8
SAPA_PROFIL
 10
52.51455934322945
 20
114.3675758094962
 30
0.0
  0
VERTEX
  5
1463
  8
SAPA_PROFIL
 10
50.039911587110083
 20
114.3547482079705
 30
0.0
  0
VERTEX
  5
1464
  8
SAPA_PROFIL
 10
48.41385363091652
 20
112.7000596103467
 30
0.0
  0
VERTEX
  5
1465
  8
SAPA_PROFIL
 10
48.41385363091652
 20
108.15098357605849
 30
0.0
 42
0.4293387945586749
  0
VERTEX
  5
1466
  8
SAPA_PROFIL
 10
48.731964766905861
 20
107.854257054974
 30
0.0
  0
VERTEX
  5
1467
  8
SAPA_PROFIL
 10
49.813420492176341
 20
107.92689673110171
 30
0.0
 42
0.4883397947196161
  0
VERTEX
  5
1468
  8
SAPA_PROFIL
 10
49.592797557978123
 20
109.4886185571101
 30
0.0
  0
VERTEX
  5
1469
  8
SAPA_PROFIL
 10
49.592797557978123
 20
112.18769983314451
 30
0.0
  0
VERTEX
  5
146A
  8
SAPA_PROFIL
 10
50.54742077817599
 20
113.1591314795206
 30
0.0
  0
VERTEX
  5
146B
  8
SAPA_PROFIL
 10
53.046546921061058
 20
113.1591314795206
 30
0.0
  0
VERTEX
  5
146C
  8
SAPA_PROFIL
 10
53.046546921061058
 20
112.6853558130057
 30
0.0
  0
VERTEX
  5
146D
  8
SAPA_PROFIL
 10
54.559363641069289
 20
112.6853558130057
 30
0.0
  0
VERTEX
  5
146E
  8
SAPA_PROFIL
 10
54.55936364106941
 20
133.7026407066941
 30
0.0
 42
0.4116378201539302
  0
VERTEX
  5
146F
  8
SAPA_PROFIL
 10
54.259375163399064
 20
134.00000000000199
 30
0.0
  0
VERTEX
  5
1470
  8
SAPA_PROFIL
 10
25.85676852657755
 20
134.0000000000021
 30
0.0
 42
0.414213562373095
  0
VERTEX
  5
1471
  8
SAPA_PROFIL
 10
25.556768526577489
 20
133.70000000000209
 30
0.0
  0
VERTEX
  5
1472
  8
SAPA_PROFIL
 10
25.556768526577539
 20
132.49000000000211
 30
0.0
 42
0.4142135623731037
  0
VERTEX
  5
1473
  8
SAPA_PROFIL
 10
26.546768526577491
 20
131.5000000000021
 30
0.0
  0
VERTEX
  5
1474
  8
SAPA_PROFIL
 10
26.556768526577539
 20
131.5000000000021
 30
0.0
  0
VERTEX
  5
1475
  8
SAPA_PROFIL
 10
26.556768526577539
 20
132.7500000000021
 30
0.0
  0
VERTEX
  5
1476
  8
SAPA_PROFIL
 10
28.056768526577539
 20
132.7500000000021
 30
0.0
 42
-0.4142135623730951
  0
VERTEX
  5
1477
  8
SAPA_PROFIL
 10
28.556768526577539
 20
132.2500000000021
 30
0.0
  0
VERTEX
  5
1478
  8
SAPA_PROFIL
 10
28.556768526577539
 20
124.2500000000021
 30
0.0
 42
-0.4142135623730951
  0
VERTEX
  5
1479
  8
SAPA_PROFIL
 10
28.056768526577539
 20
123.7500000000021
 30
0.0
  0
VERTEX
  5
147A
  8
SAPA_PROFIL
 10
26.556768526577539
 20
123.7500000000021
 30
0.0
  0
VERTEX
  5
147B
  8
SAPA_PROFIL
 10
26.556768526577539
 20
125.0000000000021
 30
0.0
  0
VERTEX
  5
147C
  8
SAPA_PROFIL
 10
26.546768526577491
 20
125.0000000000021
 30
0.0
 42
0.414213562373095
  0
VERTEX
  5
147D
  8
SAPA_PROFIL
 10
25.556768526577489
 20
124.01000000000209
 30
0.0
  0
VERTEX
  5
147E
  8
SAPA_PROFIL
 10
25.556768526577539
 20
123.5000000000021
 30
0.0
 42
0.4142135623730953
  0
VERTEX
  5
147F
  8
SAPA_PROFIL
 10
26.556768526577539
 20
122.5000000000021
 30
0.0
  0
VERTEX
  5
1480
  8
SAPA_PROFIL
 10
28.056768526577539
 20
122.5000000000021
 30
0.0
 42
0.4142135623730951
  0
VERTEX
  5
1481
  8
SAPA_PROFIL
 10
29.756768526577531
 20
124.20000000000211
 30
0.0
  0
VERTEX
  5
1482
  8
SAPA_PROFIL
 10
29.756768526577591
 20
132.0000000000021
 30
0.0
 42
-0.414213562373095
  0
VERTEX
  5
1483
  8
SAPA_PROFIL
 10
30.256768526577591
 20
132.5000000000021
 30
0.0
  0
VERTEX
  5
1484
  8
SAPA_PROFIL
 10
35.756768526577588
 20
132.5000000000021
 30
0.0
 42
-0.4142135623730951
  0
VERTEX
  5
1485
  8
SAPA_PROFIL
 10
36.256768526577588
 20
132.0000000000021
 30
0.0
  0
VERTEX
  5
1486
  8
SAPA_PROFIL
 10
36.927978173043897
 20
114.87873692155171
 30
0.0
  0
VERTEX
  5
1487
  8
SAPA_PROFIL
 10
37.584916623773239
 20
109.475790157802
 30
0.0
 42
-0.4666505291506209
  0
VERTEX
  5
1488
  8
SAPA_PROFIL
 10
37.323085092728689
 20
109.19598859188331
 30
0.0
  0
VERTEX
  5
1489
  8
SAPA_PROFIL
 10
36.600428999169743
 20
109.2355314858016
 30
0.0
 42
0.7332303362618522
  0
VERTEX
  5
148A
  8
SAPA_PROFIL
 10
36.400254410599558
 20
108.69945546314931
 30
0.0
  0
VERTEX
  5
148B
  8
SAPA_PROFIL
 10
38.510361750137271
 20
107.92854534564491
 30
0.0
 42
0.668178637919333
  0
VERTEX
  5
148C
  8
SAPA_PROFIL
 10
38.992709602228068
 20
108.2017115408392
 30
0.0
  0
VERTEX
  5
148D
  8
SAPA_PROFIL
 10
38.237808460435851
 20
114.87873692155171
 30
0.0
  0
VERTEX
  5
148E
  8
SAPA_PROFIL
 10
38.247341912598962
 20
114.87873692155171
 30
0.0
  0
SEQEND
  5
148F
  8
SAPA_PROFIL
  0
POLYLINE
  5
BB9
  8
SAPA_PROFIL
 66
     1
 10
0.0
 20
0.0
 30
0.0
  0
VERTEX
  5
1490
  8
SAPA_PROFIL
 10
45.059363641069027
 20
2.1896465556949352
 30
0.0
  0
VERTEX
  5
1491
  8
SAPA_PROFIL
 10
45.059363641069247
 20
6.0766758367896037
 30
0.0
 42
0.0247814694318611
  0
VERTEX
  5
1492
  8
SAPA_PROFIL
 10
45.291775254976081
 20
6.2369821034733368
 30
0.0
  0
VERTEX
  5
1493
  8
SAPA_PROFIL
 10
45.291775254976081
 20
6.7675883860930517
 30
0.0
  0
VERTEX
  5
1494
  8
SAPA_PROFIL
 10
45.822381537595909
 20
6.767588386092938
 30
0.0
 42
0.5765964874796186
  0
VERTEX
  5
1495
  8
SAPA_PROFIL
 10
43.93455894165119
 20
11.325195300582321
 30
0.0
  0
VERTEX
  5
1496
  8
SAPA_PROFIL
 10
43.559363641069247
 20
10.950000000000269
 30
0.0
  0
VERTEX
  5
1497
  8
SAPA_PROFIL
 10
43.184168340487318
 20
11.32519530058039
 30
0.0
 42
0.5765964874796611
  0
VERTEX
  5
1498
  8
SAPA_PROFIL
 10
41.296345744542812
 20
6.767588386092938
 30
0.0
  0
VERTEX
  5
1499
  8
SAPA_PROFIL
 10
41.826952027161958
 20
6.767588386092938
 30
0.0
  0
VERTEX
  5
149A
  8
SAPA_PROFIL
 10
41.826952027161958
 20
6.2369821034733368
 30
0.0
 42
0.0324535495921297
  0
VERTEX
  5
149B
  8
SAPA_PROFIL
 10
42.134363641069299
 20
6.0318275992146928
 30
0.0
  0
VERTEX
  5
149C
  8
SAPA_PROFIL
 10
41.827312833500407
 20
5.5
 30
0.0
  0
VERTEX
  5
149D
  8
SAPA_PROFIL
 10
17.79141444863809
 20
5.5000000000001128
 30
0.0
  0
VERTEX
  5
149E
  8
SAPA_PROFIL
 10
17.484363641069208
 20
6.0318275992146928
 30
0.0
 42
0.0324535495921268
  0
VERTEX
  5
149F
  8
SAPA_PROFIL
 10
17.791775254976312
 20
6.2369821034733368
 30
0.0
  0
VERTEX
  5
14A0
  8
SAPA_PROFIL
 10
17.791775254976312
 20
6.767588386092938
 30
0.0
  0
VERTEX
  5
14A1
  8
SAPA_PROFIL
 10
18.322381537595909
 20
6.7675883860928252
 30
0.0
 42
0.5765964874796583
  0
VERTEX
  5
14A2
  8
SAPA_PROFIL
 10
16.434558941651421
 20
11.325195300582321
 30
0.0
  0
VERTEX
  5
14A3
  8
SAPA_PROFIL
 10
16.05936364106925
 20
10.950000000000269
 30
0.0
  0
VERTEX
  5
14A4
  8
SAPA_PROFIL
 10
15.68416834048754
 20
11.32519530058039
 30
0.0
 42
0.5765964874796222
  0
VERTEX
  5
14A5
  8
SAPA_PROFIL
 10
13.79634574454259
 20
6.7675883860930517
 30
0.0
  0
VERTEX
  5
14A6
  8
SAPA_PROFIL
 10
14.32695202716242
 20
6.7675883860930517
 30
0.0
  0
VERTEX
  5
14A7
  8
SAPA_PROFIL
 10
14.326952027162189
 20
6.2369821034733368
 30
0.0
 42
0.0247814694318589
  0
VERTEX
  5
14A8
  8
SAPA_PROFIL
 10
14.55936364106925
 20
6.0766758367899447
 30
0.0
  0
VERTEX
  5
14A9
  8
SAPA_PROFIL
 10
14.55936364106925
 20
5.5000000000001128
 30
0.0
  0
VERTEX
  5
14AA
  8
SAPA_PROFIL
 10
14.359363641069431
 20
5.5000000000001128
 30
0.0
 42
0.4142135623731023
  0
VERTEX
  5
14AB
  8
SAPA_PROFIL
 10
14.05936364106948
 20
5.2000000000000446
 30
0.0
  0
VERTEX
  5
14AC
  8
SAPA_PROFIL
 10
14.05936364106925
 20
2.1896465556949352
 30
0.0
 42
1.0
  0
VERTEX
  5
14AD
  8
SAPA_PROFIL
 10
15.55936364106925
 20
2.1896465556949352
 30
0.0
  0
VERTEX
  5
14AE
  8
SAPA_PROFIL
 10
15.55936364106925
 20
2.5
 30
0.0
  0
VERTEX
  5
14AF
  8
SAPA_PROFIL
 10
16.55936364106925
 20
2.5
 30
0.0
 42
-0.4142135623730951
  0
VERTEX
  5
14B0
  8
SAPA_PROFIL
 10
17.05936364106925
 20
2.0
 30
0.0
  0
VERTEX
  5
14B1
  8
SAPA_PROFIL
 10
17.05936364106925
 20
1.7999999999999541
 30
0.0
  0
VERTEX
  5
14B2
  8
SAPA_PROFIL
 10
17.05936364106925
 20
0.5
 30
0.0
 42
-0.4142135623730931
  0
VERTEX
  5
14B3
  8
SAPA_PROFIL
 10
16.55936364106925
 20
0.0
 30
0.0
  0
VERTEX
  5
14B4
  8
SAPA_PROFIL
 10
12.05936364106925
 20
0.0
 30
0.0
 42
-0.4142135623730951
  0
VERTEX
  5
14B5
  8
SAPA_PROFIL
 10
11.55936364106925
 20
0.5
 30
0.0
  0
VERTEX
  5
14B6
  8
SAPA_PROFIL
 10
11.55936364106925
 20
19.0
 30
0.0
 42
-0.4142135623730951
  0
VERTEX
  5
14B7
  8
SAPA_PROFIL
 10
12.55936364106925
 20
20.0
 30
0.0
  0
VERTEX
  5
14B8
  8
SAPA_PROFIL
 10
21.80936364106925
 20
20.0
 30
0.0
  0
VERTEX
  5
14B9
  8
SAPA_PROFIL
 10
21.80936364106925
 20
19.5
 30
0.0
  0
VERTEX
  5
14BA
  8
SAPA_PROFIL
 10
24.30936364106925
 20
19.5
 30
0.0
  0
VERTEX
  5
14BB
  8
SAPA_PROFIL
 10
24.30936364106925
 20
20.0
 30
0.0
  0
VERTEX
  5
14BC
  8
SAPA_PROFIL
 10
26.80936364106925
 20
20.0
 30
0.0
  0
VERTEX
  5
14BD
  8
SAPA_PROFIL
 10
26.80936364106925
 20
19.5
 30
0.0
  0
VERTEX
  5
14BE
  8
SAPA_PROFIL
 10
29.30936364106925
 20
19.5
 30
0.0
  0
VERTEX
  5
14BF
  8
SAPA_PROFIL
 10
29.30936364106925
 20
20.0
 30
0.0
  0
VERTEX
  5
14C0
  8
SAPA_PROFIL
 10
31.80936364106925
 20
20.0
 30
0.0
  0
VERTEX
  5
14C1
  8
SAPA_PROFIL
 10
31.80936364106925
 20
19.5
 30
0.0
  0
VERTEX
  5
14C2
  8
SAPA_PROFIL
 10
34.309363641069247
 20
19.5
 30
0.0
  0
VERTEX
  5
14C3
  8
SAPA_PROFIL
 10
34.309363641069247
 20
20.0
 30
0.0
  0
VERTEX
  5
14C4
  8
SAPA_PROFIL
 10
36.809363641069247
 20
20.0
 30
0.0
  0
VERTEX
  5
14C5
  8
SAPA_PROFIL
 10
36.809363641069247
 20
19.5
 30
0.0
  0
VERTEX
  5
14C6
  8
SAPA_PROFIL
 10
39.309363641069247
 20
19.5
 30
0.0
  0
VERTEX
  5
14C7
  8
SAPA_PROFIL
 10
39.309363641069247
 20
20.0
 30
0.0
  0
VERTEX
  5
14C8
  8
SAPA_PROFIL
 10
41.809363641069247
 20
20.0
 30
0.0
  0
VERTEX
  5
14C9
  8
SAPA_PROFIL
 10
41.809363641069247
 20
19.5
 30
0.0
  0
VERTEX
  5
14CA
  8
SAPA_PROFIL
 10
44.309363641069247
 20
19.5
 30
0.0
  0
VERTEX
  5
14CB
  8
SAPA_PROFIL
 10
44.309363641069247
 20
20.0
 30
0.0
  0
VERTEX
  5
14CC
  8
SAPA_PROFIL
 10
52.809363641069247
 20
20.0
 30
0.0
  0
VERTEX
  5
14CD
  8
SAPA_PROFIL
 10
53.559363641069247
 20
20.0
 30
0.0
 42
-0.4142135623730951
  0
VERTEX
  5
14CE
  8
SAPA_PROFIL
 10
54.559363641069247
 20
19.0
 30
0.0
  0
VERTEX
  5
14CF
  8
SAPA_PROFIL
 10
54.559363641069247
 20
0.5
 30
0.0
 42
-0.4142135623730951
  0
VERTEX
  5
14D0
  8
SAPA_PROFIL
 10
54.059363641069247
 20
0.0
 30
0.0
  0
VERTEX
  5
14D1
  8
SAPA_PROFIL
 10
42.559363641069247
 20
0.0
 30
0.0
 42
-0.4142135623730951
  0
VERTEX
  5
14D2
  8
SAPA_PROFIL
 10
42.059363641069247
 20
0.5
 30
0.0
  0
VERTEX
  5
14D3
  8
SAPA_PROFIL
 10
42.059363641069247
 20
1.7999999999999541
 30
0.0
  0
VERTEX
  5
14D4
  8
SAPA_PROFIL
 10
42.059363641069247
 20
2.0
 30
0.0
 42
-0.4142135623730951
  0
VERTEX
  5
14D5
  8
SAPA_PROFIL
 10
42.559363641069247
 20
2.5
 30
0.0
  0
VERTEX
  5
14D6
  8
SAPA_PROFIL
 10
43.559363641069247
 20
2.5
 30
0.0
  0
VERTEX
  5
14D7
  8
SAPA_PROFIL
 10
43.559363641069247
 20
2.1896465556949352
 30
0.0
 42
1.0
  0
VERTEX
  5
14D8
  8
SAPA_PROFIL
 10
45.059363641069247
 20
2.1896465556949352
 30
0.0
  0
VERTEX
  5
14D9
  8
SAPA_PROFIL
 10
45.056954175066281
 20
2.1899300950722131
 30
0.0
  0
SEQEND
  5
14DA
  8
SAPA_PROFIL
  0
POLYLINE
  5
BBA
  8
SAPA_PROFIL
 66
     1
 10
0.0
 20
0.0
 30
0.0
 70
     1
  0
VERTEX
  5
14DB
  8
SAPA_PROFIL
 10
51.509363641069072
 20
1.7999999999999541
 30
0.0
 42
0.4142135623730951
  0
VERTEX
  5
14DC
  8
SAPA_PROFIL
 10
52.509363641069072
 20
2.7999999999999541
 30
0.0
  0
VERTEX
  5
14DD
  8
SAPA_PROFIL
 10
52.509363641069072
 20
16.0
 30
0.0
 42
0.4142135623730951
  0
VERTEX
  5
14DE
  8
SAPA_PROFIL
 10
51.509363641069072
 20
17.0
 30
0.0
  0
VERTEX
  5
14DF
  8
SAPA_PROFIL
 10
14.10936364106921
 20
17.0
 30
0.0
 42
0.4142135623730951
  0
VERTEX
  5
14E0
  8
SAPA_PROFIL
 10
13.10936364106921
 20
16.0
 30
0.0
  0
VERTEX
  5
14E1
  8
SAPA_PROFIL
 10
13.10936364106921
 20
13.999999999999771
 30
0.0
 42
0.4142135623731294
  0
VERTEX
  5
14E2
  8
SAPA_PROFIL
 10
14.10936364106921
 20
12.999999999999771
 30
0.0
  0
VERTEX
  5
14E3
  8
SAPA_PROFIL
 10
15.80936864288903
 20
12.99999999999841
 30
0.0
 42
-0.4142132368178232
  0
VERTEX
  5
14E4
  8
SAPA_PROFIL
 10
20.309363641069261
 20
8.5000000000001137
 30
0.0
 42
0.4142135623731617
  0
VERTEX
  5
14E5
  8
SAPA_PROFIL
 10
20.80936364106925
 20
8.0
 30
0.0
  0
VERTEX
  5
14E6
  8
SAPA_PROFIL
 10
38.309363641069943
 20
8.0
 30
0.0
 42
0.4142135623731618
  0
VERTEX
  5
14E7
  8
SAPA_PROFIL
 10
38.809363641069929
 20
8.5000000000001137
 30
0.0
 42
-1.3023595809261419
  0
VERTEX
  5
14E8
  8
SAPA_PROFIL
 10
47.209363641068663
 20
6.2550055679364496
 30
0.0
 42
0.1313259594334739
  0
VERTEX
  5
14E9
  8
SAPA_PROFIL
 10
46.609363641069208
 20
4.0100111358714221
 30
0.0
  0
VERTEX
  5
14EA
  8
SAPA_PROFIL
 10
46.609363641069208
 20
2.7999999999999541
 30
0.0
 42
0.4142135623730939
  0
VERTEX
  5
14EB
  8
SAPA_PROFIL
 10
47.609363641069201
 20
1.7999999999999541
 30
0.0
  0
SEQEND
  5
14EC
  8
SAPA_PROFIL
  0
POLYLINE
  5
BBB
  8
SAPA_PROFIL
 66
     1
 10
0.0
 20
0.0
 30
0.0
 70
     1
  0
VERTEX
  5
14ED
  8
SAPA_PROFIL
 10
44.596043748232539
 20
24.144580801464599
 30
0.0
  0
VERTEX
  5
14EE
  8
SAPA_PROFIL
 10
47.15936364106949
 20
24.144580801464599
 30
0.0
 42
0.3563939586925539
  0
VERTEX
  5
14EF
  8
SAPA_PROFIL
 10
48.335118717605269
 20
25.104580801464628
 30
0.0
 42
-0.3563939586925675
  0
VERTEX
  5
14F0
  8
SAPA_PROFIL
 10
48.629057486738361
 20
25.344580801464641
 30
0.0
  0
VERTEX
  5
14F1
  8
SAPA_PROFIL
 10
49.309363641069353
 20
25.344580801464641
 30
0.0
 42
1.0
  0
VERTEX
  5
14F2
  8
SAPA_PROFIL
 10
49.309363641069353
 20
26.144580801464599
 30
0.0
  0
VERTEX
  5
14F3
  8
SAPA_PROFIL
 10
48.359363641069308
 20
26.144580801464599
 30
0.0
  0
VERTEX
  5
14F4
  8
SAPA_PROFIL
 10
48.359363641069308
 20
27.344580801464652
 30
0.0
  0
VERTEX
  5
14F5
  8
SAPA_PROFIL
 10
53.759363641069399
 20
27.344580801464652
 30
0.0
  0
VERTEX
  5
14F6
  8
SAPA_PROFIL
 10
53.759363641069399
 20
26.144580801464599
 30
0.0
  0
VERTEX
  5
14F7
  8
SAPA_PROFIL
 10
52.809363641069353
 20
26.144580801464599
 30
0.0
 42
1.0
  0
VERTEX
  5
14F8
  8
SAPA_PROFIL
 10
52.809363641069353
 20
25.344580801464641
 30
0.0
  0
VERTEX
  5
14F9
  8
SAPA_PROFIL
 10
53.459363641069437
 20
25.344580801464641
 30
0.0
 42
-0.3659773818631997
  0
VERTEX
  5
14FA
  8
SAPA_PROFIL
 10
53.755167630226772
 20
25.094580801464868
 30
0.0
 42
0.3659773818632084
  0
VERTEX
  5
14FB
  8
SAPA_PROFIL
 10
54.050971619381578
 20
24.844580801464652
 30
0.0
  0
VERTEX
  5
14FC
  8
SAPA_PROFIL
 10
54.359363641069542
 20
24.844580801464652
 30
0.0
 42
0.4142135623730951
  0
VERTEX
  5
14FD
  8
SAPA_PROFIL
 10
54.559363641069361
 20
25.04458080146469
 30
0.0
  0
VERTEX
  5
14FE
  8
SAPA_PROFIL
 10
54.559363641069361
 20
35.54458080146469
 30
0.0
 42
0.687280958601583
  0
VERTEX
  5
14FF
  8
SAPA_PROFIL
 10
54.036420193426117
 20
35.74531998337239
 30
0.0
  0
VERTEX
  5
1500
  8
SAPA_PROFIL
 10
53.136420193426261
 20
34.745768720026042
 30
0.0
 42
0.1853390449315312
  0
VERTEX
  5
1501
  8
SAPA_PROFIL
 10
53.059363641069353
 20
34.545029538118349
 30
0.0
  0
VERTEX
  5
1502
  8
SAPA_PROFIL
 10
53.059363641069353
 20
28.744580801464739
 30
0.0
 42
-0.4142135623730951
  0
VERTEX
  5
1503
  8
SAPA_PROFIL
 10
52.759363641069392
 20
28.444580801464781
 30
0.0
  0
VERTEX
  5
1504
  8
SAPA_PROFIL
 10
47.859363641069301
 20
28.444580801464781
 30
0.0
 42
0.4142135623730951
  0
VERTEX
  5
1505
  8
SAPA_PROFIL
 10
47.559363641069353
 20
28.144580801464599
 30
0.0
  0
VERTEX
  5
1506
  8
SAPA_PROFIL
 10
47.559363641069353
 20
25.344580801464641
 30
0.0
  0
VERTEX
  5
1507
  8
SAPA_PROFIL
 10
45.059363641069353
 20
25.344580801464641
 30
0.0
  0
VERTEX
  5
1508
  8
SAPA_PROFIL
 10
44.127486246673811
 20
27.53994636570928
 30
0.0
 42
0.3009658391327282
  0
VERTEX
  5
1509
  8
SAPA_PROFIL
 10
43.667233819947683
 20
27.844580801464641
 30
0.0
  0
VERTEX
  5
150A
  8
SAPA_PROFIL
 10
38.250971619377758
 20
27.844580801464641
 30
0.0
 42
-0.2552688977014224
  0
VERTEX
  5
150B
  8
SAPA_PROFIL
 10
37.7551676302229
 20
28.094580801464652
 30
0.0
 42
0.6092409209770703
  0
VERTEX
  5
150C
  8
SAPA_PROFIL
 10
37.247231606713399
 20
28.256712835820739
 30
0.0
  0
VERTEX
  5
150D
  8
SAPA_PROFIL
 10
36.14723160671349
 20
27.156712835820599
 30
0.0
 42
0.6681786379192843
  0
VERTEX
  5
150E
  8
SAPA_PROFIL
 10
36.359363641069308
 20
26.644580801464599
 30
0.0
  0
VERTEX
  5
150F
  8
SAPA_PROFIL
 10
38.709363641069437
 20
26.644580801464599
 30
0.0
  0
VERTEX
  5
1510
  8
SAPA_PROFIL
 10
39.009363641069399
 20
26.944580801464781
 30
0.0
  0
VERTEX
  5
1511
  8
SAPA_PROFIL
 10
39.309363641069361
 20
26.644580801464599
 30
0.0
  0
VERTEX
  5
1512
  8
SAPA_PROFIL
 10
42.872971146512661
 20
26.644580801464599
 30
0.0
 42
-0.3009658391327282
  0
VERTEX
  5
1513
  8
SAPA_PROFIL
 10
43.333223573239017
 20
26.339946365709238
 30
0.0
  0
VERTEX
  5
1514
  8
SAPA_PROFIL
 10
44.135791321506183
 20
24.44921523721996
 30
0.0
 42
0.3009658391327246
  0
SEQEND
  5
1515
  8
SAPA_PROFIL
  0
POLYLINE
  5
BF6
  8
SAPA_GLAS
 66
     1
 10
0.0
 20
0.0
 30
0.0
 70
     1
  0
VERTEX
  5
1543
  8
SAPA_GLAS
 10
21.429173414808741
 20
112.004283202843
 30
0.0
  0
VERTEX
  5
1544
  8
SAPA_GLAS
 10
34.529173414808767
 20
112.0042832028429
 30
0.0
  0
VERTEX
  5
1545
  8
SAPA_GLAS
 10
34.529173414808767
 20
113.0042832028429
 30
0.0
  0
VERTEX
  5
1546
  8
SAPA_GLAS
 10
22.429173414808741
 20
113.004283202843
 30
0.0
  0
VERTEX
  5
1547
  8
SAPA_GLAS
 10
22.429173414808741
 20
125.004283202843
 30
0.0
  0
VERTEX
  5
1548
  8
SAPA_GLAS
 10
21.429173414808741
 20
125.004283202843
 30
0.0
  0
SEQEND
  5
1549
  8
SAPA_GLAS
  0
LINE
  5
BF7
  8
SAPA_GLAS
 62
     1
 10
19.829173414808729
 20
127.5534363556597
 30
0.0
 11
19.829173414808722
 21
116.8042850016612
 31
0.0
  0
LINE
  5
BF8
  8
SAPA_GLAS
 62
     1
 10
13.223756168680589
 20
116.8042850016612
 30
0.0
 11
13.223756168680611
 21
127.49548987036
 31
0.0
  0
POLYLINE
  5
BF9
  8
SAPA_GLAS
 62
     6
 66
     1
 10
0.0
 20
0.0
 30
0.0
 70
     1
  0
VERTEX
  5
154A
  8
SAPA_GLAS
 62
     6
 10
19.829173414808722
 20
113.0000000036477
 30
0.0
  0
VERTEX
  5
154B
  8
SAPA_GLAS
 62
     6
 10
19.829173414808722
 20
125.0000000036477
 30
0.0
  0
VERTEX
  5
154C
  8
SAPA_GLAS
 62
     6
 10
21.429173414808741
 20
125.0000000036477
 30
0.0
  0
VERTEX
  5
154D
  8
SAPA_GLAS
 62
     6
 10
21.429173414808741
 20
113.0000000036477
 30
0.0
  0
SEQEND
  5
154E
  8
SAPA_GLAS
 62
     6
  0
POLYLINE
  5
BFA
  8
SAPA_GLAS
 62
     6
 66
     1
 10
0.0
 20
0.0
 30
0.0
 70
     1
  0
VERTEX
  5
154F
  8
SAPA_GLAS
 62
     6
 10
11.64441289992673
 20
113.0000000036477
 30
0.0
  0
VERTEX
  5
1550
  8
SAPA_GLAS
 62
     6
 10
11.64441289992673
 20
125.0000000036477
 30
0.0
  0
VERTEX
  5
1551
  8
SAPA_GLAS
 62
     6
 10
13.244412899926759
 20
125.0000000036477
 30
0.0
  0
VERTEX
  5
1552
  8
SAPA_GLAS
 62
     6
 10
13.244412899926759
 20
113.0000000036477
 30
0.0
  0
SEQEND
  5
1553
  8
SAPA_GLAS
 62
     6
  0
POLYLINE
  5
BFB
  8
SAPA_GLAS
 66
     1
 10
0.0
 20
0.0
 30
0.0
 70
     1
  0
VERTEX
  5
1554
  8
SAPA_GLAS
 10
11.64441289992673
 20
113.0000000036477
 30
0.0
  0
VERTEX
  5
1555
  8
SAPA_GLAS
 10
35.044167787288352
 20
113.0000000036477
 30
0.0
  0
VERTEX
  5
1556
  8
SAPA_GLAS
 10
35.044167787288352
 20
112.0000000036477
 30
0.0
  0
VERTEX
  5
1557
  8
SAPA_GLAS
 10
10.64441289992673
 20
112.0000000036477
 30
0.0
  0
VERTEX
  5
1558
  8
SAPA_GLAS
 10
10.64441289992673
 20
125.0000000036477
 30
0.0
  0
VERTEX
  5
1559
  8
SAPA_GLAS
 10
11.64441289992673
 20
125.0000000036475
 30
0.0
  0
SEQEND
  5
155A
  8
SAPA_GLAS
  0
LINE
  5
BFC
  8
SAPA_GLAS
 62
     1
 10
19.709173414808831
 20
117.0042850016612
 30
0.0
 11
13.223756168680589
 21
117.0042850016612
 31
0.0
  0
POLYLINE
  5
BFD
  8
SAPA_GLAS
 66
     1
 10
0.0
 20
0.0
 30
0.0
  0
VERTEX
  5
155B
  8
SAPA_GLAS
 10
19.526643575988999
 20
149.71654090754029
 30
0.0
  0
VERTEX
  5
155C
  8
SAPA_GLAS
 10
19.526643575988981
 20
117.2102598036474
 30
0.0
  0
VERTEX
  5
155D
  8
SAPA_GLAS
 10
13.526643575988979
 20
117.2102598036474
 30
0.0
  0
VERTEX
  5
155E
  8
SAPA_GLAS
 10
13.526643575989
 20
149.71654090754021
 30
0.0
  0
SEQEND
  5
155F
  8
SAPA_GLAS
  0
LINE
  5
BFE
  8
SAPA_GLAS
  6
BYGG-022629$0$DASHDOT
 62
     2
 10
29.53128606168751
 20
106.6968931880119
 30
0.0
 11
29.53128606168751
 21
118.0816549660277
 31
0.0
  0
POLYLINE
  5
C14
  8
SAPA_FOGBAND
 66
     1
 10
0.0
 20
0.0
 30
0.0
 70
     1
  0
VERTEX
  5
1584
  8
SAPA_FOGBAND
 10
53.357252293224967
 20
26.516337048667879
 30
0.0
  0
VERTEX
  5
1585
  8
SAPA_FOGBAND
 10
48.761474988913733
 20
26.516337048667879
 30
0.0
  0
VERTEX
  5
1586
  8
SAPA_FOGBAND
 10
48.761474988913733
 20
26.72320013218393
 30
0.0
  0
VERTEX
  5
1587
  8
SAPA_FOGBAND
 10
53.357252293224967
 20
26.72320013218393
 30
0.0
  0
SEQEND
  5
1588
  8
SAPA_FOGBAND
  0
LINE
  5
C15
  8
SAPA_FOGBAND
 10
50.554778392300932
 20
26.41633704866797
 30
0.0
 11
49.526354305627251
 21
20.77762025374761
 31
0.0
  0
LINE
  5
C16
  8
SAPA_FOGBAND
 10
50.845269788911871
 20
26.41633704866797
 30
0.0
 11
50.39765708821642
 21
20.77762025374761
 31
0.0
  0
LINE
  5
C17
  8
SAPA_FOGBAND
 10
51.060059970963948
 20
26.41633704866797
 30
0.0
 11
51.06059976646452
 21
20.77762025374761
 31
0.0
  0
LINE
  5
C18
  8
SAPA_FOGBAND
 10
51.303728665645622
 20
26.41633704866797
 30
0.0
 11
51.921056737798601
 21
20.77762025374761
 31
0.0
  0
LINE
  5
C19
  8
SAPA_FOGBAND
 10
51.476485956626107
 20
26.41633704866797
 30
0.0
 11
52.629694812230802
 21
20.77762025374761
 31
0.0
  0
LINE
  5
C1A
  8
SAPA_FOGBAND
 10
51.476485956626107
 20
26.416337048667959
 30
0.0
 11
52.629694812230802
 21
20.7776202537476
 31
0.0
  0
LINE
  5
C1B
  8
SAPA_FOGBAND
 10
51.303728665645622
 20
26.416337048667959
 30
0.0
 11
51.921056737798601
 21
20.7776202537476
 31
0.0
  0
LINE
  5
C1C
  8
SAPA_FOGBAND
 10
51.060059970963948
 20
26.416337048667959
 30
0.0
 11
51.06059976646452
 21
20.7776202537476
 31
0.0
  0
LINE
  5
C1D
  8
SAPA_FOGBAND
 10
50.845269788911871
 20
26.416337048667959
 30
0.0
 11
50.39765708821642
 21
20.7776202537476
 31
0.0
  0
LINE
  5
C1E
  8
SAPA_FOGBAND
 10
50.554778392300932
 20
26.416337048667959
 30
0.0
 11
49.526354305627251
 21
20.7776202537476
 31
0.0
  0
POLYLINE
  5
C1F
  8
SAPA_FOGBAND
 66
     1
 10
0.0
 20
0.0
 30
0.0
 70
     1
  0
VERTEX
  5
1589
  8
SAPA_FOGBAND
 10
53.357252293224967
 20
26.516337048667872
 30
0.0
  0
VERTEX
  5
158A
  8
SAPA_FOGBAND
 10
48.761474988913733
 20
26.516337048667872
 30
0.0
  0
VERTEX
  5
158B
  8
SAPA_FOGBAND
 10
48.761474988913733
 20
26.723200132183919
 30
0.0
  0
VERTEX
  5
158C
  8
SAPA_FOGBAND
 10
53.357252293224967
 20
26.723200132183919
 30
0.0
  0
SEQEND
  5
158D
  8
SAPA_FOGBAND
  0
INSERT
  5
C20
  8
SAPA_FOGBAND
  2
BYGG-022629$0$18058
 10
22.41527009196977
 20
129.60290612092231
 30
0.0
 41
-1.0
 50
180.0
  0
INSERT
  5
C21
  8
SAPA_FOGBAND
  2
BYGG-022629$0$18049
 10
9.1287567614844107
 20
127.95331842803409
 30
0.0
 41
-1.0
 50
180.0
  0
POLYLINE
  5
C22
  8
SAPA_FOGBAND
 66
     1
 10
0.0
 20
0.0
 30
0.0
 70
     1
  0
VERTEX
  5
158E
  8
SAPA_FOGBAND
 10
7.008237881923761
 20
18.363494381371691
 30
0.0
 42
0.9999999999999998
  0
VERTEX
  5
158F
  8
SAPA_FOGBAND
 10
8.3712337754434856
 20
18.363494381371691
 30
0.0
  0
VERTEX
  5
1590
  8
SAPA_FOGBAND
 10
8.3712337754434856
 20
20.999534537854441
 30
0.0
 42
0.9944227986505279
  0
VERTEX
  5
1591
  8
SAPA_FOGBAND
 10
7.008237881923761
 20
21.007157557393199
 30
0.0
  0
SEQEND
  5
1592
  8
SAPA_FOGBAND
  0
POLYLINE
  5
C23
  8
SAPA_FOGBAND
 66
     1
 10
0.0
 20
0.0
 30
0.0
 70
     1
  0
VERTEX
  5
1593
  8
SAPA_FOGBAND
 10
10.9772767090037
 20
16.51471303237626
 30
0.0
 42
-0.9999999999999998
  0
VERTEX
  5
1594
  8
SAPA_FOGBAND
 10
9.5129489861069914
 20
16.51471303237626
 30
0.0
  0
VERTEX
  5
1595
  8
SAPA_FOGBAND
 10
9.5129489861069345
 20
23.05432619673779
 30
0.0
 42
-1.000000000000012
  0
VERTEX
  5
1596
  8
SAPA_FOGBAND
 10
10.97727670900364
 20
23.05432619673779
 30
0.0
  0
VERTEX
  5
1597
  8
SAPA_FOGBAND
 10
10.9772767090037
 20
19.784519614557031
 30
0.0
  0
SEQEND
  5
1598
  8
SAPA_FOGBAND
  0
POLYLINE
  5
C24
  8
SAPA_FOGBAND
 66
     1
 10
0.0
 20
0.0
 30
0.0
 70
     1
  0
VERTEX
  5
1599
  8
SAPA_FOGBAND
 10
7.6786067174740964
 20
23.833471835275908
 30
0.0
  0
VERTEX
  5
159A
  8
SAPA_FOGBAND
 10
6.2858731483324126
 20
23.05432619673768
 30
0.0
  0
VERTEX
  5
159B
  8
SAPA_FOGBAND
 10
6.2858731483324704
 20
19.784519614557031
 30
0.0
  0
VERTEX
  5
159C
  8
SAPA_FOGBAND
 10
6.2858731483324704
 20
16.51471303237626
 30
0.0
  0
VERTEX
  5
159D
  8
SAPA_FOGBAND
 10
7.6786067174740964
 20
15.73556739383814
 30
0.0
 42
0.5728458134769883
  0
VERTEX
  5
159E
  8
SAPA_FOGBAND
 10
7.8274295957227054
 20
15.82283896171411
 30
0.0
  0
VERTEX
  5
159F
  8
SAPA_FOGBAND
 10
7.8274295957227054
 20
16.51471303237626
 30
0.0
 42
-0.9999999999999998
  0
VERTEX
  5
15A0
  8
SAPA_FOGBAND
 10
9.1129489861069572
 20
16.51471303237626
 30
0.0
 42
0.9999999999999998
  0
VERTEX
  5
15A1
  8
SAPA_FOGBAND
 10
11.377276709003739
 20
16.51471303237626
 30
0.0
  0
VERTEX
  5
15A2
  8
SAPA_FOGBAND
 10
11.377276709003739
 20
19.784519614557031
 30
0.0
  0
VERTEX
  5
15A3
  8
SAPA_FOGBAND
 10
11.377276709003681
 20
23.05432619673779
 30
0.0
 42
1.000000000000012
  0
VERTEX
  5
15A4
  8
SAPA_FOGBAND
 10
9.1129489861069004
 20
23.05432619673779
 30
0.0
 42
-0.9999999999999998
  0
VERTEX
  5
15A5
  8
SAPA_FOGBAND
 10
7.8274295957226476
 20
23.05432619673779
 30
0.0
  0
VERTEX
  5
15A6
  8
SAPA_FOGBAND
 10
7.8274295957226476
 20
23.746200267399939
 30
0.0
 42
0.5728458134769883
  0
SEQEND
  5
15A7
  8
SAPA_FOGBAND
  0
TEXT
  5
C3B
  8
SAPA_MATT
 62
     2
 10
-28.14040986080089
 20
63.999999999999972
 30
0.0
 40
3.0
  1
134
 50
90.0
  7
ISO
  0
TEXT
  5
C3C
  8
SAPA_MATT
 62
     2
 10
-15.89934844336403
 20
5.0499999999999901
 30
0.0
 40
3.0
  1
14
 50
90.0
  7
ISO
  0
TEXT
  5
C3D
  8
SAPA_MATT
 62
     2
 10
-15.894565732361061
 20
71.148818897637753
 30
0.0
 40
3.0
  1
120
 50
90.0
  7
ISO
  0
SOLID
  5
C3E
  8
SAPA_MATT
 10
-15.39427045677051
 20
16.999999999999979
 30
0.0
 11
-14.39427045677051
 21
16.999999999999979
 31
0.0
 12
-14.89427045677051
 22
13.99999999999998
 32
0.0
 13
-14.89427045677051
 23
13.99999999999998
 33
0.0
  0
SOLID
  5
C3F
  8
SAPA_MATT
 10
-15.39427045677048
 20
130.99999999999989
 30
0.0
 11
-14.39427045677048
 21
130.99999999999989
 31
0.0
 12
-14.89427045677048
 22
133.99999999999989
 32
0.0
 13
-14.89427045677048
 23
133.99999999999989
 33
0.0
  0
LINE
  5
C40
  8
SAPA_MATT
 10
-14.89427045677048
 20
130.99999999999989
 30
0.0
 11
-14.89427045677051
 21
16.999999999999979
 31
0.0
  0
LINE
  5
C41
  8
SAPA_MATT
 10
3.359363641069308
 20
13.99999999999997
 30
0.0
 11
-16.39427045677051
 21
13.99999999999998
 31
0.0
  0
LINE
  5
C42
  8
SAPA_MATT
 10
3.3593636410692511
 20
133.99999999999989
 30
0.0
 11
-16.394270456770482
 21
133.99999999999989
 31
0.0
  0
SOLID
  5
C43
  8
SAPA_MATT
 10
-15.39934844336403
 20
10.99999999999998
 30
0.0
 11
-14.39934844336403
 21
10.99999999999998
 31
0.0
 12
-14.89934844336403
 22
13.99999999999998
 32
0.0
 13
-14.89934844336403
 23
13.99999999999998
 33
0.0
  0
SOLID
  5
C44
  8
SAPA_MATT
 10
-15.39934844336403
 20
3.0000000000000071
 30
0.0
 11
-14.39934844336403
 21
3.0000000000000071
 31
0.0
 12
-14.89934844336403
 22
0.0000000000000076
 32
0.0
 13
-14.89934844336403
 23
0.0000000000000076
 33
0.0
  0
LINE
  5
C45
  8
SAPA_MATT
 10
-14.89934844336403
 20
3.0000000000000071
 30
0.0
 11
-14.89934844336403
 21
10.99999999999998
 31
0.0
  0
LINE
  5
C46
  8
SAPA_MATT
 10
3.359363641069308
 20
13.99999999999997
 30
0.0
 11
-16.39934844336403
 21
13.99999999999998
 31
0.0
  0
LINE
  5
C47
  8
SAPA_MATT
 10
10.55936364106927
 20
0.0000000000000004
 30
0.0
 11
-16.39934844336403
 21
0.0000000000000081
 31
0.0
  0
SOLID
  5
C48
  8
SAPA_MATT
 10
-27.640409860800862
 20
130.99999999999989
 30
0.0
 11
-26.640409860800869
 21
130.99999999999989
 31
0.0
 12
-27.140409860800869
 22
133.99999999999989
 32
0.0
 13
-27.140409860800869
 23
133.99999999999989
 33
0.0
  0
SOLID
  5
C49
  8
SAPA_MATT
 10
-27.640409860800901
 20
3.0000000000000111
 30
0.0
 11
-26.64040986080089
 21
3.0000000000000102
 31
0.0
 12
-27.14040986080089
 22
0.0000000000000111
 32
0.0
 13
-27.14040986080089
 23
0.0000000000000111
 33
0.0
  0
LINE
  5
C4A
  8
SAPA_MATT
 10
-27.14040986080089
 20
3.0000000000000111
 30
0.0
 11
-27.140409860800869
 21
130.99999999999989
 31
0.0
  0
LINE
  5
C4B
  8
SAPA_MATT
 10
3.3593636410692511
 20
133.99999999999989
 30
0.0
 11
-28.640409860800869
 21
133.99999999999989
 31
0.0
  0
LINE
  5
C4C
  8
SAPA_MATT
 10
10.55936364106927
 20
0.0000000000000004
 30
0.0
 11
-28.640409860800901
 21
0.0000000000000115
 31
0.0
  0
ENDSEC
  0
EOF
