  0
SECTION
  2
HEADER
  9
$ACADVER
  1
AC1009
  9
$INSBASE
 10
38.163526022609261
 20
444.14249232610922
 30
0.0
  9
$EXTMIN
 10
-6.4505580584640247
 20
-28.196458629398489
 30
0.0
  9
$EXTMAX
 10
161.59603874128439
 20
67.418575598109214
 30
0.0
  9
$LIMMIN
 10
0.0
 20
0.0
  9
$LIMMAX
 10
998.0
 20
710.0
  9
$ORTHOMODE
 70
     0
  9
$REGENMODE
 70
     1
  9
$FILLMODE
 70
     1
  9
$QTEXTMODE
 70
     0
  9
$MIRRTEXT
 70
     1
  9
$DRAGMODE
 70
     2
  9
$LTSCALE
 40
7.0
  9
$OSMODE
 70
   167
  9
$ATTMODE
 70
     1
  9
$TEXTSIZE
 40
6.0
  9
$TRACEWID
 40
0.05
  9
$TEXTSTYLE
  7
ISO
  9
$CLAYER
  8
0
  9
$CELTYPE
  6
BYLAYER
  9
$CECOLOR
 62
   256
  9
$DIMSCALE
 40
0.0
  9
$DIMASZ
 40
3.0
  9
$DIMEXO
 40
1.5
  9
$DIMDLI
 40
10.0
  9
$DIMRND
 40
0.0
  9
$DIMDLE
 40
0.0
  9
$DIMEXE
 40
1.5
  9
$DIMTP
 40
0.0
  9
$DIMTM
 40
0.0
  9
$DIMTXT
 40
3.0
  9
$DIMCEN
 40
-5.0
  9
$DIMTSZ
 40
0.0
  9
$DIMTOL
 70
     0
  9
$DIMLIM
 70
     0
  9
$DIMTIH
 70
     0
  9
$DIMTOH
 70
     1
  9
$DIMSE1
 70
     0
  9
$DIMSE2
 70
     0
  9
$DIMTAD
 70
     1
  9
$DIMZIN
 70
     8
  9
$DIMBLK
  1

  9
$DIMASO
 70
     1
  9
$DIMSHO
 70
     1
  9
$DIMPOST
  1

  9
$DIMAPOST
  1

  9
$DIMALT
 70
     0
  9
$DIMALTD
 70
     0
  9
$DIMALTF
 40
25.399999999999999
  9
$DIMLFAC
 40
-1.0
  9
$DIMTOFL
 70
     1
  9
$DIMTVP
 40
0.0
  9
$DIMTIX
 70
     0
  9
$DIMSOXD
 70
     0
  9
$DIMSAH
 70
     0
  9
$DIMBLK1
  1

  9
$DIMBLK2
  1

  9
$DIMSTYLE
  2
MASKIN
  9
$DIMCLRD
 70
   256
  9
$DIMCLRE
 70
   256
  9
$DIMCLRT
 70
     2
  9
$DIMTFAC
 40
1.0
  9
$DIMGAP
 40
1.0
  9
$LUNITS
 70
     2
  9
$LUPREC
 70
     2
  9
$SKETCHINC
 40
0.1
  9
$FILLETRAD
 40
0.0
  9
$AUNITS
 70
     0
  9
$AUPREC
 70
     2
  9
$MENU
  1
ACAD
  9
$ELEVATION
 40
0.0
  9
$PELEVATION
 40
0.0
  9
$THICKNESS
 40
0.0
  9
$LIMCHECK
 70
     0
  9
$BLIPMODE
 70
     0
  9
$CHAMFERA
 40
0.0
  9
$CHAMFERB
 40
0.0
  9
$SKPOLY
 70
     0
  9
$TDCREATE
 40
2450345.5800671298
  9
$TDUPDATE
 40
2454866.360426134
  9
$TDINDWG
 40
0.2421758565
  9
$TDUSRTIMER
 40
0.2421758565
  9
$USRTIMER
 70
     1
  9
$ANGBASE
 50
0.0
  9
$ANGDIR
 70
     0
  9
$PDMODE
 70
     3
  9
$PDSIZE
 40
0.0
  9
$PLINEWID
 40
0.0
  9
$COORDS
 70
     1
  9
$SPLFRAME
 70
     0
  9
$SPLINETYPE
 70
     6
  9
$SPLINESEGS
 70
     8
  9
$ATTDIA
 70
     0
  9
$ATTREQ
 70
     1
  9
$HANDLING
 70
     1
  9
$HANDSEED
  5
FD0
  9
$SURFTAB1
 70
     6
  9
$SURFTAB2
 70
     6
  9
$SURFTYPE
 70
     6
  9
$SURFU
 70
     6
  9
$SURFV
 70
     6
  9
$UCSNAME
  2

  9
$UCSORG
 10
0.0
 20
0.0
 30
0.0
  9
$UCSXDIR
 10
1.0
 20
0.0
 30
0.0
  9
$UCSYDIR
 10
0.0
 20
1.0
 30
0.0
  9
$PUCSNAME
  2

  9
$PUCSORG
 10
0.0
 20
0.0
 30
0.0
  9
$PUCSXDIR
 10
1.0
 20
0.0
 30
0.0
  9
$PUCSYDIR
 10
0.0
 20
1.0
 30
0.0
  9
$USERI1
 70
     0
  9
$USERI2
 70
     0
  9
$USERI3
 70
     0
  9
$USERI4
 70
     0
  9
$USERI5
 70
     0
  9
$USERR1
 40
0.0
  9
$USERR2
 40
0.0
  9
$USERR3
 40
0.0
  9
$USERR4
 40
0.0
  9
$USERR5
 40
0.0
  9
$WORLDVIEW
 70
     1
  9
$SHADEDGE
 70
     1
  9
$SHADEDIF
 70
    70
  9
$TILEMODE
 70
     1
  9
$MAXACTVP
 70
    16
  9
$PLIMCHECK
 70
     0
  9
$PEXTMIN
 10
1.0000000000000000E+020
 20
1.0000000000000000E+020
 30
1.0000000000000000E+020
  9
$PEXTMAX
 10
-1.0000000000000000E+020
 20
-1.0000000000000000E+020
 30
-1.0000000000000000E+020
  9
$PLIMMIN
 10
-0.1666668268639272
 20
-0.166666657905879
  9
$PLIMMAX
 10
10.833332932840181
 20
8.3333331017982317
  9
$UNITMODE
 70
     0
  9
$VISRETAIN
 70
     1
  9
$PLINEGEN
 70
     0
  9
$PSLTSCALE
 70
     1
  0
ENDSEC
  0
SECTION
  2
TABLES
  0
TABLE
  2
VPORT
 70
     1
  0
VPORT
  2
*ACTIVE
 70
     0
 10
0.0
 20
0.0
 11
1.0
 21
1.0
 12
112.88764982625921
 22
39.867445406188878
 13
0.0
 23
0.0
 14
5.0
 24
5.0
 15
10.0
 25
10.0
 16
0.0
 26
0.0
 36
1.0
 17
0.0
 27
0.0
 37
0.0
 40
170.8061150948225
 41
1.995238095238095
 42
50.0
 43
0.0
 44
0.0
 50
0.0
 51
0.0
 71
     0
 72
   100
 73
     1
 74
     0
 75
     0
 76
     0
 77
     0
 78
     2
  0
ENDTAB
  0
TABLE
  2
LTYPE
 70
     9
  0
LTYPE
  2
CONTINUOUS
 70
     0
  3
Solid line
 72
    65
 73
     0
 40
0.0
  0
LTYPE
  2
BYGG-014554$0$NEWDOT
 70
     0
  3
____ . ____ . ____ . ____ . ____ . ____ . ____
 72
    65
 73
     4
 40
2.0
 49
1.0
 49
-0.5
 49
0.0
 49
-0.5
  0
LTYPE
  2
BYGG-014537$0$NEWDOT
 70
     0
  3
____ . ____ . ____ . ____ . ____ . ____ . ____
 72
    65
 73
     4
 40
2.0
 49
1.0
 49
-0.5
 49
0.0
 49
-0.5
  0
LTYPE
  2
BYGG-022629$0$NEWDOT
 70
     0
  3
____ . ____ . ____ . ____ . ____ . ____ . ____
 72
    65
 73
     4
 40
2.0
 49
1.0
 49
-0.5
 49
0.0
 49
-0.5
  0
LTYPE
  2
BYGG-022629$0$DASHDOT
 70
     0
  3
__ . __ . __ . __ . __ . __ . __ . __ . __ . __
 72
    65
 73
     4
 40
1.0
 49
0.5
 49
-0.25
 49
0.0
 49
-0.25
  0
LTYPE
  2
BYGG-022629$0$DASHED
 70
     0
  3
__ __ __ __ __ __ __ __ __ __ __ __ __ __ __
 72
    65
 73
     2
 40
0.75
 49
0.5
 49
-0.25
  0
LTYPE
  2
BYGG-022629$0$PHANTOM
 70
     0
  3
Phantom ______  __  __  ______  __  __  ______
 72
    65
 73
     6
 40
63.5
 49
31.75
 49
-6.3499999999999988
 49
6.3499999999999988
 49
-6.3499999999999988
 49
6.3499999999999988
 49
-6.3499999999999988
  0
LTYPE
  2
BYGG-014203$0$DASHDOT
 70
     0
  3
__ . __ . __ . __ . __ . __ . __ . __ . __ . __
 72
    65
 73
     4
 40
1.0
 49
0.5
 49
-0.25
 49
0.0
 49
-0.25
  0
LTYPE
  2
DASHDOT
 70
     0
  3
__ . __ . __ . __ . __ . __ . __ . __ . __ . __
 72
    65
 73
     4
 40
1.0
 49
0.5
 49
-0.25
 49
0.0
 49
-0.25
  0
ENDTAB
  0
TABLE
  2
LAYER
 70
    76
  0
LAYER
  2
0
 70
     0
 62
     7
  6
CONTINUOUS
  0
LAYER
  2
SAPA_ARTIKELNR
 70
     0
 62
     4
  6
CONTINUOUS
  0
LAYER
  2
SAPA_GLAS
 70
     0
 62
     4
  6
CONTINUOUS
  0
LAYER
  2
SAPA_LIGHT
 70
     1
 62
     1
  6
CONTINUOUS
  0
LAYER
  2
1
 70
     0
 62
     1
  6
CONTINUOUS
  0
LAYER
  2
GÅNGJÄRN
 70
     0
 62
     1
  6
CONTINUOUS
  0
LAYER
  2
SAPA_MATT
 70
     0
 62
     1
  6
CONTINUOUS
  0
LAYER
  2
SAPA_FOGBAND
 70
     0
 62
     2
  6
CONTINUOUS
  0
LAYER
  2
SAPA_PROFIL
 70
     0
 62
     7
  6
CONTINUOUS
  0
ENDTAB
  0
TABLE
  2
STYLE
 70
    14
  0
STYLE
  2
STANDARD
 70
     0
 40
0.0
 41
1.0
 50
0.0
 71
     0
 42
0.2
  3
txt
  4

  0
STYLE
  2
ISO
 70
     0
 40
0.0
 41
1.0
 50
0.0
 71
     0
 42
6.0
  3
isocp3.shx
  4

  0
STYLE
  2
BYGG-022296$0$STANDARD
 70
     0
 40
0.0
 41
1.0
 50
0.0
 71
     0
 42
0.2
  3
txt
  4

  0
STYLE
  2
BYGG-022296$0$ISO
 70
     0
 40
0.0
 41
1.0
 50
0.0
 71
     0
 42
3.5
  3
txt
  4

  0
STYLE
  2
BYGG-014554$0$STANDARD
 70
     0
 40
0.0
 41
1.0
 50
0.0
 71
     0
 42
0.2
  3
txt
  4

  0
STYLE
  2
BYGG-014554$0$ISO
 70
     0
 40
0.0
 41
1.0
 50
0.0
 71
     0
 42
2.5
  3
isocp3.shx
  4

  0
STYLE
  2
BYGG-022297$0$STANDARD
 70
     0
 40
0.0
 41
1.0
 50
0.0
 71
     0
 42
0.2
  3
txt
  4

  0
STYLE
  2
BYGG-022297$0$ISO
 70
     0
 40
0.0
 41
1.0
 50
0.0
 71
     0
 42
3.5
  3
txt
  4

  0
STYLE
  2
BYGG-014537$0$STANDARD
 70
     0
 40
0.0
 41
1.0
 50
0.0
 71
     0
 42
0.2
  3
txt
  4

  0
STYLE
  2
BYGG-014537$0$ISO
 70
     0
 40
0.0
 41
1.0
 50
0.0
 71
     0
 42
2.5
  3
isocp3.shx
  4

  0
STYLE
  2
BYGG-022629$0$STANDARD
 70
     0
 40
0.0
 41
1.0
 50
0.0
 71
     0
 42
0.2
  3
txt
  4

  0
STYLE
  2
BYGG-022629$0$ISO
 70
     0
 40
0.0
 41
1.0
 50
0.0
 71
     0
 42
3.5
  3
txt
  4

  0
STYLE
  2
BYGG-014203$0$STANDARD
 70
     0
 40
0.0
 41
1.0
 50
0.0
 71
     0
 42
0.2
  3
txt
  4

  0
STYLE
  2
BYGG-014203$0$ISO
 70
     0
 40
0.0
 41
1.0
 50
0.0
 71
     0
 42
3.5
  3
isocp3.shx
  4

  0
ENDTAB
  0
TABLE
  2
VIEW
 70
     0
  0
ENDTAB
  0
TABLE
  2
UCS
 70
     0
  0
ENDTAB
  0
TABLE
  2
APPID
 70
    17
  0
APPID
  2
ACAD
 70
     0
  0
APPID
  2
ACAD_PSEXT
 70
     0
  0
APPID
  2
ACAECLAYERSTANDARD
 70
     0
  0
APPID
  2
ACAD_MLEADERVER
 70
     0
  0
APPID
  2
ACAD_DSTYLE_DIMTEXT_FILL
 70
     0
  0
APPID
  2
ACAD_DSTYLE_DIMEXT_LENGTH
 70
     0
  0
APPID
  2
ACAD_DSTYLE_DIMEXT_ENABLED
 70
     0
  0
APPID
  2
ACAD_DSTYLE_DIM_LINETYPE
 70
     0
  0
APPID
  2
ACAD_DSTYLE_DIM_EXT1_LINETYPE
 70
     0
  0
APPID
  2
ACAD_DSTYLE_DIM_EXT2_LINETYPE
 70
     0
  0
APPID
  2
ACAD_DSTYLE_DIMJOGGED_JOGA
 70
     0
  0
APPID
  2
ACAD_DSTYLE_DIMARC_LENGTH_
 70
     0
  0
APPID
  2
AMG_ARCHIVE11
 70
     0
  0
APPID
  2
ACAD_EXEMPT_FROM_CAD_STANDARDS
 70
     0
  0
APPID
  2
ACDBBLOCKREPETAG
 70
     0
  0
APPID
  2
ACAD_DSTYLE_DIMJAG
 70
     0
  0
APPID
  2
ACAD_DSTYLE_DIMTALN
 70
     0
  0
ENDTAB
  0
TABLE
  2
DIMSTYLE
 70
    13
  0
DIMSTYLE
  2
MASKIN
 70
     0
  3

  4

  5

  6

  7

 40
0.0
 41
3.0
 42
1.5
 43
10.0
 44
1.5
 45
0.0
 46
0.0
 47
0.0
 48
0.0
140
3.0
141
-5.0
142
0.0
143
25.399999999999999
144
-1.0
145
0.0
146
1.0
147
1.0
 71
     0
 72
     0
 73
     0
 74
     1
 75
     0
 76
     0
 77
     1
 78
     8
170
     0
171
     0
172
     1
173
     0
174
     0
175
     0
176
   256
177
   256
178
     2
  0
DIMSTYLE
  2
BYGG-022296$0$STANDARD
 70
     0
  3

  4

  5

  6

  7

 40
1.0
 41
0.18
 42
0.0625
 43
0.38
 44
0.18
 45
0.0
 46
0.0
 47
0.0
 48
0.0
140
0.18
141
0.09
142
0.0
143
25.399999999999999
144
1.0
145
0.0
146
1.0
147
0.09
 71
     0
 72
     0
 73
     1
 74
     1
 75
     0
 76
     0
 77
     0
 78
     0
170
     0
171
     2
172
     0
173
     0
174
     0
175
     0
176
     0
177
     0
178
     0
  0
DIMSTYLE
  2
BYGG-022296$0$MASKIN
 70
     0
  3

  4

  5

  6

  7

 40
0.0
 41
3.0
 42
1.5
 43
10.0
 44
1.5
 45
0.0
 46
0.0
 47
0.0
 48
0.0
140
3.0
141
-5.0
142
0.0
143
25.399999999999999
144
-1.0
145
0.0
146
1.0
147
1.0
 71
     0
 72
     0
 73
     0
 74
     0
 75
     0
 76
     0
 77
     1
 78
     8
170
     0
171
     0
172
     1
173
     0
174
     0
175
     0
176
   256
177
   256
178
     2
  0
DIMSTYLE
  2
BYGG-014554$0$STANDARD
 70
     0
  3

  4

  5

  6

  7

 40
1.0
 41
0.18
 42
0.0625
 43
0.38
 44
0.18
 45
0.0
 46
0.0
 47
0.0
 48
0.0
140
0.18
141
0.09
142
0.0
143
25.399999999999999
144
1.0
145
0.0
146
1.0
147
0.09
 71
     0
 72
     0
 73
     1
 74
     1
 75
     0
 76
     0
 77
     0
 78
     0
170
     0
171
     2
172
     0
173
     0
174
     0
175
     0
176
     0
177
     0
178
     0
  0
DIMSTYLE
  2
BYGG-014554$0$MASKIN
 70
     0
  3

  4

  5

  6

  7

 40
0.0
 41
3.0
 42
1.5
 43
10.0
 44
1.5
 45
0.0
 46
0.0
 47
0.0
 48
0.0
140
3.0
141
-5.0
142
0.0
143
25.399999999999999
144
-1.0
145
0.0
146
1.0
147
1.0
 71
     0
 72
     0
 73
     0
 74
     1
 75
     0
 76
     0
 77
     1
 78
     8
170
     0
171
     0
172
     1
173
     0
174
     0
175
     0
176
   256
177
   256
178
     2
  0
DIMSTYLE
  2
BYGG-022297$0$STANDARD
 70
     0
  3

  4

  5

  6

  7

 40
1.0
 41
0.18
 42
0.0625
 43
0.38
 44
0.18
 45
0.0
 46
0.0
 47
0.0
 48
0.0
140
0.18
141
0.09
142
0.0
143
25.399999999999999
144
1.0
145
0.0
146
1.0
147
0.09
 71
     0
 72
     0
 73
     1
 74
     1
 75
     0
 76
     0
 77
     0
 78
     0
170
     0
171
     2
172
     0
173
     0
174
     0
175
     0
176
     0
177
     0
178
     0
  0
DIMSTYLE
  2
BYGG-022297$0$MASKIN
 70
     0
  3

  4

  5

  6

  7

 40
0.0
 41
3.0
 42
1.5
 43
10.0
 44
1.5
 45
0.0
 46
0.0
 47
0.0
 48
0.0
140
3.0
141
-5.0
142
0.0
143
25.399999999999999
144
-1.0
145
0.0
146
1.0
147
1.0
 71
     0
 72
     0
 73
     0
 74
     0
 75
     0
 76
     0
 77
     1
 78
     8
170
     0
171
     0
172
     1
173
     0
174
     0
175
     0
176
   256
177
   256
178
     2
  0
DIMSTYLE
  2
BYGG-014537$0$STANDARD
 70
     0
  3

  4

  5

  6

  7

 40
1.0
 41
0.18
 42
0.0625
 43
0.38
 44
0.18
 45
0.0
 46
0.0
 47
0.0
 48
0.0
140
0.18
141
0.09
142
0.0
143
25.399999999999999
144
1.0
145
0.0
146
1.0
147
0.09
 71
     0
 72
     0
 73
     1
 74
     1
 75
     0
 76
     0
 77
     0
 78
     0
170
     0
171
     2
172
     0
173
     0
174
     0
175
     0
176
     0
177
     0
178
     0
  0
DIMSTYLE
  2
BYGG-014537$0$MASKIN
 70
     0
  3

  4

  5

  6

  7

 40
0.0
 41
3.0
 42
1.5
 43
10.0
 44
1.5
 45
0.0
 46
0.0
 47
0.0
 48
0.0
140
3.0
141
-5.0
142
0.0
143
25.399999999999999
144
-1.0
145
0.0
146
1.0
147
1.0
 71
     0
 72
     0
 73
     0
 74
     1
 75
     0
 76
     0
 77
     1
 78
     8
170
     0
171
     0
172
     1
173
     0
174
     0
175
     0
176
   256
177
   256
178
     2
  0
DIMSTYLE
  2
BYGG-022629$0$STANDARD
 70
     0
  3

  4

  5

  6

  7

 40
1.0
 41
0.18
 42
0.0625
 43
0.38
 44
0.18
 45
0.0
 46
0.0
 47
0.0
 48
0.0
140
0.18
141
0.09
142
0.0
143
25.399999999999999
144
1.0
145
0.0
146
1.0
147
0.09
 71
     0
 72
     0
 73
     1
 74
     1
 75
     0
 76
     0
 77
     0
 78
     0
170
     0
171
     2
172
     0
173
     0
174
     0
175
     0
176
     0
177
     0
178
     0
  0
DIMSTYLE
  2
BYGG-022629$0$MASKIN
 70
     0
  3

  4

  5

  6

  7

 40
0.0
 41
3.0
 42
1.5
 43
10.0
 44
1.5
 45
0.0
 46
0.0
 47
0.0
 48
0.0
140
3.0
141
-5.0
142
0.0
143
25.399999999999999
144
-1.0
145
0.0
146
1.0
147
1.0
 71
     0
 72
     0
 73
     0
 74
     0
 75
     0
 76
     0
 77
     1
 78
     8
170
     0
171
     0
172
     1
173
     0
174
     0
175
     0
176
   256
177
   256
178
     2
  0
DIMSTYLE
  2
BYGG-014203$0$STANDARD
 70
     0
  3

  4

  5

  6

  7

 40
1.0
 41
0.18
 42
0.0625
 43
0.38
 44
0.18
 45
0.0
 46
0.0
 47
0.0
 48
0.0
140
0.18
141
0.09
142
0.0
143
25.399999999999999
144
1.0
145
0.0
146
1.0
147
0.09
 71
     0
 72
     0
 73
     1
 74
     1
 75
     0
 76
     0
 77
     0
 78
     0
170
     0
171
     2
172
     0
173
     0
174
     0
175
     0
176
     0
177
     0
178
     0
  0
DIMSTYLE
  2
BYGG-014203$0$MASKIN
 70
     0
  3

  4

  5

  6

  7

 40
0.0
 41
3.0
 42
1.5
 43
10.0
 44
1.5
 45
0.0
 46
0.0
 47
0.0
 48
0.0
140
3.0
141
-5.0
142
0.0
143
25.399999999999999
144
-1.0
145
0.0
146
1.0
147
1.0
 71
     0
 72
     0
 73
     0
 74
     0
 75
     0
 76
     0
 77
     1
 78
     8
170
     0
171
     0
172
     1
173
     0
174
     0
175
     0
176
   256
177
   256
178
   256
  0
ENDTAB
  0
ENDSEC
  0
SECTION
  2
BLOCKS
  0
BLOCK
  8
0
  2
$MODEL_SPACE
 70
     0
 10
0.0
 20
0.0
 30
0.0
  3
$MODEL_SPACE
  1

  0
ENDBLK
  5
D
  8
0
  0
BLOCK
 67
     1
  8
0
  2
$PAPER_SPACE
 70
     0
 10
0.0
 20
0.0
 30
0.0
  3
$PAPER_SPACE
  1

  0
ENDBLK
  5
12
 67
     1
  8
0
  0
BLOCK
  8
0
  2
BYGG-022629$0$18049
 70
     0
 10
0.0
 20
0.0
 30
0.0
  3
BYGG-022629$0$18049
  1

  0
LINE
  5
68F
  8
0
 10
1.257104106126135
 20
1.175882970362522
 30
0.0
 11
0.4756705193898512
 21
3.7049892555045281
 31
0.0
  0
LINE
  5
690
  8
0
 10
4.2044423602476391
 20
-3.6036842434053251
 30
0.0
 11
1.257104106126135
 21
1.175882970362522
 31
0.0
  0
LINE
  5
691
  8
0
 10
1.8046723971954881
 20
-1.3930204203302869
 30
0.0
 11
3.8614632483672291
 21
-4.0897212559317486
 31
0.0
  0
LINE
  5
692
  8
0
 10
1.5165716772223581
 20
-5.4492779234504951
 30
0.0
 11
1.365416573142894
 21
-1.670607021296405
 31
0.0
  0
LINE
  5
693
  8
0
 10
-1.360859991273756
 20
-1.626983735284284
 30
0.0
 11
-2.700553210624562
 21
-2.0440140738289752
 31
0.0
  0
LINE
  5
694
  8
0
 10
4.2213954165827374
 20
-11.20389088691797
 30
0.0
 11
1.8374940511294251
 21
-6.144112628652123
 31
0.0
  0
ARC
  5
695
  8
0
 10
-15.61932099734079
 20
-27.035324816149512
 30
0.0
 40
24.584181139217058
 50
49.137781603725038
 51
55.430876072989847
  0
ARC
  5
696
  8
0
 10
0.6928349840118671
 20
-8.6374822721460305
 30
0.0
 40
0.3000000000000043
 50
139.5071087518125
 51
319.08060320227031
  0
ARC
  5
697
  8
0
 10
2.5157725486285609
 20
-5.4093077022735647
 30
0.0
 40
0.9999999999999417
 50
182.29073520949271
 51
227.290735209491
  0
ARC
  5
698
  8
0
 10
-1.547436887770814
 20
-6.4109931887336984
 30
0.0
 40
0.3999999999999566
 50
92.290735209487536
 51
252.11880956275439
  0
LINE
  5
699
  8
0
 10
-0.264463843413381
 20
-5.9593515526413512
 30
0.0
 11
-1.5634249762415491
 21
-6.0113128401712279
 31
0.0
  0
ARC
  5
69A
  8
0
 10
-0.2764549097664855
 20
-5.6595912912194422
 30
0.0
 40
0.3000000000000553
 50
272.2907352094972
 51
2.2907352094997808
  0
LINE
  5
69B
  8
0
 10
-0.0606321128159806
 20
-3.5492783949131872
 30
0.0
 11
0.023305351655452
 21
-5.6476002248663226
 31
0.0
  0
ARC
  5
69C
  8
0
 10
-0.3603923742378612
 20
-3.561269461266249
 30
0.0
 40
0.3000000000000252
 50
2.2907352094893678
 51
92.290735209491856
  0
LINE
  5
69D
  8
0
 10
-1.271664224856621
 20
-3.2974823989035249
 30
0.0
 11
-0.3723834405909372
 21
-3.26150919984434
 31
0.0
  0
LINE
  5
69E
  8
0
 10
-1.2576746474447731
 20
-3.6472027038957431
 30
0.0
 11
-1.271664224856621
 21
-3.2974823989035249
 31
0.0
  0
ARC
  5
69F
  8
0
 10
-1.557434908866596
 20
-3.6591937702488049
 30
0.0
 40
0.2999999999999189
 50
227.29073520948009
 51
2.2907352094898008
  0
LINE
  5
6A0
  8
0
 10
-2.6479064675971951
 20
-3.060880674298005
 30
0.0
 11
-1.760918458116336
 21
-3.8796352481622871
 31
0.0
  0
ARC
  5
6A1
  8
0
 10
-2.1052836695978661
 20
-2.4730367331951579
 30
0.0
 40
0.7999999999999711
 50
182.29073520948941
 51
227.2907352094899
  0
LINE
  5
6A2
  8
0
 10
-2.911147326750366
 20
-2.3424478020412489
 30
0.0
 11
-2.9046443667228621
 21
-2.5050129101366561
 31
0.0
  0
ARC
  5
6A3
  8
0
 10
-2.6113870653285431
 20
-2.3304567356881871
 30
0.0
 40
0.2999999999999028
 50
107.2907352094865
 51
182.29073520948981
  0
ARC
  5
6A4
  8
0
 10
1.665176834564803
 20
-1.658615954943286
 30
0.0
 40
0.3000000000000269
 50
62.29073520950076
 51
182.29073520950001
  0
ARC
  5
6A5
  8
0
 10
-1.45002613656969
 20
-1.340541073425072
 30
0.0
 40
0.2999999999999088
 50
287.29073520947099
 51
2.2907352094791711
  0
LINE
  5
6A6
  8
0
 10
-1.2531886636523799
 20
1.24437896187652
 30
0.0
 11
-1.150265875147894
 21
-1.3285500070720671
 31
0.0
  0
ARC
  5
6A7
  8
0
 10
-1.552948925074346
 20
1.2323878955234591
 30
0.0
 40
0.3000000000000847
 50
2.2907352094887168
 51
77.290735209486655
  0
LINE
  5
6A8
  8
0
 10
-2.8556712716364099
 20
1.8337253324163489
 30
0.0
 11
-1.4869477411285881
 21
1.5250375900693589
 31
0.0
  0
ARC
  5
6A9
  8
0
 10
-2.7896700876906229
 20
2.1263750269621928
 30
0.0
 40
0.3000000000000366
 50
182.29073520947821
 51
257.29073520947901
  0
LINE
  5
6AA
  8
0
 10
-3.0959333091400651
 20
2.276949068704595
 30
0.0
 11
-3.0894303491125461
 21
2.1143839606091879
 31
0.0
  0
ARC
  5
6AB
  8
0
 10
-2.296572612015197
 20
2.3089252456460372
 30
0.0
 40
0.7999999999998441
 50
137.29073520948589
 51
182.29073520948569
  0
LINE
  5
6AC
  8
0
 10
-2.0656619792536191
 20
3.7385360531263241
 30
0.0
 11
-2.8844165531179149
 21
2.8515480436453231
 31
0.0
  0
ARC
  5
6AD
  8
0
 10
-1.8452205013400651
 20
3.5350525038765559
 30
0.0
 40
0.3000000000000082
 50
2.2907352094784108
 51
137.29073520948529
  0
LINE
  5
6AE
  8
0
 10
-1.5434617288593271
 20
3.497083526659253
 30
0.0
 11
-1.5454602399181701
 21
3.5470435702295608
 31
0.0
  0
ARC
  5
6AF
  8
0
 10
-1.2437014674374249
 20
3.5090745930123139
 30
0.0
 40
0.3000000000000243
 50
182.29073520948921
 51
272.29073520948782
  0
LINE
  5
6B0
  8
0
 10
-0.6321898782405812
 20
3.2332964642965289
 30
0.0
 11
-1.23171040108437
 21
3.2093143315904049
 31
0.0
  0
ARC
  5
6B1
  8
0
 10
-0.6441809445936002
 20
3.5330567257183811
 30
0.0
 40
0.2999999999999656
 50
272.2907352094814
 51
2.2907352094787372
  0
LINE
  5
6B2
  8
0
 10
-0.3464191942305916
 20
3.5950078356417521
 30
0.0
 11
-0.344420683171748
 21
3.5450477920713861
 31
0.0
  0
ARC
  5
6B3
  8
0
 10
-0.046658932808711
 20
3.606998901994813
 30
0.0
 40
0.2999999999999673
 50
92.290735209486854
 51
182.2907352094893
  0
LINE
  5
6B4
  8
0
 10
0.177049383927411
 20
3.9161876544667962
 30
0.0
 11
-0.0586499991617586
 21
3.9067591634166661
 31
0.0
  0
ARC
  5
6B5
  8
0
 10
0.1890404502804017
 20
3.6164273930448871
 30
0.0
 40
0.3000000000000138
 50
17.169902926059759
 51
92.290735209475557
  0
CIRCLE
  5
6B6
  8
0
 10
0.0
 20
0.0
 30
0.0
 40
0.2
  0
ARC
  5
6B7
  8
0
 10
4.000958810997929
 20
-3.8241257213188642
 30
0.0
 40
0.2999999999999325
 50
242.29073520948819
 51
47.290735209489483
  0
ARC
  5
6B8
  8
0
 10
4.017911867332927
 20
-11.42433236483151
 30
0.0
 40
0.2999999999999948
 50
222.87790223034321
 51
47.290735209474143
  0
ARC
  5
6B9
  8
0
 10
-25.590924134226238
 20
-39.188544039530477
 30
0.0
 40
40.30140653252819
 50
43.041593976239149
 51
48.867350427507773
  0
ENDBLK
  5
6BA
  8
0
  0
BLOCK
  8
0
  2
BYGG-022629$0$18058
 70
     0
 10
0.0
 20
0.0
 30
0.0
  3
BYGG-022629$0$18058
  1

  0
POLYLINE
  5
6BE
  8
0
 66
     1
 10
0.0
 20
0.0
 30
0.0
 70
     1
  0
VERTEX
  5
9F7
  8
0
 10
4.8334507297417977
 20
-5.2617122271897747
 30
0.0
 42
0.6997223268137053
  0
VERTEX
  5
9F8
  8
0
 10
4.575936757014289
 20
-4.5556296340060376
 30
0.0
  0
VERTEX
  5
9F9
  8
0
 10
3.3759367570143008
 20
-4.5556296340060376
 30
0.0
 42
-0.4142135623730951
  0
VERTEX
  5
9FA
  8
0
 10
3.1759367570143122
 20
-4.355629634006049
 30
0.0
  0
VERTEX
  5
9FB
  8
0
 10
3.1759367570142838
 20
-1.555629634006038
 30
0.0
 42
-0.59729408155688
  0
VERTEX
  5
9FC
  8
0
 10
3.486028500133556
 20
-1.38865715694186
 30
0.0
  0
VERTEX
  5
9FD
  8
0
 10
3.778230334995953
 20
-1.5813177074005571
 30
0.0
 42
0.7267081950900313
  0
VERTEX
  5
9FE
  8
0
 10
4.447090661358259
 20
-1.0471071155557179
 30
0.0
  0
VERTEX
  5
9FF
  8
0
 10
0.5873176626473935
 20
5.5050401533857212
 30
0.0
 42
0.7363258036229955
  0
VERTEX
  5
A00
  8
0
 10
-0.7166888610518641
 20
5.2103713392397699
 30
0.0
  0
VERTEX
  5
A01
  8
0
 10
-1.3240632429856301
 20
1.765780049277339
 30
0.0
  0
VERTEX
  5
A02
  8
0
 10
-2.7574321456306592
 20
-2.6694904128274279
 30
0.0
 42
0.885993824690421
  0
VERTEX
  5
A03
  8
0
 10
-2.3382360028933951
 20
-3.0926345791103809
 30
0.0
  0
VERTEX
  5
A04
  8
0
 10
-1.624063242985442
 20
-0.9471580705006203
 30
0.0
 42
-0.5773502691892892
  0
VERTEX
  5
A05
  8
0
 10
-1.3240632429856301
 20
-1.120363151257606
 30
0.0
  0
VERTEX
  5
A06
  8
0
 10
-1.3240632429856869
 20
-5.6510692487698293
 30
0.0
 42
-0.1989123673796363
  0
VERTEX
  5
A07
  8
0
 10
-1.3826418867483881
 20
-5.7924906050071172
 30
0.0
  0
VERTEX
  5
A08
  8
0
 10
-2.7562272241133172
 20
-10.167977501831951
 30
0.0
 42
0.7660459440748996
  0
VERTEX
  5
A09
  8
0
 10
-2.4141837562942068
 20
-10.635523841217941
 30
0.0
  0
VERTEX
  5
A0A
  8
0
 10
1.832706186540491
 20
-6.8303485721410757
 30
0.0
 42
-0.3419987131192184
  0
VERTEX
  5
A0B
  8
0
 10
1.953259031429212
 20
-6.851959023057872
 30
0.0
 42
0.7745966692401299
  0
VERTEX
  5
A0C
  8
0
 10
2.4681048871406972
 20
-6.5828238435410071
 30
0.0
 42
-0.3419987131192394
  0
VERTEX
  5
A0D
  8
0
 10
2.519167327488105
 20
-6.4715016661200471
 30
0.0
  0
SEQEND
  5
A0E
  8
0
  0
CIRCLE
  5
6BF
  8
0
 10
0.0
 20
0.0
 30
0.0
 40
0.2
  0
ENDBLK
  5
6C0
  8
0
  0
BLOCK
  8
0
  2
*U45
 70
     1
 10
0.0
 20
0.0
 30
0.0
  3
*U45
  1

  0
TEXT
  5
973
  8
SAPA_ARTIKELNR
 10
40.268556655363732
 20
54.288177607056049
 30
0.0
 40
3.5
  1
68013
  7
ISO
  0
ENDBLK
  5
975
  8
0
  0
BLOCK
  8
0
  2
*U46
 70
     1
 10
0.0
 20
0.0
 30
0.0
  3
*U46
  1

  0
TEXT
  5
977
  8
SAPA_ARTIKELNR
 10
112.80157303584549
 20
54.288177607056049
 30
0.0
 40
3.5
  1
68040
  7
ISO
  0
ENDBLK
  5
979
  8
0
  0
BLOCK
  8
0
  2
*U47
 70
     1
 10
0.0
 20
0.0
 30
0.0
  3
*U47
  1

  0
TEXT
  5
995
  8
0
 62
     2
 10
51.600636879971837
 20
-15.11001734876721
 30
0.0
 40
3.0
  1
89
  7
ISO
  0
ENDBLK
  5
997
  8
0
  0
BLOCK
  8
0
  2
*U48
 70
     1
 10
0.0
 20
0.0
 30
0.0
  3
*U48
  1

  0
TEXT
  5
999
  8
0
 62
     2
 10
123.4960757870183
 20
-15.09646793375793
 30
0.0
 40
3.0
  1
45
  7
ISO
  0
ENDBLK
  5
99B
  8
0
  0
BLOCK
  8
0
  2
*U49
 70
     1
 10
0.0
 20
0.0
 30
0.0
  3
*U49
  1

  0
TEXT
  5
99D
  8
0
 62
     2
 10
99.695895064118517
 20
-15.09646793375793
 30
0.0
 40
3.0
  1
5
  7
ISO
  0
ENDBLK
  5
99F
  8
0
  0
BLOCK
  8
0
  2
*U50
 70
     1
 10
0.0
 20
0.0
 30
0.0
  3
*U50
  1

  0
TEXT
  5
9A1
  8
0
 62
     2
 10
75.850636879971859
 20
-25.696458629398489
 30
0.0
 40
3.0
  1
139
  7
ISO
  0
ENDBLK
  5
9A3
  8
0
  0
BLOCK
  8
0
  2
*U51
 70
     1
 10
0.0
 20
0.0
 30
0.0
  3
*U51
  1

  0
TEXT
  5
BF0
  8
0
 62
     2
 10
223.25694460060811
 20
742.68797400912399
 30
0.0
 40
3.0
  1
50
 50
90.0
  7
BYGG-014554$0$ISO
  0
ENDBLK
  5
BF2
  8
0
  0
BLOCK
  8
0
  2
*U52
 70
     1
 10
0.0
 20
0.0
 30
0.0
  3
*U52
  1

  0
TEXT
  5
BF4
  8
0
 62
     2
 10
176.95869673732579
 20
712.16043879070753
 30
0.0
 40
3.0
  1
67
  7
BYGG-014554$0$ISO
  0
ENDBLK
  5
BF6
  8
0
  0
BLOCK
  8
0
  2
*U53
 70
     1
 10
0.0
 20
0.0
 30
0.0
  3
*U53
  1

  0
TEXT
  5
CAB
  8
0
 62
     2
 10
-95.316223655220142
 20
507.00025332063842
 30
0.0
 40
3.0
  1
50
 50
90.0
  7
BYGG-014537$0$ISO
  0
ENDBLK
  5
CAD
  8
0
  0
BLOCK
  8
0
  2
*U54
 70
     1
 10
0.0
 20
0.0
 30
0.0
  3
*U54
  1

  0
TEXT
  5
CAF
  8
0
 62
     2
 10
-152.9513540345973
 20
475.93881763662642
 30
0.0
 40
3.0
  1
89
  7
BYGG-014537$0$ISO
  0
ENDBLK
  5
CB1
  8
0
  0
BLOCK
  8
0
  2
*U55
 70
     1
 10
0.0
 20
0.0
 30
0.0
  3
*U55
  1

  0
TEXT
  5
CE8
  8
0
 10
269.13695666615928
 20
387.12121780868893
 30
0.0
 40
3.0
  1
22
 50
90.0
  7
BYGG-014203$0$ISO
  0
ENDBLK
  5
CEA
  8
0
  0
BLOCK
  8
0
  2
*U56
 70
     1
 10
0.0
 20
0.0
 30
0.0
  3
*U56
  1

  0
TEXT
  5
CEC
  8
0
 10
243.50583563664401
 20
406.8346351471406
 30
0.0
 40
3.0
  1
29
  7
BYGG-014203$0$ISO
  0
ENDBLK
  5
CEE
  8
0
  0
BLOCK
  8
0
  2
*U57
 70
     1
 10
0.0
 20
0.0
 30
0.0
  3
*U57
  1

  0
TEXT
  5
CF1
  8
0
 10
89.477352001818133
 20
536.91038923748056
 30
0.0
 40
3.0
  1
29.00259511
  7
BYGG-014203$0$ISO
  0
ENDBLK
  5
CF3
  8
0
  0
BLOCK
  8
0
  2
*U58
 70
     1
 10
0.0
 20
0.0
 30
0.0
  3
*U58
  1

  0
TEXT
  5
CF5
  8
0
 10
139.81857160131429
 20
500.42082458589999
 30
0.0
 40
3.0
  1
21.99913956
 50
90.0
  7
BYGG-014203$0$ISO
  0
ENDBLK
  5
CF7
  8
0
  0
BLOCK
  8
0
  2
*U59
 70
     1
 10
0.0
 20
0.0
 30
0.0
  3
*U59
  1

  0
TEXT
  5
CF9
  8
0
 62
     2
 10
159.09603874128439
 20
26.467394495746898
 30
0.0
 40
3.0
  1
50
 50
90.0
  7
BYGG-014554$0$ISO
  0
ENDBLK
  5
CFB
  8
0
  0
BLOCK
  8
0
  2
*U60
 70
     1
 10
0.0
 20
0.0
 30
0.0
  3
*U60
  1

  0
TEXT
  5
CFD
  8
0
 62
     2
 10
112.797790878002
 20
63.1972919188878
 30
0.0
 40
3.0
  1
67
  7
BYGG-014554$0$ISO
  0
ENDBLK
  5
CFF
  8
0
  0
BLOCK
  8
0
  2
*U61
 70
     1
 10
0.0
 20
0.0
 30
0.0
  3
*U61
  1

  0
TEXT
  5
D01
  8
0
 10
17.856717959959109
 20
59.527801845810977
 30
0.0
 40
3.0
  1
22
  7
BYGG-014203$0$ISO
  0
ENDBLK
  5
D03
  8
0
  0
BLOCK
  8
0
  2
*U62
 70
     1
 10
0.0
 20
0.0
 30
0.0
  3
*U62
  1

  0
TEXT
  5
D05
  8
0
 10
2.4472966844993831
 20
36.896680816295813
 30
0.0
 40
3.0
  1
29
 50
90.0
  7
BYGG-014203$0$ISO
  0
ENDBLK
  5
D07
  8
0
  0
BLOCK
  8
0
  2
*U63
 70
     1
 10
0.0
 20
0.0
 30
0.0
  3
*U63
  1

  0
TEXT
  5
F27
  8
0
 62
     2
 10
109.2357672593492
 20
26.467394495747001
 30
0.0
 40
3.0
  1
50
 50
90.0
  7
BYGG-014537$0$ISO
  0
ENDBLK
  5
F29
  8
0
  0
BLOCK
  8
0
  2
*U64
 70
     1
 10
0.0
 20
0.0
 30
0.0
  3
*U64
  1

  0
TEXT
  5
F2B
  8
0
 62
     2
 10
51.600636879971837
 20
-4.5940411882651233
 30
0.0
 40
3.0
  1
89
  7
BYGG-014537$0$ISO
  0
ENDBLK
  5
F2D
  8
0
  0
ENDSEC
  0
SECTION
  2
ENTITIES
  0
POLYLINE
  5
502
  8
SAPA_GLAS
 66
     1
 10
0.0
 20
0.0
 30
0.0
 70
     1
  0
VERTEX
  5
96D
  8
SAPA_GLAS
 10
33.674051656619497
 20
9.7833592813392727
 30
0.0
  0
VERTEX
  5
96E
  8
SAPA_GLAS
 10
33.674051656619497
 20
19.81706222897148
 30
0.0
  0
VERTEX
  5
96F
  8
SAPA_GLAS
 10
35.714433927022547
 20
19.81706222897148
 30
0.0
  0
VERTEX
  5
970
  8
SAPA_GLAS
 10
35.714433927022547
 20
9.7833592813392727
 30
0.0
  0
SEQEND
  5
971
  8
SAPA_GLAS
  0
INSERT
  5
506
  8
0
  2
*U45
 10
0.0
 20
0.0
 30
0.0
  0
INSERT
  5
507
  8
0
  2
*U46
 10
0.0
 20
0.0
 30
0.0
  0
LINE
  5
5C0
  8
GÅNGJÄRN
 10
93.030463901876217
 20
16.06568403184923
 30
0.0
 11
95.808207821374253
 21
16.07671712572176
 31
0.0
  0
LINE
  5
5C1
  8
GÅNGJÄRN
 10
87.149434693705146
 20
21.565684031849631
 30
0.0
 11
93.030463901876217
 21
21.565684031849631
 31
0.0
  0
LINE
  5
5C2
  8
GÅNGJÄRN
  6
DASHDOT
 62
     2
 10
69.203646310111111
 20
28.56568403184929
 30
0.0
 11
80.799469526314937
 21
28.56568403184929
 31
0.0
  0
LINE
  5
5C3
  8
GÅNGJÄRN
  6
DASHDOT
 62
     2
 10
83.808027098474525
 20
28.56568403184929
 30
0.0
 11
93.795328213864508
 21
28.56568403184929
 31
0.0
  0
LINE
  5
5C5
  8
GÅNGJÄRN
 10
94.649615416605144
 20
10.55791294751725
 30
0.0
 11
93.030463901876203
 21
10.557912947517201
 31
0.0
  0
LINE
  5
5C7
  8
GÅNGJÄRN
 10
93.030463901876203
 20
10.557912947517201
 30
0.0
 11
93.030463901876004
 21
41.065684031849173
 31
0.0
  0
LINE
  5
5C8
  8
1
 10
93.030463901876004
 20
41.065684031849173
 30
0.0
 11
95.808207821374296
 21
41.065684031849173
 31
0.0
  0
POLYLINE
  5
5CC
  8
SAPA_LIGHT
 66
     1
 10
0.0
 20
0.0
 30
0.0
  0
VERTEX
  5
97A
  8
SAPA_LIGHT
 10
81.451620569133183
 20
46.571467164369153
 30
0.0
  0
VERTEX
  5
97B
  8
SAPA_LIGHT
 10
81.451620569133183
 20
53.568575598109248
 30
0.0
  0
VERTEX
  5
97C
  8
SAPA_LIGHT
 10
148.45162056913321
 20
53.568575598109248
 30
0.0
  0
VERTEX
  5
97D
  8
SAPA_LIGHT
 10
148.45162056913321
 20
3.5685755981091338
 30
0.0
  0
VERTEX
  5
97E
  8
SAPA_LIGHT
 10
103.4516205691332
 20
3.5685755981091338
 30
0.0
  0
VERTEX
  5
97F
  8
SAPA_LIGHT
 10
103.4516205691332
 20
10.568575598109129
 30
0.0
  0
VERTEX
  5
980
  8
SAPA_LIGHT
 10
95.95162056913324
 20
10.56857559810925
 30
0.0
  0
VERTEX
  5
981
  8
SAPA_LIGHT
 10
95.951620569133226
 20
46.571467164369153
 30
0.0
  0
VERTEX
  5
982
  8
SAPA_LIGHT
 10
81.451439846233342
 20
46.571467164369153
 30
0.0
  0
SEQEND
  5
983
  8
SAPA_LIGHT
  0
POLYLINE
  5
5CD
  8
SAPA_LIGHT
 66
     1
 10
0.0
 20
0.0
 30
0.0
  0
VERTEX
  5
984
  8
SAPA_LIGHT
 10
9.2686008097259371
 20
18.566824678669771
 30
0.0
  0
VERTEX
  5
985
  8
SAPA_LIGHT
 10
9.2686008097259371
 20
53.571467164369039
 30
0.0
  0
VERTEX
  5
986
  8
SAPA_LIGHT
 10
76.451439846233342
 20
53.571467164369039
 30
0.0
  0
VERTEX
  5
987
  8
SAPA_LIGHT
 10
76.451439846233342
 20
46.571467164369153
 30
0.0
  0
VERTEX
  5
988
  8
SAPA_LIGHT
 10
83.951439846233356
 20
46.57146716436916
 30
0.0
  0
VERTEX
  5
989
  8
SAPA_LIGHT
 10
83.951439846233342
 20
10.56857559810925
 30
0.0
  0
VERTEX
  5
98A
  8
SAPA_LIGHT
 10
98.451439846233285
 20
10.56857559810925
 30
0.0
  0
VERTEX
  5
98B
  8
SAPA_LIGHT
 10
98.451439846233285
 20
3.571467164369039
 30
0.0
  0
VERTEX
  5
98C
  8
SAPA_LIGHT
 10
9.2686008097259371
 20
3.571467164369039
 30
0.0
  0
VERTEX
  5
98D
  8
SAPA_LIGHT
 10
9.2686008097259371
 20
12.56682467866977
 30
0.0
  0
SEQEND
  5
98E
  8
SAPA_LIGHT
  0
POLYLINE
  5
5CE
  8
SAPA_LIGHT
 66
     1
 10
0.0
 20
0.0
 30
0.0
 70
     1
  0
VERTEX
  5
98F
  8
SAPA_LIGHT
 10
26.055723045428842
 20
12.56682467866977
 30
0.0
  0
VERTEX
  5
990
  8
SAPA_LIGHT
 10
-6.4505580584640247
 20
12.56682467866977
 30
0.0
  0
VERTEX
  5
991
  8
SAPA_LIGHT
 10
-6.4505580584640247
 20
18.566824678669771
 30
0.0
  0
VERTEX
  5
992
  8
SAPA_LIGHT
 10
26.055723045428842
 20
18.566824678669771
 30
0.0
  0
SEQEND
  5
993
  8
SAPA_LIGHT
  0
LINE
  5
7E7
  8
GÅNGJÄRN
  6
DASHDOT
 10
81.956700313315054
 20
43.752610927477342
 30
0.0
 11
53.675496915953183
 21
40.461228936239991
 31
0.0
  0
ARC
  5
7E8
  8
GÅNGJÄRN
  6
DASHDOT
 10
55.038039758851667
 20
28.753578052743329
 30
0.0
 40
11.786670955302609
 50
96.638251341199634
 51
241.89620480424739
  0
LINE
  5
7E9
  8
GÅNGJÄRN
  6
DASHDOT
 10
49.485689005232729
 20
18.35660669963471
 30
0.0
 11
82.255972306937878
 21
13.64394612127211
 31
0.0
  0
LINE
  5
7EA
  8
GÅNGJÄRN
 10
82.31514755262296
 20
19.565684031849571
 30
0.0
 11
48.435963286589271
 21
19.56568403184923
 31
0.0
  0
LINE
  5
7EB
  8
GÅNGJÄRN
 10
48.435963286589271
 20
19.56568403184923
 30
0.0
 11
48.435963286589271
 21
37.565684031849287
 31
0.0
  0
LINE
  5
7EC
  8
GÅNGJÄRN
 10
48.435963286589271
 20
37.565684031849287
 30
0.0
 11
82.31514755262296
 21
37.565684031849287
 31
0.0
  0
LINE
  5
7ED
  8
GÅNGJÄRN
 10
84.149434693705501
 20
16.065684031849109
 30
0.0
 11
87.149434693705146
 21
16.065684031849109
 31
0.0
  0
LINE
  5
7EE
  8
GÅNGJÄRN
 10
87.149434693705146
 20
16.065684031849109
 30
0.0
 11
87.149434693705146
 21
41.065684031849173
 31
0.0
  0
LINE
  5
7EF
  8
GÅNGJÄRN
 10
87.149434693705146
 20
41.065684031849173
 30
0.0
 11
84.149434693705501
 21
41.065684031849287
 31
0.0
  0
LINE
  5
7F0
  8
GÅNGJÄRN
 10
84.149434693705501
 20
41.065684031849287
 30
0.0
 11
84.149434693705501
 21
16.065684031849109
 31
0.0
  0
LINE
  5
7F1
  8
GÅNGJÄRN
 10
93.030463901876004
 20
33.686288651056998
 30
0.0
 11
91.151068521083587
 21
35.565684031849287
 31
0.0
  0
LINE
  5
7F2
  8
GÅNGJÄRN
 10
91.151068521083587
 20
35.565684031849287
 30
0.0
 11
87.149434693705146
 21
35.565684031849287
 31
0.0
  0
POLYLINE
  5
8D9
  8
SAPA_PROFIL
 66
     1
 10
0.0
 20
0.0
 30
0.0
  0
VERTEX
  5
E17
  8
SAPA_PROFIL
 10
28.429290176922681
 20
37.24702041747571
 30
0.0
  0
VERTEX
  5
E18
  8
SAPA_PROFIL
 10
11.30802709847233
 20
36.565980483617409
 30
0.0
 42
-0.4142135623730951
  0
VERTEX
  5
E19
  8
SAPA_PROFIL
 10
10.80802709847233
 20
37.065980483617409
 30
0.0
  0
VERTEX
  5
E1A
  8
SAPA_PROFIL
 10
10.80802709847239
 20
48.865593966626129
 30
0.0
 42
-0.4076767287637263
  0
VERTEX
  5
E1B
  8
SAPA_PROFIL
 10
13.74092344928931
 20
51.864843799015659
 30
0.0
  0
VERTEX
  5
E1C
  8
SAPA_PROFIL
 10
28.429290176922681
 20
52.019283021126448
 30
0.0
 42
-0.4182129759575463
  0
VERTEX
  5
E1D
  8
SAPA_PROFIL
 10
28.940451288978181
 20
51.523771300269289
 30
0.0
  0
VERTEX
  5
E1E
  8
SAPA_PROFIL
 10
28.953278890503899
 20
49.04912354414995
 30
0.0
  0
VERTEX
  5
E1F
  8
SAPA_PROFIL
 10
30.60796748812772
 20
47.423065587956387
 30
0.0
  0
VERTEX
  5
E20
  8
SAPA_PROFIL
 10
35.157043522415897
 20
47.423065587956387
 30
0.0
 42
0.4293387945586749
  0
VERTEX
  5
E21
  8
SAPA_PROFIL
 10
35.453770043500413
 20
47.741176723945728
 30
0.0
  0
VERTEX
  5
E22
  8
SAPA_PROFIL
 10
35.381130367372691
 20
48.822632449216201
 30
0.0
 42
0.4883397947196161
  0
VERTEX
  5
E23
  8
SAPA_PROFIL
 10
33.819408541364339
 20
48.602009515017983
 30
0.0
  0
VERTEX
  5
E24
  8
SAPA_PROFIL
 10
31.12032726532993
 20
48.602009515017983
 30
0.0
  0
VERTEX
  5
E25
  8
SAPA_PROFIL
 10
30.148895618953819
 20
49.556632735215828
 30
0.0
  0
VERTEX
  5
E26
  8
SAPA_PROFIL
 10
30.148895618953819
 20
52.055758878100903
 30
0.0
  0
VERTEX
  5
E27
  8
SAPA_PROFIL
 10
30.622671285468702
 20
52.055758878100903
 30
0.0
  0
VERTEX
  5
E28
  8
SAPA_PROFIL
 10
30.622671285468702
 20
53.568575598109128
 30
0.0
  0
VERTEX
  5
E29
  8
SAPA_PROFIL
 10
9.6053863917802573
 20
53.568575598109248
 30
0.0
 42
0.4116378201539302
  0
VERTEX
  5
E2A
  8
SAPA_PROFIL
 10
9.3080270984723938
 20
53.268587120438902
 30
0.0
  0
VERTEX
  5
E2B
  8
SAPA_PROFIL
 10
9.308027098472337
 20
24.86598048361742
 30
0.0
 42
0.414213562373095
  0
VERTEX
  5
E2C
  8
SAPA_PROFIL
 10
9.6080270984723484
 20
24.565980483617359
 30
0.0
  0
VERTEX
  5
E2D
  8
SAPA_PROFIL
 10
10.81802709847233
 20
24.565980483617409
 30
0.0
 42
0.4142135623731037
  0
VERTEX
  5
E2E
  8
SAPA_PROFIL
 10
11.808027098472341
 20
25.555980483617361
 30
0.0
  0
VERTEX
  5
E2F
  8
SAPA_PROFIL
 10
11.808027098472341
 20
25.565980483617409
 30
0.0
  0
VERTEX
  5
E30
  8
SAPA_PROFIL
 10
10.558027098472341
 20
25.565980483617409
 30
0.0
  0
VERTEX
  5
E31
  8
SAPA_PROFIL
 10
10.558027098472341
 20
27.065980483617409
 30
0.0
 42
-0.4142135623730951
  0
VERTEX
  5
E32
  8
SAPA_PROFIL
 10
11.058027098472341
 20
27.565980483617409
 30
0.0
  0
VERTEX
  5
E33
  8
SAPA_PROFIL
 10
19.058027098472341
 20
27.565980483617409
 30
0.0
 42
-0.4142135623730951
  0
VERTEX
  5
E34
  8
SAPA_PROFIL
 10
19.55802709847233
 20
27.065980483617409
 30
0.0
  0
VERTEX
  5
E35
  8
SAPA_PROFIL
 10
19.55802709847233
 20
25.565980483617409
 30
0.0
  0
VERTEX
  5
E36
  8
SAPA_PROFIL
 10
18.30802709847233
 20
25.565980483617409
 30
0.0
  0
VERTEX
  5
E37
  8
SAPA_PROFIL
 10
18.30802709847233
 20
25.555980483617361
 30
0.0
 42
0.414213562373095
  0
VERTEX
  5
E38
  8
SAPA_PROFIL
 10
19.298027098472339
 20
24.565980483617359
 30
0.0
  0
VERTEX
  5
E39
  8
SAPA_PROFIL
 10
19.808027098472341
 20
24.565980483617409
 30
0.0
 42
0.4142135623730953
  0
VERTEX
  5
E3A
  8
SAPA_PROFIL
 10
20.808027098472341
 20
25.565980483617409
 30
0.0
  0
VERTEX
  5
E3B
  8
SAPA_PROFIL
 10
20.808027098472341
 20
27.065980483617409
 30
0.0
 42
0.4142135623730951
  0
VERTEX
  5
E3C
  8
SAPA_PROFIL
 10
19.108027098472348
 20
28.765980483617401
 30
0.0
  0
VERTEX
  5
E3D
  8
SAPA_PROFIL
 10
11.30802709847233
 20
28.765980483617462
 30
0.0
 42
-0.414213562373095
  0
VERTEX
  5
E3E
  8
SAPA_PROFIL
 10
10.80802709847233
 20
29.265980483617451
 30
0.0
  0
VERTEX
  5
E3F
  8
SAPA_PROFIL
 10
10.80802709847233
 20
34.765980483617462
 30
0.0
 42
-0.4142135623730951
  0
VERTEX
  5
E40
  8
SAPA_PROFIL
 10
11.30802709847233
 20
35.265980483617462
 30
0.0
  0
VERTEX
  5
E41
  8
SAPA_PROFIL
 10
28.429290176922681
 20
35.937190130083771
 30
0.0
  0
VERTEX
  5
E42
  8
SAPA_PROFIL
 10
33.832236940672367
 20
36.594128580813113
 30
0.0
 42
-0.4666505291506209
  0
VERTEX
  5
E43
  8
SAPA_PROFIL
 10
34.112038506591148
 20
36.332297049768563
 30
0.0
  0
VERTEX
  5
E44
  8
SAPA_PROFIL
 10
34.07249561267281
 20
35.609640956209603
 30
0.0
 42
0.7332303362618522
  0
VERTEX
  5
E45
  8
SAPA_PROFIL
 10
34.60857163532512
 20
35.409466367639432
 30
0.0
  0
VERTEX
  5
E46
  8
SAPA_PROFIL
 10
35.37948175282952
 20
37.51957370717713
 30
0.0
 42
0.668178637919333
  0
VERTEX
  5
E47
  8
SAPA_PROFIL
 10
35.106315557635241
 20
38.001921559267942
 30
0.0
  0
VERTEX
  5
E48
  8
SAPA_PROFIL
 10
28.429290176922681
 20
37.24702041747571
 30
0.0
  0
VERTEX
  5
E49
  8
SAPA_PROFIL
 10
28.429290176922681
 20
37.256553869638822
 30
0.0
  0
SEQEND
  5
E4A
  8
SAPA_PROFIL
  0
POLYLINE
  5
8DA
  8
SAPA_PROFIL
 66
     1
 10
0.0
 20
0.0
 30
0.0
 70
     1
  0
VERTEX
  5
E4B
  8
SAPA_PROFIL
 10
76.308027098474525
 20
53.068575598109192
 30
0.0
 42
0.4142135623730951
  0
VERTEX
  5
E4C
  8
SAPA_PROFIL
 10
75.808027098474525
 20
53.568575598109192
 30
0.0
  0
VERTEX
  5
E4D
  8
SAPA_PROFIL
 10
31.308027098474529
 20
53.568575598109192
 30
0.0
  0
VERTEX
  5
E4E
  8
SAPA_PROFIL
 10
31.308027098474529
 20
50.568575598109192
 30
0.0
  0
VERTEX
  5
E4F
  8
SAPA_PROFIL
 10
32.308027098474518
 20
49.568575598109192
 30
0.0
  0
VERTEX
  5
E50
  8
SAPA_PROFIL
 10
33.308027098474533
 20
49.568575598109192
 30
0.0
  0
VERTEX
  5
E51
  8
SAPA_PROFIL
 10
33.308027098474533
 20
51.768575598109123
 30
0.0
  0
VERTEX
  5
E52
  8
SAPA_PROFIL
 10
36.308027098474533
 20
51.768575598109123
 30
0.0
  0
VERTEX
  5
E53
  8
SAPA_PROFIL
 10
36.308027098474533
 20
33.068575598109192
 30
0.0
  0
VERTEX
  5
E54
  8
SAPA_PROFIL
 10
33.308027098474533
 20
33.068575598109192
 30
0.0
  0
VERTEX
  5
E55
  8
SAPA_PROFIL
 10
33.308027098474533
 20
35.568575598109192
 30
0.0
  0
VERTEX
  5
E56
  8
SAPA_PROFIL
 10
32.308027098474518
 20
35.568575598109192
 30
0.0
  0
VERTEX
  5
E57
  8
SAPA_PROFIL
 10
31.508027098474521
 20
34.768575598109237
 30
0.0
  0
VERTEX
  5
E58
  8
SAPA_PROFIL
 10
31.508027098474521
 20
29.088190840379859
 30
0.0
  0
VERTEX
  5
E59
  8
SAPA_PROFIL
 10
31.808027098474529
 20
28.568575598109192
 30
0.0
  0
VERTEX
  5
E5A
  8
SAPA_PROFIL
 10
31.508027098474461
 20
28.048960355838521
 30
0.0
  0
VERTEX
  5
E5B
  8
SAPA_PROFIL
 10
31.508027098474461
 20
22.36857559810915
 30
0.0
  0
VERTEX
  5
E5C
  8
SAPA_PROFIL
 10
32.308027098474518
 20
21.568575598109138
 30
0.0
  0
VERTEX
  5
E5D
  8
SAPA_PROFIL
 10
33.308027098474533
 20
21.568575598109138
 30
0.0
  0
VERTEX
  5
E5E
  8
SAPA_PROFIL
 10
33.308027098474533
 20
24.068575598109138
 30
0.0
  0
VERTEX
  5
E5F
  8
SAPA_PROFIL
 10
36.308027098474533
 20
24.068575598109138
 30
0.0
  0
VERTEX
  5
E60
  8
SAPA_PROFIL
 10
36.308027098474533
 20
5.3685755981091461
 30
0.0
  0
VERTEX
  5
E61
  8
SAPA_PROFIL
 10
33.308027098474533
 20
5.3685755981091461
 30
0.0
  0
VERTEX
  5
E62
  8
SAPA_PROFIL
 10
33.308027098474533
 20
7.5685755981091338
 30
0.0
  0
VERTEX
  5
E63
  8
SAPA_PROFIL
 10
32.308027098474518
 20
7.5685755981091338
 30
0.0
  0
VERTEX
  5
E64
  8
SAPA_PROFIL
 10
31.308027098474529
 20
6.5685755981091338
 30
0.0
  0
VERTEX
  5
E65
  8
SAPA_PROFIL
 10
31.308027098474529
 20
5.3685755981091461
 30
0.0
  0
VERTEX
  5
E66
  8
SAPA_PROFIL
 10
21.308027098474518
 20
5.3685755981090892
 30
0.0
 42
-0.4142135623730951
  0
VERTEX
  5
E67
  8
SAPA_PROFIL
 10
20.808027098474501
 20
5.8685755981090892
 30
0.0
  0
VERTEX
  5
E68
  8
SAPA_PROFIL
 10
20.808027098474501
 20
7.0785755981090679
 30
0.0
 42
0.4142135623730951
  0
VERTEX
  5
E69
  8
SAPA_PROFIL
 10
19.818027098474492
 20
8.0685755981090779
 30
0.0
  0
VERTEX
  5
E6A
  8
SAPA_PROFIL
 10
19.298027098474499
 20
8.0685755981090779
 30
0.0
 42
0.4142135623730951
  0
VERTEX
  5
E6B
  8
SAPA_PROFIL
 10
18.308027098474501
 20
7.0785755981090679
 30
0.0
  0
VERTEX
  5
E6C
  8
SAPA_PROFIL
 10
18.308027098474501
 20
7.068575598109077
 30
0.0
  0
VERTEX
  5
E6D
  8
SAPA_PROFIL
 10
19.558027098474501
 20
7.068575598109077
 30
0.0
  0
VERTEX
  5
E6E
  8
SAPA_PROFIL
 10
19.558027098474501
 20
5.568575598109077
 30
0.0
 42
-0.4142135623730951
  0
VERTEX
  5
E6F
  8
SAPA_PROFIL
 10
19.05802709847449
 20
5.068575598109077
 30
0.0
  0
VERTEX
  5
E70
  8
SAPA_PROFIL
 10
11.05802709847449
 20
5.068575598109077
 30
0.0
 42
-0.4142135623730951
  0
VERTEX
  5
E71
  8
SAPA_PROFIL
 10
10.558027098474501
 20
5.568575598109077
 30
0.0
  0
VERTEX
  5
E72
  8
SAPA_PROFIL
 10
10.558027098474501
 20
7.068575598109077
 30
0.0
  0
VERTEX
  5
E73
  8
SAPA_PROFIL
 10
11.808027098474501
 20
7.068575598109077
 30
0.0
  0
VERTEX
  5
E74
  8
SAPA_PROFIL
 10
11.808027098474501
 20
7.0785755981090679
 30
0.0
 42
0.4142135623730951
  0
VERTEX
  5
E75
  8
SAPA_PROFIL
 10
10.818027098474481
 20
8.0685755981090779
 30
0.0
  0
VERTEX
  5
E76
  8
SAPA_PROFIL
 10
9.6080270984744516
 20
8.0685755981090779
 30
0.0
 42
0.4142135623730673
  0
VERTEX
  5
E77
  8
SAPA_PROFIL
 10
9.3080270984744686
 20
7.7685755981090656
 30
0.0
  0
VERTEX
  5
E78
  8
SAPA_PROFIL
 10
9.3080270984744971
 20
3.8685755981090888
 30
0.0
 42
0.4142135623730951
  0
VERTEX
  5
E79
  8
SAPA_PROFIL
 10
9.6080270984744516
 20
3.5685755981091338
 30
0.0
  0
VERTEX
  5
E7A
  8
SAPA_PROFIL
 10
98.008027098474443
 20
3.5685755981091911
 30
0.0
 42
0.4142135623730951
  0
VERTEX
  5
E7B
  8
SAPA_PROFIL
 10
98.308027098474454
 20
3.868575598109202
 30
0.0
  0
VERTEX
  5
E7C
  8
SAPA_PROFIL
 10
98.308027098474454
 20
7.7685755981091802
 30
0.0
 42
0.4142135623730951
  0
VERTEX
  5
E7D
  8
SAPA_PROFIL
 10
98.008027098474443
 20
8.0685755981091916
 30
0.0
  0
VERTEX
  5
E7E
  8
SAPA_PROFIL
 10
96.798027098474535
 20
8.0685755981091347
 30
0.0
 42
0.4142135623731035
  0
VERTEX
  5
E7F
  8
SAPA_PROFIL
 10
95.808027098474525
 20
7.0785755981091816
 30
0.0
  0
VERTEX
  5
E80
  8
SAPA_PROFIL
 10
95.808027098474525
 20
7.0685755981091907
 30
0.0
  0
VERTEX
  5
E81
  8
SAPA_PROFIL
 10
97.058027098474525
 20
7.0685755981091907
 30
0.0
  0
VERTEX
  5
E82
  8
SAPA_PROFIL
 10
97.058027098474525
 20
5.5685755981091907
 30
0.0
 42
-0.4142135623730951
  0
VERTEX
  5
E83
  8
SAPA_PROFIL
 10
96.558027098474525
 20
5.0685755981091907
 30
0.0
  0
VERTEX
  5
E84
  8
SAPA_PROFIL
 10
88.534240569419666
 20
5.0685755981091907
 30
0.0
 42
-0.4142135623730783
  0
VERTEX
  5
E85
  8
SAPA_PROFIL
 10
88.034240569419609
 20
5.5685755981091338
 30
0.0
  0
VERTEX
  5
E86
  8
SAPA_PROFIL
 10
88.034240569419666
 20
7.0685755981091338
 30
0.0
  0
VERTEX
  5
E87
  8
SAPA_PROFIL
 10
89.284240569419666
 20
7.0685755981091907
 30
0.0
  0
VERTEX
  5
E88
  8
SAPA_PROFIL
 10
89.284240569419666
 20
7.0785755981091816
 30
0.0
 42
0.4142135623731035
  0
VERTEX
  5
E89
  8
SAPA_PROFIL
 10
88.294240569419657
 20
8.0685755981091347
 30
0.0
  0
VERTEX
  5
E8A
  8
SAPA_PROFIL
 10
87.774240569419675
 20
8.0685755981091347
 30
0.0
 42
0.4142135623730951
  0
VERTEX
  5
E8B
  8
SAPA_PROFIL
 10
86.784240569419666
 20
7.0785755981091247
 30
0.0
  0
VERTEX
  5
E8C
  8
SAPA_PROFIL
 10
86.784240569419666
 20
5.8685755981091461
 30
0.0
 42
-0.4142135623730784
  0
VERTEX
  5
E8D
  8
SAPA_PROFIL
 10
86.284240569419666
 20
5.368575598109202
 30
0.0
  0
VERTEX
  5
E8E
  8
SAPA_PROFIL
 10
84.308027098474525
 20
5.3685755981091461
 30
0.0
 42
-0.4142135623730951
  0
VERTEX
  5
E8F
  8
SAPA_PROFIL
 10
83.808027098474525
 20
5.8685755981091461
 30
0.0
  0
VERTEX
  5
E90
  8
SAPA_PROFIL
 10
83.808027098474525
 20
44.368575598109139
 30
0.0
 42
-0.4142135623730951
  0
VERTEX
  5
E91
  8
SAPA_PROFIL
 10
84.308027098474525
 20
44.868575598109139
 30
0.0
  0
VERTEX
  5
E92
  8
SAPA_PROFIL
 10
85.808027098474454
 20
44.868575598109139
 30
0.0
 42
0.4142135623730951
  0
VERTEX
  5
E93
  8
SAPA_PROFIL
 10
86.308027098474469
 20
45.368575598109139
 30
0.0
  0
VERTEX
  5
E94
  8
SAPA_PROFIL
 10
86.308027098474525
 20
45.568575598109192
 30
0.0
 42
0.4142135623730951
  0
VERTEX
  5
E95
  8
SAPA_PROFIL
 10
85.308027098474525
 20
46.568575598109177
 30
0.0
  0
VERTEX
  5
E96
  8
SAPA_PROFIL
 10
77.308027098474525
 20
46.568575598109177
 30
0.0
 42
-0.4142135623730951
  0
VERTEX
  5
E97
  8
SAPA_PROFIL
 10
76.308027098474525
 20
47.568575598109192
 30
0.0
  0
SEQEND
  5
E98
  8
SAPA_PROFIL
  0
POLYLINE
  5
8DB
  8
SAPA_PROFIL
 66
     1
 10
0.0
 20
0.0
 30
0.0
 70
     1
  0
VERTEX
  5
E99
  8
SAPA_PROFIL
 10
82.008027098474514
 20
14.04896035583846
 30
0.0
  0
VERTEX
  5
E9A
  8
SAPA_PROFIL
 10
82.308027098474469
 20
14.568575598109129
 30
0.0
  0
VERTEX
  5
E9B
  8
SAPA_PROFIL
 10
82.008027098474514
 20
15.08819084037969
 30
0.0
  0
VERTEX
  5
E9C
  8
SAPA_PROFIL
 10
82.008027098474514
 20
20.068575598109192
 30
0.0
  0
VERTEX
  5
E9D
  8
SAPA_PROFIL
 10
81.998027098474594
 20
20.068575598109192
 30
0.0
  0
VERTEX
  5
E9E
  8
SAPA_PROFIL
 10
81.308027098474582
 20
20.758575598109129
 30
0.0
  0
VERTEX
  5
E9F
  8
SAPA_PROFIL
 10
81.308027098474625
 20
28.048960355838521
 30
0.0
  0
VERTEX
  5
EA0
  8
SAPA_PROFIL
 10
81.608027098474636
 20
28.568575598109192
 30
0.0
  0
VERTEX
  5
EA1
  8
SAPA_PROFIL
 10
81.308027098474625
 20
29.088190840379859
 30
0.0
  0
VERTEX
  5
EA2
  8
SAPA_PROFIL
 10
81.308027098474696
 20
36.378575598109137
 30
0.0
  0
VERTEX
  5
EA3
  8
SAPA_PROFIL
 10
81.998027098474694
 20
37.068575598109192
 30
0.0
  0
VERTEX
  5
EA4
  8
SAPA_PROFIL
 10
82.008027098474514
 20
37.068575598109192
 30
0.0
  0
VERTEX
  5
EA5
  8
SAPA_PROFIL
 10
82.008027098474514
 20
40.54896035583851
 30
0.0
  0
VERTEX
  5
EA6
  8
SAPA_PROFIL
 10
82.308027098474525
 20
41.068575598109192
 30
0.0
  0
VERTEX
  5
EA7
  8
SAPA_PROFIL
 10
82.008027098474514
 20
41.588190840379859
 30
0.0
  0
VERTEX
  5
EA8
  8
SAPA_PROFIL
 10
82.008027098474457
 20
44.368575598109139
 30
0.0
 42
0.4142135623730951
  0
VERTEX
  5
EA9
  8
SAPA_PROFIL
 10
81.508027098474443
 20
44.868575598109139
 30
0.0
  0
VERTEX
  5
EAA
  8
SAPA_PROFIL
 10
75.508027098474571
 20
44.868575598109139
 30
0.0
 42
-0.4142135623730951
  0
VERTEX
  5
EAB
  8
SAPA_PROFIL
 10
74.508027098474571
 20
45.868575598109153
 30
0.0
  0
VERTEX
  5
EAC
  8
SAPA_PROFIL
 10
74.508027098474571
 20
51.268575598109123
 30
0.0
 42
0.4142135623730951
  0
VERTEX
  5
EAD
  8
SAPA_PROFIL
 10
74.008027098474571
 20
51.768575598109123
 30
0.0
  0
VERTEX
  5
EAE
  8
SAPA_PROFIL
 10
38.10802709847448
 20
51.768575598109123
 30
0.0
  0
VERTEX
  5
EAF
  8
SAPA_PROFIL
 10
38.10802709847448
 20
30.663575598109219
 30
0.0
 42
-0.4142135623730951
  0
VERTEX
  5
EB0
  8
SAPA_PROFIL
 10
37.613027098474483
 20
30.168575598109211
 30
0.0
  0
VERTEX
  5
EB1
  8
SAPA_PROFIL
 10
37.603027098474541
 20
30.168575598109211
 30
0.0
 42
-0.4142135623730951
  0
VERTEX
  5
EB2
  8
SAPA_PROFIL
 10
37.108027098474537
 20
30.663575598109219
 30
0.0
  0
VERTEX
  5
EB3
  8
SAPA_PROFIL
 10
37.108027098474537
 20
30.823575598109191
 30
0.0
 42
0.4142135623730783
  0
VERTEX
  5
EB4
  8
SAPA_PROFIL
 10
36.613027098474589
 20
31.318575598109192
 30
0.0
  0
VERTEX
  5
EB5
  8
SAPA_PROFIL
 10
35.808027098474533
 20
31.318575598109192
 30
0.0
 42
0.3747564601179691
  0
VERTEX
  5
EB6
  8
SAPA_PROFIL
 10
33.083632055240152
 20
28.942970641345429
 30
0.0
  0
VERTEX
  5
EB7
  8
SAPA_PROFIL
 10
33.458027098474901
 20
28.568575598109192
 30
0.0
  0
VERTEX
  5
EB8
  8
SAPA_PROFIL
 10
33.083632055238439
 20
28.19418055487267
 30
0.0
 42
0.3747564601179678
  0
VERTEX
  5
EB9
  8
SAPA_PROFIL
 10
35.808027098474469
 20
25.818575598109131
 30
0.0
  0
VERTEX
  5
EBA
  8
SAPA_PROFIL
 10
36.613027098474589
 20
25.818575598109131
 30
0.0
 42
0.4142135623730782
  0
VERTEX
  5
EBB
  8
SAPA_PROFIL
 10
37.108027098474601
 20
26.313575598109079
 30
0.0
  0
VERTEX
  5
EBC
  8
SAPA_PROFIL
 10
37.108027098474537
 20
26.473575598109171
 30
0.0
 42
-0.4142135623731118
  0
VERTEX
  5
EBD
  8
SAPA_PROFIL
 10
37.603027098474541
 20
26.968575598109108
 30
0.0
  0
VERTEX
  5
EBE
  8
SAPA_PROFIL
 10
37.613027098474483
 20
26.968575598109169
 30
0.0
 42
-0.4142135623731118
  0
VERTEX
  5
EBF
  8
SAPA_PROFIL
 10
38.108027098474537
 20
26.473575598109171
 30
0.0
  0
VERTEX
  5
EC0
  8
SAPA_PROFIL
 10
38.108027098474537
 20
5.3685755981091461
 30
0.0
  0
VERTEX
  5
EC1
  8
SAPA_PROFIL
 10
81.508027098474514
 20
5.3685755981091461
 30
0.0
 42
0.4142135623730951
  0
VERTEX
  5
EC2
  8
SAPA_PROFIL
 10
82.008027098474514
 20
5.8685755981091461
 30
0.0
  0
SEQEND
  5
EC3
  8
SAPA_PROFIL
  0
POLYLINE
  5
8DC
  8
SAPA_PROFIL
 66
     1
 10
0.0
 20
0.0
 30
0.0
 70
     1
  0
VERTEX
  5
EC4
  8
SAPA_PROFIL
 10
81.308027098474554
 20
49.36857559810926
 30
0.0
 42
0.4142135623730951
  0
VERTEX
  5
EC5
  8
SAPA_PROFIL
 10
81.608027098474494
 20
49.068575598109192
 30
0.0
  0
VERTEX
  5
EC6
  8
SAPA_PROFIL
 10
82.818027098474545
 20
49.068575598109078
 30
0.0
 42
0.4142135623730951
  0
VERTEX
  5
EC7
  8
SAPA_PROFIL
 10
83.808027098474554
 20
50.058575598109087
 30
0.0
  0
VERTEX
  5
EC8
  8
SAPA_PROFIL
 10
83.808027098474554
 20
50.068575598109071
 30
0.0
  0
VERTEX
  5
EC9
  8
SAPA_PROFIL
 10
82.558027098474554
 20
50.068575598109071
 30
0.0
  0
VERTEX
  5
ECA
  8
SAPA_PROFIL
 10
82.558027098474554
 20
51.568575598109078
 30
0.0
 42
-0.4142135623730951
  0
VERTEX
  5
ECB
  8
SAPA_PROFIL
 10
83.058027098474554
 20
52.068575598109078
 30
0.0
  0
VERTEX
  5
ECC
  8
SAPA_PROFIL
 10
91.058027098474554
 20
52.068575598109078
 30
0.0
 42
-0.4142135623730951
  0
VERTEX
  5
ECD
  8
SAPA_PROFIL
 10
91.558027098474554
 20
51.568575598109078
 30
0.0
  0
VERTEX
  5
ECE
  8
SAPA_PROFIL
 10
91.558027098474554
 20
50.068575598109071
 30
0.0
  0
VERTEX
  5
ECF
  8
SAPA_PROFIL
 10
90.308027098474554
 20
50.068575598109071
 30
0.0
  0
VERTEX
  5
ED0
  8
SAPA_PROFIL
 10
90.308027098474554
 20
50.058575598109087
 30
0.0
 42
0.4142135623730951
  0
VERTEX
  5
ED1
  8
SAPA_PROFIL
 10
91.298027098474563
 20
49.068575598109078
 30
0.0
  0
VERTEX
  5
ED2
  8
SAPA_PROFIL
 10
91.818027098474545
 20
49.068575598109078
 30
0.0
 42
0.4142135623730951
  0
VERTEX
  5
ED3
  8
SAPA_PROFIL
 10
92.808027098474554
 20
50.058575598109087
 30
0.0
  0
VERTEX
  5
ED4
  8
SAPA_PROFIL
 10
92.808027098474497
 20
51.268575598109123
 30
0.0
 42
-0.4142135623730951
  0
VERTEX
  5
ED5
  8
SAPA_PROFIL
 10
93.308027098474497
 20
51.768575598109123
 30
0.0
  0
VERTEX
  5
ED6
  8
SAPA_PROFIL
 10
95.308027098474554
 20
51.768575598109123
 30
0.0
 42
-0.4142135623730951
  0
VERTEX
  5
ED7
  8
SAPA_PROFIL
 10
95.808027098474554
 20
51.268575598109123
 30
0.0
  0
VERTEX
  5
ED8
  8
SAPA_PROFIL
 10
95.808027098474497
 20
12.76857559810912
 30
0.0
 42
-0.4142135623730951
  0
VERTEX
  5
ED9
  8
SAPA_PROFIL
 10
95.308027098474497
 20
12.26857559810912
 30
0.0
  0
VERTEX
  5
EDA
  8
SAPA_PROFIL
 10
93.808027098474497
 20
12.26857559810912
 30
0.0
 42
0.4142135623730951
  0
VERTEX
  5
EDB
  8
SAPA_PROFIL
 10
93.308027098474497
 20
11.76857559810912
 30
0.0
  0
VERTEX
  5
EDC
  8
SAPA_PROFIL
 10
93.308027098474497
 20
11.56857559810919
 30
0.0
 42
0.4142135623730951
  0
VERTEX
  5
EDD
  8
SAPA_PROFIL
 10
94.308027098474497
 20
10.56857559810919
 30
0.0
  0
VERTEX
  5
EDE
  8
SAPA_PROFIL
 10
102.3080270984745
 20
10.56857559810919
 30
0.0
 42
-0.4142135623730951
  0
VERTEX
  5
EDF
  8
SAPA_PROFIL
 10
103.3080270984745
 20
9.5685755981091916
 30
0.0
  0
VERTEX
  5
EE0
  8
SAPA_PROFIL
 10
103.3080270984745
 20
4.0685755981091907
 30
0.0
 42
0.4142135623730951
  0
VERTEX
  5
EE1
  8
SAPA_PROFIL
 10
103.8080270984745
 20
3.5685755981091911
 30
0.0
  0
VERTEX
  5
EE2
  8
SAPA_PROFIL
 10
148.3080270984745
 20
3.568575598109077
 30
0.0
  0
VERTEX
  5
EE3
  8
SAPA_PROFIL
 10
148.3080270984745
 20
6.568575598109077
 30
0.0
  0
VERTEX
  5
EE4
  8
SAPA_PROFIL
 10
147.3080270984745
 20
7.568575598109077
 30
0.0
  0
VERTEX
  5
EE5
  8
SAPA_PROFIL
 10
146.3080270984745
 20
7.568575598109077
 30
0.0
  0
VERTEX
  5
EE6
  8
SAPA_PROFIL
 10
146.3080270984745
 20
5.3685755981091461
 30
0.0
  0
VERTEX
  5
EE7
  8
SAPA_PROFIL
 10
143.3080270984745
 20
5.3685755981091461
 30
0.0
  0
VERTEX
  5
EE8
  8
SAPA_PROFIL
 10
143.3080270984745
 20
24.068575598109081
 30
0.0
  0
VERTEX
  5
EE9
  8
SAPA_PROFIL
 10
146.3080270984745
 20
24.068575598109081
 30
0.0
  0
VERTEX
  5
EEA
  8
SAPA_PROFIL
 10
146.3080270984745
 20
21.568575598109081
 30
0.0
  0
VERTEX
  5
EEB
  8
SAPA_PROFIL
 10
147.3080270984745
 20
21.568575598109081
 30
0.0
  0
VERTEX
  5
EEC
  8
SAPA_PROFIL
 10
148.10802709847451
 20
22.36857559810915
 30
0.0
  0
VERTEX
  5
EED
  8
SAPA_PROFIL
 10
148.10802709847451
 20
28.04896035583841
 30
0.0
  0
VERTEX
  5
EEE
  8
SAPA_PROFIL
 10
147.8080270984745
 20
28.568575598109081
 30
0.0
  0
VERTEX
  5
EEF
  8
SAPA_PROFIL
 10
148.10802709847451
 20
29.088190840379749
 30
0.0
  0
VERTEX
  5
EF0
  8
SAPA_PROFIL
 10
148.10802709847451
 20
34.76857559810913
 30
0.0
  0
VERTEX
  5
EF1
  8
SAPA_PROFIL
 10
147.3080270984745
 20
35.568575598109078
 30
0.0
  0
VERTEX
  5
EF2
  8
SAPA_PROFIL
 10
146.3080270984745
 20
35.568575598109078
 30
0.0
  0
VERTEX
  5
EF3
  8
SAPA_PROFIL
 10
146.3080270984745
 20
33.068575598109078
 30
0.0
  0
VERTEX
  5
EF4
  8
SAPA_PROFIL
 10
143.3080270984745
 20
33.068575598109078
 30
0.0
  0
VERTEX
  5
EF5
  8
SAPA_PROFIL
 10
143.3080270984745
 20
51.768575598109123
 30
0.0
  0
VERTEX
  5
EF6
  8
SAPA_PROFIL
 10
146.3080270984745
 20
51.768575598109123
 30
0.0
  0
VERTEX
  5
EF7
  8
SAPA_PROFIL
 10
146.3080270984745
 20
49.568575598109078
 30
0.0
  0
VERTEX
  5
EF8
  8
SAPA_PROFIL
 10
147.3080270984745
 20
49.568575598109078
 30
0.0
  0
VERTEX
  5
EF9
  8
SAPA_PROFIL
 10
148.3080270984745
 20
50.568575598109071
 30
0.0
  0
VERTEX
  5
EFA
  8
SAPA_PROFIL
 10
148.3080270984745
 20
53.568575598109078
 30
0.0
  0
VERTEX
  5
EFB
  8
SAPA_PROFIL
 10
81.608027098474494
 20
53.568575598109192
 30
0.0
 42
0.4142135623730951
  0
VERTEX
  5
EFC
  8
SAPA_PROFIL
 10
81.308027098474497
 20
53.268575598109123
 30
0.0
  0
SEQEND
  5
EFD
  8
SAPA_PROFIL
  0
POLYLINE
  5
8DD
  8
SAPA_PROFIL
 66
     1
 10
0.0
 20
0.0
 30
0.0
 70
     1
  0
VERTEX
  5
EFE
  8
SAPA_PROFIL
 10
140.8080270984745
 20
36.781856322469707
 30
0.0
  0
VERTEX
  5
EFF
  8
SAPA_PROFIL
 10
140.8080270984745
 20
30.76857559810913
 30
0.0
 42
0.4142135623730941
  0
VERTEX
  5
F00
  8
SAPA_PROFIL
 10
141.40802709847449
 20
30.168575598109101
 30
0.0
  0
VERTEX
  5
F01
  8
SAPA_PROFIL
 10
141.90802709847449
 20
30.168575598109101
 30
0.0
 42
0.4142135623730951
  0
VERTEX
  5
F02
  8
SAPA_PROFIL
 10
142.50802709847451
 20
30.76857559810913
 30
0.0
  0
VERTEX
  5
F03
  8
SAPA_PROFIL
 10
142.50802709847451
 20
30.823575598109191
 30
0.0
 42
-0.4142135623730866
  0
VERTEX
  5
F04
  8
SAPA_PROFIL
 10
143.00302709847449
 20
31.318575598109081
 30
0.0
  0
VERTEX
  5
F05
  8
SAPA_PROFIL
 10
143.8080270984745
 20
31.318575598109081
 30
0.0
 42
-0.3747564601179694
  0
VERTEX
  5
F06
  8
SAPA_PROFIL
 10
146.53242214171061
 20
28.9429706413456
 30
0.0
  0
VERTEX
  5
F07
  8
SAPA_PROFIL
 10
146.15802709847409
 20
28.568575598109081
 30
0.0
  0
VERTEX
  5
F08
  8
SAPA_PROFIL
 10
146.53242214170891
 20
28.194180554872901
 30
0.0
 42
-0.374756460117968
  0
VERTEX
  5
F09
  8
SAPA_PROFIL
 10
143.8080270984745
 20
25.818575598109081
 30
0.0
  0
VERTEX
  5
F0A
  8
SAPA_PROFIL
 10
143.00302709847449
 20
25.818575598109081
 30
0.0
 42
-0.4142135623730866
  0
VERTEX
  5
F0B
  8
SAPA_PROFIL
 10
142.50802709847451
 20
26.313575598109079
 30
0.0
  0
VERTEX
  5
F0C
  8
SAPA_PROFIL
 10
142.5080270984744
 20
26.368575598109029
 30
0.0
 42
0.4142135623730951
  0
VERTEX
  5
F0D
  8
SAPA_PROFIL
 10
141.90802709847441
 20
26.968575598109059
 30
0.0
  0
VERTEX
  5
F0E
  8
SAPA_PROFIL
 10
141.40802709847449
 20
26.968575598109059
 30
0.0
 42
0.414213562373096
  0
VERTEX
  5
F0F
  8
SAPA_PROFIL
 10
140.8080270984745
 20
26.368575598109029
 30
0.0
  0
VERTEX
  5
F10
  8
SAPA_PROFIL
 10
140.8080270984745
 20
20.355294873748448
 30
0.0
  0
VERTEX
  5
F11
  8
SAPA_PROFIL
 10
141.5080270984744
 20
20.093575598109059
 30
0.0
  0
VERTEX
  5
F12
  8
SAPA_PROFIL
 10
141.5080270984744
 20
15.088190840379751
 30
0.0
  0
VERTEX
  5
F13
  8
SAPA_PROFIL
 10
141.80802709847441
 20
14.56857559810908
 30
0.0
  0
VERTEX
  5
F14
  8
SAPA_PROFIL
 10
141.5080270984744
 20
14.0489603558384
 30
0.0
  0
VERTEX
  5
F15
  8
SAPA_PROFIL
 10
141.5080270984744
 20
6.3685755981091461
 30
0.0
 42
-0.4142135623730951
  0
VERTEX
  5
F16
  8
SAPA_PROFIL
 10
140.5080270984744
 20
5.3685755981091461
 30
0.0
  0
VERTEX
  5
F17
  8
SAPA_PROFIL
 10
105.60802709847439
 20
5.3685755981091461
 30
0.0
 42
-0.4142135623730951
  0
VERTEX
  5
F18
  8
SAPA_PROFIL
 10
105.10802709847439
 20
5.8685755981091461
 30
0.0
  0
VERTEX
  5
F19
  8
SAPA_PROFIL
 10
105.10802709847439
 20
11.26857559810912
 30
0.0
 42
0.4142135623730951
  0
VERTEX
  5
F1A
  8
SAPA_PROFIL
 10
104.10802709847439
 20
12.26857559810912
 30
0.0
  0
VERTEX
  5
F1B
  8
SAPA_PROFIL
 10
99.308027098474383
 20
12.26857559810923
 30
0.0
 42
-0.4142135623730951
  0
VERTEX
  5
F1C
  8
SAPA_PROFIL
 10
98.308027098474383
 20
13.268575598109241
 30
0.0
  0
VERTEX
  5
F1D
  8
SAPA_PROFIL
 10
98.308027098474454
 20
50.768575598109123
 30
0.0
 42
-0.4142135623730951
  0
VERTEX
  5
F1E
  8
SAPA_PROFIL
 10
99.30802709847444
 20
51.768575598109123
 30
0.0
  0
VERTEX
  5
F1F
  8
SAPA_PROFIL
 10
140.50802709847451
 20
51.768575598109123
 30
0.0
 42
-0.4142135623730951
  0
VERTEX
  5
F20
  8
SAPA_PROFIL
 10
141.50802709847451
 20
50.768575598109123
 30
0.0
  0
VERTEX
  5
F21
  8
SAPA_PROFIL
 10
141.50802709847451
 20
43.088190840379859
 30
0.0
  0
VERTEX
  5
F22
  8
SAPA_PROFIL
 10
141.8080270984745
 20
42.568575598109071
 30
0.0
  0
VERTEX
  5
F23
  8
SAPA_PROFIL
 10
141.50802709847451
 20
42.048960355838403
 30
0.0
  0
VERTEX
  5
F24
  8
SAPA_PROFIL
 10
141.50802709847451
 20
37.043575598109101
 30
0.0
  0
SEQEND
  5
F25
  8
SAPA_PROFIL
  0
POLYLINE
  5
906
  8
SAPA_GLAS
 66
     1
 10
0.0
 20
0.0
 30
0.0
 70
     1
  0
VERTEX
  5
F4B
  8
SAPA_GLAS
 10
31.303743895631449
 20
20.438385371848579
 30
0.0
  0
VERTEX
  5
F4C
  8
SAPA_GLAS
 10
31.303743895631481
 20
33.538385371848612
 30
0.0
  0
VERTEX
  5
F4D
  8
SAPA_GLAS
 10
30.303743895631481
 20
33.538385371848612
 30
0.0
  0
VERTEX
  5
F4E
  8
SAPA_GLAS
 10
30.303743895631449
 20
21.438385371848579
 30
0.0
  0
VERTEX
  5
F4F
  8
SAPA_GLAS
 10
18.303743895631449
 20
21.438385371848579
 30
0.0
  0
VERTEX
  5
F50
  8
SAPA_GLAS
 10
18.303743895631449
 20
20.438385371848579
 30
0.0
  0
SEQEND
  5
F51
  8
SAPA_GLAS
  0
LINE
  5
907
  8
SAPA_GLAS
 62
     1
 10
15.75459074281475
 20
18.83838537184857
 30
0.0
 11
26.503742096813269
 21
18.83838537184856
 31
0.0
  0
LINE
  5
908
  8
SAPA_GLAS
 62
     1
 10
26.503742096813269
 20
12.232968125720429
 30
0.0
 11
15.812537228114429
 21
12.23296812572044
 31
0.0
  0
POLYLINE
  5
909
  8
SAPA_GLAS
 62
     6
 66
     1
 10
0.0
 20
0.0
 30
0.0
 70
     1
  0
VERTEX
  5
F52
  8
SAPA_GLAS
 62
     6
 10
30.308027094826691
 20
18.83838537184856
 30
0.0
  0
VERTEX
  5
F53
  8
SAPA_GLAS
 62
     6
 10
18.308027094826691
 20
18.83838537184856
 30
0.0
  0
VERTEX
  5
F54
  8
SAPA_GLAS
 62
     6
 10
18.308027094826691
 20
20.438385371848579
 30
0.0
  0
VERTEX
  5
F55
  8
SAPA_GLAS
 62
     6
 10
30.308027094826691
 20
20.438385371848579
 30
0.0
  0
SEQEND
  5
F56
  8
SAPA_GLAS
 62
     6
  0
POLYLINE
  5
90A
  8
SAPA_GLAS
 62
     6
 66
     1
 10
0.0
 20
0.0
 30
0.0
 70
     1
  0
VERTEX
  5
F57
  8
SAPA_GLAS
 62
     6
 10
30.308027094826691
 20
10.653624856966569
 30
0.0
  0
VERTEX
  5
F58
  8
SAPA_GLAS
 62
     6
 10
18.308027094826691
 20
10.653624856966569
 30
0.0
  0
VERTEX
  5
F59
  8
SAPA_GLAS
 62
     6
 10
18.308027094826691
 20
12.25362485696659
 30
0.0
  0
VERTEX
  5
F5A
  8
SAPA_GLAS
 62
     6
 10
30.308027094826691
 20
12.25362485696659
 30
0.0
  0
SEQEND
  5
F5B
  8
SAPA_GLAS
 62
     6
  0
POLYLINE
  5
90B
  8
SAPA_GLAS
 66
     1
 10
0.0
 20
0.0
 30
0.0
 70
     1
  0
VERTEX
  5
F5C
  8
SAPA_GLAS
 10
30.308027094826691
 20
10.653624856966569
 30
0.0
  0
VERTEX
  5
F5D
  8
SAPA_GLAS
 10
30.30802709482672
 20
34.053379744328183
 30
0.0
  0
VERTEX
  5
F5E
  8
SAPA_GLAS
 10
31.30802709482672
 20
34.053379744328183
 30
0.0
  0
VERTEX
  5
F5F
  8
SAPA_GLAS
 10
31.308027094826691
 20
9.653624856966573
 30
0.0
  0
VERTEX
  5
F60
  8
SAPA_GLAS
 10
18.308027094826691
 20
9.653624856966573
 30
0.0
  0
VERTEX
  5
F61
  8
SAPA_GLAS
 10
18.308027094826919
 20
10.653624856966569
 30
0.0
  0
SEQEND
  5
F62
  8
SAPA_GLAS
  0
LINE
  5
90C
  8
SAPA_GLAS
 62
     1
 10
26.30374209681327
 20
18.718385371848669
 30
0.0
 11
26.30374209681327
 21
12.232968125720429
 31
0.0
  0
POLYLINE
  5
90D
  8
SAPA_GLAS
 66
     1
 10
0.0
 20
0.0
 30
0.0
  0
VERTEX
  5
F63
  8
SAPA_GLAS
 10
-6.4085138090658802
 20
18.53585553302884
 30
0.0
  0
VERTEX
  5
F64
  8
SAPA_GLAS
 10
26.097767294827008
 20
18.535855533028819
 30
0.0
  0
VERTEX
  5
F65
  8
SAPA_GLAS
 10
26.097767294827008
 20
12.535855533028821
 30
0.0
  0
VERTEX
  5
F66
  8
SAPA_GLAS
 10
-6.4085138090658234
 20
12.53585553302883
 30
0.0
  0
SEQEND
  5
F67
  8
SAPA_GLAS
  0
LINE
  5
90E
  8
SAPA_GLAS
  6
BYGG-022629$0$DASHDOT
 62
     2
 10
36.61113391046252
 20
28.540498018727352
 30
0.0
 11
25.226372132446709
 21
28.540498018727352
 31
0.0
  0
POLYLINE
  5
91B
  8
SAPA_FOGBAND
 66
     1
 10
0.0
 20
0.0
 30
0.0
 70
     1
  0
VERTEX
  5
F9C
  8
SAPA_FOGBAND
 10
91.141498933750455
 20
50.449332521704441
 30
0.0
  0
VERTEX
  5
F9D
  8
SAPA_FOGBAND
 10
90.362353295212216
 20
51.842066090846117
 30
0.0
  0
VERTEX
  5
F9E
  8
SAPA_FOGBAND
 10
87.092546713031595
 20
51.842066090846011
 30
0.0
  0
VERTEX
  5
F9F
  8
SAPA_FOGBAND
 10
83.822740130850889
 20
51.842066090846011
 30
0.0
  0
VERTEX
  5
FA0
  8
SAPA_FOGBAND
 10
83.043594492312707
 20
50.449332521704328
 30
0.0
 42
0.5728458134769883
  0
VERTEX
  5
FA1
  8
SAPA_FOGBAND
 10
83.130866060188609
 20
50.300509643455769
 30
0.0
  0
VERTEX
  5
FA2
  8
SAPA_FOGBAND
 10
83.822740130850889
 20
50.300509643455769
 30
0.0
 42
-0.9999999999999998
  0
VERTEX
  5
FA3
  8
SAPA_FOGBAND
 10
83.822740130850889
 20
49.014990253071531
 30
0.0
 42
0.9999999999999998
  0
VERTEX
  5
FA4
  8
SAPA_FOGBAND
 10
83.822740130850889
 20
46.7506625301748
 30
0.0
  0
VERTEX
  5
FA5
  8
SAPA_FOGBAND
 10
87.092546713031595
 20
46.7506625301748
 30
0.0
  0
VERTEX
  5
FA6
  8
SAPA_FOGBAND
 10
90.362353295212273
 20
46.7506625301748
 30
0.0
 42
1.000000000000012
  0
VERTEX
  5
FA7
  8
SAPA_FOGBAND
 10
90.362353295212273
 20
49.014990253071531
 30
0.0
 42
-0.9999999999999998
  0
VERTEX
  5
FA8
  8
SAPA_FOGBAND
 10
90.362353295212273
 20
50.300509643455769
 30
0.0
  0
VERTEX
  5
FA9
  8
SAPA_FOGBAND
 10
91.054227365874539
 20
50.300509643455769
 30
0.0
 42
0.5728458134769883
  0
SEQEND
  5
FAA
  8
SAPA_FOGBAND
  0
POLYLINE
  5
91C
  8
SAPA_FOGBAND
 66
     1
 10
0.0
 20
0.0
 30
0.0
 70
     1
  0
VERTEX
  5
FAB
  8
SAPA_FOGBAND
 10
83.822740130850889
 20
47.150662530174777
 30
0.0
 42
-0.9999999999999998
  0
VERTEX
  5
FAC
  8
SAPA_FOGBAND
 10
83.822740130850889
 20
48.614990253071539
 30
0.0
  0
VERTEX
  5
FAD
  8
SAPA_FOGBAND
 10
90.362353295212273
 20
48.614990253071539
 30
0.0
 42
-1.000000000000012
  0
VERTEX
  5
FAE
  8
SAPA_FOGBAND
 10
90.362353295212273
 20
47.150662530174777
 30
0.0
  0
VERTEX
  5
FAF
  8
SAPA_FOGBAND
 10
87.092546713031595
 20
47.150662530174777
 30
0.0
  0
SEQEND
  5
FB0
  8
SAPA_FOGBAND
  0
POLYLINE
  5
91D
  8
SAPA_FOGBAND
 66
     1
 10
0.0
 20
0.0
 30
0.0
 70
     1
  0
VERTEX
  5
FB1
  8
SAPA_FOGBAND
 10
85.671521479846277
 20
51.119701357254662
 30
0.0
 42
0.9999999999999998
  0
VERTEX
  5
FB2
  8
SAPA_FOGBAND
 10
85.671521479846277
 20
49.756705463734939
 30
0.0
  0
VERTEX
  5
FB3
  8
SAPA_FOGBAND
 10
88.307561636328984
 20
49.756705463734939
 30
0.0
 42
0.9944227986505279
  0
VERTEX
  5
FB4
  8
SAPA_FOGBAND
 10
88.315184655867682
 20
51.119701357254783
 30
0.0
  0
SEQEND
  5
FB5
  8
SAPA_FOGBAND
  0
POLYLINE
  5
91E
  8
SAPA_FOGBAND
 66
     1
 10
0.0
 20
0.0
 30
0.0
 70
     1
  0
VERTEX
  5
FB6
  8
SAPA_FOGBAND
 10
93.932639452575344
 20
6.017449838963671
 30
0.0
 42
0.9999999999999998
  0
VERTEX
  5
FB7
  8
SAPA_FOGBAND
 10
93.932639452575344
 20
7.3804457324833939
 30
0.0
  0
VERTEX
  5
FB8
  8
SAPA_FOGBAND
 10
91.296599296092594
 20
7.3804457324833939
 30
0.0
 42
0.9944227986505279
  0
VERTEX
  5
FB9
  8
SAPA_FOGBAND
 10
91.288976276553896
 20
6.017449838963671
 30
0.0
  0
SEQEND
  5
FBA
  8
SAPA_FOGBAND
  0
POLYLINE
  5
91F
  8
SAPA_FOGBAND
 66
     1
 10
0.0
 20
0.0
 30
0.0
 70
     1
  0
VERTEX
  5
FBB
  8
SAPA_FOGBAND
 10
95.781420801570704
 20
9.9864886660436127
 30
0.0
 42
-0.9999999999999998
  0
VERTEX
  5
FBC
  8
SAPA_FOGBAND
 10
95.781420801570704
 20
8.5221609431469005
 30
0.0
  0
VERTEX
  5
FBD
  8
SAPA_FOGBAND
 10
89.241807637209305
 20
8.5221609431468437
 30
0.0
 42
-1.000000000000012
  0
VERTEX
  5
FBE
  8
SAPA_FOGBAND
 10
89.241807637209305
 20
9.9864886660435541
 30
0.0
  0
VERTEX
  5
FBF
  8
SAPA_FOGBAND
 10
92.511614219389998
 20
9.9864886660436127
 30
0.0
  0
SEQEND
  5
FC0
  8
SAPA_FOGBAND
  0
POLYLINE
  5
920
  8
SAPA_FOGBAND
 66
     1
 10
0.0
 20
0.0
 30
0.0
 70
     1
  0
VERTEX
  5
FC1
  8
SAPA_FOGBAND
 10
88.462661998671123
 20
6.6878186745140047
 30
0.0
  0
VERTEX
  5
FC2
  8
SAPA_FOGBAND
 10
89.241807637209362
 20
5.2950851053723218
 30
0.0
  0
VERTEX
  5
FC3
  8
SAPA_FOGBAND
 10
92.511614219389998
 20
5.2950851053723786
 30
0.0
  0
VERTEX
  5
FC4
  8
SAPA_FOGBAND
 10
95.781420801570704
 20
5.2950851053723786
 30
0.0
  0
VERTEX
  5
FC5
  8
SAPA_FOGBAND
 10
96.5605664401089
 20
6.6878186745140047
 30
0.0
 42
0.5728458134769883
  0
VERTEX
  5
FC6
  8
SAPA_FOGBAND
 10
96.473294872232984
 20
6.8366415527626136
 30
0.0
  0
VERTEX
  5
FC7
  8
SAPA_FOGBAND
 10
95.781420801570704
 20
6.8366415527626136
 30
0.0
 42
-0.9999999999999998
  0
VERTEX
  5
FC8
  8
SAPA_FOGBAND
 10
95.781420801570704
 20
8.1221609431468664
 30
0.0
 42
0.9999999999999998
  0
VERTEX
  5
FC9
  8
SAPA_FOGBAND
 10
95.781420801570704
 20
10.38648866604364
 30
0.0
  0
VERTEX
  5
FCA
  8
SAPA_FOGBAND
 10
92.511614219389998
 20
10.38648866604364
 30
0.0
  0
VERTEX
  5
FCB
  8
SAPA_FOGBAND
 10
89.241807637209305
 20
10.38648866604359
 30
0.0
 42
1.000000000000012
  0
VERTEX
  5
FCC
  8
SAPA_FOGBAND
 10
89.241807637209305
 20
8.1221609431468096
 30
0.0
 42
-0.9999999999999998
  0
VERTEX
  5
FCD
  8
SAPA_FOGBAND
 10
89.241807637209305
 20
6.8366415527625568
 30
0.0
  0
VERTEX
  5
FCE
  8
SAPA_FOGBAND
 10
88.54993356654704
 20
6.8366415527625568
 30
0.0
 42
0.5728458134769883
  0
SEQEND
  5
FCF
  8
SAPA_FOGBAND
  0
INSERT
  5
921
  8
SAPA_FOGBAND
  2
BYGG-022629$0$18058
 10
13.70512097755215
 20
21.424482049009612
 30
0.0
 41
-1.0
 50
270.0
  0
INSERT
  5
922
  8
SAPA_FOGBAND
  2
BYGG-022629$0$18049
 10
15.35470867044034
 20
8.1379687185242489
 30
0.0
 41
-1.0
 50
270.0
  0
TEXT
  5
941
  8
SAPA_MATT
 62
     2
 10
75.850636879971859
 20
-25.696458629398489
 30
0.0
 40
3.0
  1
139
  7
ISO
  0
TEXT
  5
942
  8
SAPA_MATT
 62
     2
 10
99.695895064118517
 20
-15.09646793375793
 30
0.0
 40
3.0
  1
5
  7
ISO
  0
TEXT
  5
943
  8
SAPA_MATT
 62
     2
 10
123.4960757870183
 20
-15.09646793375793
 30
0.0
 40
3.0
  1
45
  7
ISO
  0
TEXT
  5
944
  8
SAPA_MATT
 62
     2
 10
51.600636879971837
 20
-15.11001734876721
 30
0.0
 40
3.0
  1
89
  7
ISO
  0
SOLID
  5
945
  8
SAPA_MATT
 10
95.308027098474469
 20
-15.61001734876721
 30
0.0
 11
95.308027098474469
 21
-16.610017348767212
 31
0.0
 12
98.308027098474454
 22
-16.110017348767212
 32
0.0
 13
98.308027098474454
 23
-16.110017348767212
 33
0.0
  0
SOLID
  5
946
  8
SAPA_MATT
 10
12.30802709847449
 20
-15.61001734876721
 30
0.0
 11
12.30802709847449
 21
-16.610017348767212
 31
0.0
 12
9.3080270984744953
 22
-16.110017348767212
 32
0.0
 13
9.3080270984744953
 23
-16.110017348767212
 33
0.0
  0
LINE
  5
947
  8
SAPA_MATT
 10
12.30802709847449
 20
-16.110017348767212
 30
0.0
 11
95.308027098474469
 21
-16.110017348767212
 31
0.0
  0
LINE
  5
948
  8
SAPA_MATT
 10
98.308027098474454
 20
2.368575598109202
 30
0.0
 11
98.308027098474454
 21
-17.610017348767212
 31
0.0
  0
LINE
  5
949
  8
SAPA_MATT
 10
9.3080270984744971
 20
2.3685755981090888
 30
0.0
 11
9.3080270984744953
 21
-17.610017348767212
 31
0.0
  0
SOLID
  5
94A
  8
SAPA_MATT
 10
145.3082078213742
 20
-15.59646793375793
 30
0.0
 11
145.3082078213742
 21
-16.596467933757928
 31
0.0
 12
148.3082078213742
 22
-16.096467933757928
 32
0.0
 13
148.3082078213742
 23
-16.096467933757928
 33
0.0
  0
SOLID
  5
94B
  8
SAPA_MATT
 10
106.3082078213742
 20
-15.59646793375793
 30
0.0
 11
106.3082078213742
 21
-16.596467933757928
 31
0.0
 12
103.3082078213742
 22
-16.096467933757928
 32
0.0
 13
103.3082078213742
 23
-16.096467933757928
 33
0.0
  0
LINE
  5
94C
  8
SAPA_MATT
 10
106.3082078213742
 20
-16.096467933757928
 30
0.0
 11
145.3082078213742
 21
-16.096467933757928
 31
0.0
  0
LINE
  5
94D
  8
SAPA_MATT
 10
148.3082078213742
 20
2.5656840318494001
 30
0.0
 11
148.3082078213742
 21
-17.596467933757928
 31
0.0
  0
LINE
  5
94E
  8
SAPA_MATT
 10
103.3082078213742
 20
2.5656840318494001
 30
0.0
 11
103.3082078213742
 21
-17.596467933757928
 31
0.0
  0
SOLID
  5
94F
  8
SAPA_MATT
 10
106.3080270984745
 20
-15.59646793375793
 30
0.0
 11
106.3080270984745
 21
-16.596467933757928
 31
0.0
 12
103.3080270984745
 22
-16.096467933757928
 32
0.0
 13
103.3080270984745
 23
-16.096467933757928
 33
0.0
  0
SOLID
  5
950
  8
SAPA_MATT
 10
95.308027098474469
 20
-15.59646793375793
 30
0.0
 11
95.308027098474469
 21
-16.596467933757928
 31
0.0
 12
98.308027098474454
 22
-16.096467933757928
 32
0.0
 13
98.308027098474454
 23
-16.096467933757928
 33
0.0
  0
LINE
  5
951
  8
SAPA_MATT
 10
98.308027098474454
 20
-16.096467933757928
 30
0.0
 11
103.3080270984745
 21
-16.096467933757928
 31
0.0
  0
LINE
  5
952
  8
SAPA_MATT
 10
106.3080270984745
 20
-16.096467933757928
 30
0.0
 11
109.3080270984745
 21
-16.096467933757928
 31
0.0
  0
LINE
  5
953
  8
SAPA_MATT
 10
95.308027098474469
 20
-16.096467933757928
 30
0.0
 11
92.308027098474469
 21
-16.096467933757928
 31
0.0
  0
LINE
  5
954
  8
SAPA_MATT
 10
103.3080270984745
 20
2.3685755981092589
 30
0.0
 11
103.3080270984745
 21
-17.596467933757928
 31
0.0
  0
LINE
  5
955
  8
SAPA_MATT
 10
98.308027098474454
 20
2.368575598109202
 30
0.0
 11
98.308027098474454
 21
-17.596467933757928
 31
0.0
  0
SOLID
  5
956
  8
SAPA_MATT
 10
145.3080270984745
 20
-26.196458629398489
 30
0.0
 11
145.3080270984745
 21
-27.196458629398489
 31
0.0
 12
148.3080270984745
 22
-26.696458629398489
 32
0.0
 13
148.3080270984745
 23
-26.696458629398489
 33
0.0
  0
SOLID
  5
957
  8
SAPA_MATT
 10
12.30802709847449
 20
-26.196458629398489
 30
0.0
 11
12.30802709847449
 21
-27.196458629398489
 31
0.0
 12
9.3080270984744953
 22
-26.696458629398489
 32
0.0
 13
9.3080270984744953
 23
-26.696458629398489
 33
0.0
  0
LINE
  5
958
  8
SAPA_MATT
 10
12.30802709847449
 20
-26.696458629398489
 30
0.0
 11
145.3080270984745
 21
-26.696458629398489
 31
0.0
  0
LINE
  5
959
  8
SAPA_MATT
 10
148.3080270984745
 20
3.568575598109077
 30
0.0
 11
148.3080270984745
 21
-28.196458629398489
 31
0.0
  0
LINE
  5
95A
  8
SAPA_MATT
 10
9.3080270984744971
 20
2.3685755981090888
 30
0.0
 11
9.3080270984744953
 21
-28.196458629398489
 31
0.0
  0
ENDSEC
  0
EOF
