  0
SECTION
  2
HEADER
  9
$ACADVER
  1
AC1009
  9
$INSBASE
 10
38.163526022609261
 20
444.14249232610922
 30
0.0
  9
$EXTMIN
 10
-37.450558058464033
 20
-29.896328522528119
 30
0.0
  9
$EXTMAX
 10
161.5960387412845
 20
67.418575598109214
 30
0.0
  9
$LIMMIN
 10
0.0
 20
0.0
  9
$LIMMAX
 10
998.0
 20
710.0
  9
$ORTHOMODE
 70
     0
  9
$REGENMODE
 70
     1
  9
$FILLMODE
 70
     1
  9
$QTEXTMODE
 70
     0
  9
$MIRRTEXT
 70
     1
  9
$DRAGMODE
 70
     2
  9
$LTSCALE
 40
7.0
  9
$OSMODE
 70
   167
  9
$ATTMODE
 70
     1
  9
$TEXTSIZE
 40
6.0
  9
$TRACEWID
 40
0.05
  9
$TEXTSTYLE
  7
ISO
  9
$CLAYER
  8
0
  9
$CELTYPE
  6
BYLAYER
  9
$CECOLOR
 62
   256
  9
$DIMSCALE
 40
0.0
  9
$DIMASZ
 40
3.0
  9
$DIMEXO
 40
1.5
  9
$DIMDLI
 40
10.0
  9
$DIMRND
 40
0.0
  9
$DIMDLE
 40
0.0
  9
$DIMEXE
 40
1.5
  9
$DIMTP
 40
0.0
  9
$DIMTM
 40
0.0
  9
$DIMTXT
 40
3.0
  9
$DIMCEN
 40
-5.0
  9
$DIMTSZ
 40
0.0
  9
$DIMTOL
 70
     0
  9
$DIMLIM
 70
     0
  9
$DIMTIH
 70
     0
  9
$DIMTOH
 70
     1
  9
$DIMSE1
 70
     0
  9
$DIMSE2
 70
     0
  9
$DIMTAD
 70
     1
  9
$DIMZIN
 70
     8
  9
$DIMBLK
  1

  9
$DIMASO
 70
     1
  9
$DIMSHO
 70
     1
  9
$DIMPOST
  1

  9
$DIMAPOST
  1

  9
$DIMALT
 70
     0
  9
$DIMALTD
 70
     0
  9
$DIMALTF
 40
25.399999999999999
  9
$DIMLFAC
 40
-1.0
  9
$DIMTOFL
 70
     1
  9
$DIMTVP
 40
0.0
  9
$DIMTIX
 70
     0
  9
$DIMSOXD
 70
     0
  9
$DIMSAH
 70
     0
  9
$DIMBLK1
  1

  9
$DIMBLK2
  1

  9
$DIMSTYLE
  2
MASKIN
  9
$DIMCLRD
 70
   256
  9
$DIMCLRE
 70
   256
  9
$DIMCLRT
 70
     2
  9
$DIMTFAC
 40
1.0
  9
$DIMGAP
 40
1.0
  9
$LUNITS
 70
     2
  9
$LUPREC
 70
     2
  9
$SKETCHINC
 40
0.1
  9
$FILLETRAD
 40
0.0
  9
$AUNITS
 70
     0
  9
$AUPREC
 70
     2
  9
$MENU
  1
ACAD
  9
$ELEVATION
 40
0.0
  9
$PELEVATION
 40
0.0
  9
$THICKNESS
 40
0.0
  9
$LIMCHECK
 70
     0
  9
$BLIPMODE
 70
     0
  9
$CHAMFERA
 40
0.0
  9
$CHAMFERB
 40
0.0
  9
$SKPOLY
 70
     0
  9
$TDCREATE
 40
2450345.5800671298
  9
$TDUPDATE
 40
2454866.3611205681
  9
$TDINDWG
 40
0.2441573958
  9
$TDUSRTIMER
 40
0.2441573958
  9
$USRTIMER
 70
     1
  9
$ANGBASE
 50
0.0
  9
$ANGDIR
 70
     0
  9
$PDMODE
 70
     3
  9
$PDSIZE
 40
0.0
  9
$PLINEWID
 40
0.0
  9
$COORDS
 70
     1
  9
$SPLFRAME
 70
     0
  9
$SPLINETYPE
 70
     6
  9
$SPLINESEGS
 70
     8
  9
$ATTDIA
 70
     0
  9
$ATTREQ
 70
     1
  9
$HANDLING
 70
     1
  9
$HANDSEED
  5
1279
  9
$SURFTAB1
 70
     6
  9
$SURFTAB2
 70
     6
  9
$SURFTYPE
 70
     6
  9
$SURFU
 70
     6
  9
$SURFV
 70
     6
  9
$UCSNAME
  2

  9
$UCSORG
 10
0.0
 20
0.0
 30
0.0
  9
$UCSXDIR
 10
1.0
 20
0.0
 30
0.0
  9
$UCSYDIR
 10
0.0
 20
1.0
 30
0.0
  9
$PUCSNAME
  2

  9
$PUCSORG
 10
0.0
 20
0.0
 30
0.0
  9
$PUCSXDIR
 10
1.0
 20
0.0
 30
0.0
  9
$PUCSYDIR
 10
0.0
 20
1.0
 30
0.0
  9
$USERI1
 70
     0
  9
$USERI2
 70
     0
  9
$USERI3
 70
     0
  9
$USERI4
 70
     0
  9
$USERI5
 70
     0
  9
$USERR1
 40
0.0
  9
$USERR2
 40
0.0
  9
$USERR3
 40
0.0
  9
$USERR4
 40
0.0
  9
$USERR5
 40
0.0
  9
$WORLDVIEW
 70
     1
  9
$SHADEDGE
 70
     1
  9
$SHADEDIF
 70
    70
  9
$TILEMODE
 70
     1
  9
$MAXACTVP
 70
    16
  9
$PLIMCHECK
 70
     0
  9
$PEXTMIN
 10
1.0000000000000000E+020
 20
1.0000000000000000E+020
 30
1.0000000000000000E+020
  9
$PEXTMAX
 10
-1.0000000000000000E+020
 20
-1.0000000000000000E+020
 30
-1.0000000000000000E+020
  9
$PLIMMIN
 10
-0.1666668268639272
 20
-0.166666657905879
  9
$PLIMMAX
 10
10.833332932840181
 20
8.3333331017982317
  9
$UNITMODE
 70
     0
  9
$VISRETAIN
 70
     1
  9
$PLINEGEN
 70
     0
  9
$PSLTSCALE
 70
     1
  0
ENDSEC
  0
SECTION
  2
TABLES
  0
TABLE
  2
VPORT
 70
     1
  0
VPORT
  2
*ACTIVE
 70
     0
 10
0.0
 20
0.0
 11
1.0
 21
1.0
 12
88.229946631395805
 22
18.739859586387301
 13
0.0
 23
0.0
 14
5.0
 24
5.0
 15
10.0
 25
10.0
 16
0.0
 26
0.0
 36
1.0
 17
0.0
 27
0.0
 37
0.0
 40
126.5385913914416
 41
1.995238095238095
 42
50.0
 43
0.0
 44
0.0
 50
0.0
 51
0.0
 71
     0
 72
   100
 73
     1
 74
     0
 75
     0
 76
     0
 77
     0
 78
     2
  0
ENDTAB
  0
TABLE
  2
LTYPE
 70
    13
  0
LTYPE
  2
CONTINUOUS
 70
     0
  3
Solid line
 72
    65
 73
     0
 40
0.0
  0
LTYPE
  2
BYGG-014554$0$NEWDOT
 70
     0
  3
____ . ____ . ____ . ____ . ____ . ____ . ____
 72
    65
 73
     4
 40
2.0
 49
1.0
 49
-0.5
 49
0.0
 49
-0.5
  0
LTYPE
  2
BYGG-022629$0$NEWDOT
 70
     0
  3
____ . ____ . ____ . ____ . ____ . ____ . ____
 72
    65
 73
     4
 40
2.0
 49
1.0
 49
-0.5
 49
0.0
 49
-0.5
  0
LTYPE
  2
BYGG-022629$0$DASHDOT
 70
     0
  3
__ . __ . __ . __ . __ . __ . __ . __ . __ . __
 72
    65
 73
     4
 40
1.0
 49
0.5
 49
-0.25
 49
0.0
 49
-0.25
  0
LTYPE
  2
BYGG-022629$0$DASHED
 70
     0
  3
__ __ __ __ __ __ __ __ __ __ __ __ __ __ __
 72
    65
 73
     2
 40
0.75
 49
0.5
 49
-0.25
  0
LTYPE
  2
BYGG-022629$0$PHANTOM
 70
     0
  3
Phantom ______  __  __  ______  __  __  ______
 72
    65
 73
     6
 40
63.5
 49
31.75
 49
-6.3499999999999988
 49
6.3499999999999988
 49
-6.3499999999999988
 49
6.3499999999999988
 49
-6.3499999999999988
  0
LTYPE
  2
BYGG-014203$0$DASHDOT
 70
     0
  3
__ . __ . __ . __ . __ . __ . __ . __ . __ . __
 72
    65
 73
     4
 40
1.0
 49
0.5
 49
-0.25
 49
0.0
 49
-0.25
  0
LTYPE
  2
DASHDOT
 70
     0
  3
__ . __ . __ . __ . __ . __ . __ . __ . __ . __
 72
    65
 73
     4
 40
1.0
 49
0.5
 49
-0.25
 49
0.0
 49
-0.25
  0
LTYPE
  2
BYGG-014557$0$NEWDOT
 70
     0
  3
____ . ____ . ____ . ____ . ____ . ____ . ____
 72
    65
 73
     4
 40
2.0
 49
1.0
 49
-0.5
 49
0.0
 49
-0.5
  0
LTYPE
  2
BYGG-021959$0$NEWDOT
 70
     0
  3
____ . ____ . ____ . ____ . ____ . ____ . ____
 72
    65
 73
     4
 40
2.0
 49
1.0
 49
-0.5
 49
0.0
 49
-0.5
  0
LTYPE
  2
BYGG-021959$0$DASHDOT
 70
     0
  3
__ . __ . __ . __ . __ . __ . __ . __ . __ . __
 72
    65
 73
     4
 40
1.0
 49
0.5
 49
-0.25
 49
0.0
 49
-0.25
  0
LTYPE
  2
BYGG-021959$0$DASHED
 70
     0
  3
__ __ __ __ __ __ __ __ __ __ __ __ __ __ __
 72
    65
 73
     2
 40
0.75
 49
0.5
 49
-0.25
  0
LTYPE
  2
BYGG-021959$0$PHANTOM
 70
     0
  3
Phantom ______  __  __  ______  __  __  ______
 72
    65
 73
     6
 40
63.5
 49
31.75
 49
-6.3499999999999988
 49
6.3499999999999988
 49
-6.3499999999999988
 49
6.3499999999999988
 49
-6.3499999999999988
  0
ENDTAB
  0
TABLE
  2
LAYER
 70
    77
  0
LAYER
  2
0
 70
     0
 62
     7
  6
CONTINUOUS
  0
LAYER
  2
SAPA_ARTIKELNR
 70
     0
 62
     4
  6
CONTINUOUS
  0
LAYER
  2
SAPA_GLAS
 70
     0
 62
     4
  6
CONTINUOUS
  0
LAYER
  2
SAPA_LIGHT
 70
     1
 62
     1
  6
CONTINUOUS
  0
LAYER
  2
1
 70
     0
 62
     1
  6
CONTINUOUS
  0
LAYER
  2
GÅNGJÄRN
 70
     0
 62
     1
  6
CONTINUOUS
  0
LAYER
  2
SAPA_MATT
 70
     0
 62
     1
  6
CONTINUOUS
  0
LAYER
  2
SAPA_FOGBAND
 70
     0
 62
     2
  6
CONTINUOUS
  0
LAYER
  2
SAPA_PROFIL
 70
     0
 62
     7
  6
CONTINUOUS
  0
ENDTAB
  0
TABLE
  2
STYLE
 70
    14
  0
STYLE
  2
STANDARD
 70
     0
 40
0.0
 41
1.0
 50
0.0
 71
     0
 42
0.2
  3
txt
  4

  0
STYLE
  2
ISO
 70
     0
 40
0.0
 41
1.0
 50
0.0
 71
     0
 42
6.0
  3
isocp3.shx
  4

  0
STYLE
  2
BYGG-022296$0$STANDARD
 70
     0
 40
0.0
 41
1.0
 50
0.0
 71
     0
 42
0.2
  3
txt
  4

  0
STYLE
  2
BYGG-022296$0$ISO
 70
     0
 40
0.0
 41
1.0
 50
0.0
 71
     0
 42
3.5
  3
txt
  4

  0
STYLE
  2
BYGG-014554$0$STANDARD
 70
     0
 40
0.0
 41
1.0
 50
0.0
 71
     0
 42
0.2
  3
txt
  4

  0
STYLE
  2
BYGG-014554$0$ISO
 70
     0
 40
0.0
 41
1.0
 50
0.0
 71
     0
 42
2.5
  3
isocp3.shx
  4

  0
STYLE
  2
BYGG-022629$0$STANDARD
 70
     0
 40
0.0
 41
1.0
 50
0.0
 71
     0
 42
0.2
  3
txt
  4

  0
STYLE
  2
BYGG-022629$0$ISO
 70
     0
 40
0.0
 41
1.0
 50
0.0
 71
     0
 42
3.5
  3
txt
  4

  0
STYLE
  2
BYGG-014203$0$STANDARD
 70
     0
 40
0.0
 41
1.0
 50
0.0
 71
     0
 42
0.2
  3
txt
  4

  0
STYLE
  2
BYGG-014203$0$ISO
 70
     0
 40
0.0
 41
1.0
 50
0.0
 71
     0
 42
3.5
  3
isocp3.shx
  4

  0
STYLE
  2
BYGG-021959$0$STANDARD
 70
     0
 40
0.0
 41
1.0
 50
0.0
 71
     0
 42
0.2
  3
txt
  4

  0
STYLE
  2
BYGG-021959$0$ISO
 70
     0
 40
0.0
 41
1.0
 50
0.0
 71
     0
 42
3.5
  3
txt
  4

  0
STYLE
  2
BYGG-014557$0$STANDARD
 70
     0
 40
0.0
 41
1.0
 50
0.0
 71
     0
 42
0.2
  3
txt
  4

  0
STYLE
  2
BYGG-014557$0$ISO
 70
     0
 40
0.0
 41
1.0
 50
0.0
 71
     0
 42
2.5
  3
isocp3.shx
  4

  0
ENDTAB
  0
TABLE
  2
VIEW
 70
     0
  0
ENDTAB
  0
TABLE
  2
UCS
 70
     0
  0
ENDTAB
  0
TABLE
  2
APPID
 70
    17
  0
APPID
  2
ACAD
 70
     0
  0
APPID
  2
ACAD_PSEXT
 70
     0
  0
APPID
  2
ACAECLAYERSTANDARD
 70
     0
  0
APPID
  2
ACAD_MLEADERVER
 70
     0
  0
APPID
  2
ACAD_DSTYLE_DIMTEXT_FILL
 70
     0
  0
APPID
  2
ACAD_DSTYLE_DIMEXT_LENGTH
 70
     0
  0
APPID
  2
ACAD_DSTYLE_DIMEXT_ENABLED
 70
     0
  0
APPID
  2
ACAD_DSTYLE_DIM_LINETYPE
 70
     0
  0
APPID
  2
ACAD_DSTYLE_DIM_EXT1_LINETYPE
 70
     0
  0
APPID
  2
ACAD_DSTYLE_DIM_EXT2_LINETYPE
 70
     0
  0
APPID
  2
ACAD_DSTYLE_DIMJOGGED_JOGA
 70
     0
  0
APPID
  2
ACAD_DSTYLE_DIMARC_LENGTH_
 70
     0
  0
APPID
  2
AMG_ARCHIVE11
 70
     0
  0
APPID
  2
ACAD_EXEMPT_FROM_CAD_STANDARDS
 70
     0
  0
APPID
  2
ACDBBLOCKREPETAG
 70
     0
  0
APPID
  2
ACAD_DSTYLE_DIMJAG
 70
     0
  0
APPID
  2
ACAD_DSTYLE_DIMTALN
 70
     0
  0
ENDTAB
  0
TABLE
  2
DIMSTYLE
 70
    13
  0
DIMSTYLE
  2
MASKIN
 70
     0
  3

  4

  5

  6

  7

 40
0.0
 41
3.0
 42
1.5
 43
10.0
 44
1.5
 45
0.0
 46
0.0
 47
0.0
 48
0.0
140
3.0
141
-5.0
142
0.0
143
25.399999999999999
144
-1.0
145
0.0
146
1.0
147
1.0
 71
     0
 72
     0
 73
     0
 74
     1
 75
     0
 76
     0
 77
     1
 78
     8
170
     0
171
     0
172
     1
173
     0
174
     0
175
     0
176
   256
177
   256
178
     2
  0
DIMSTYLE
  2
BYGG-022296$0$STANDARD
 70
     0
  3

  4

  5

  6

  7

 40
1.0
 41
0.18
 42
0.0625
 43
0.38
 44
0.18
 45
0.0
 46
0.0
 47
0.0
 48
0.0
140
0.18
141
0.09
142
0.0
143
25.399999999999999
144
1.0
145
0.0
146
1.0
147
0.09
 71
     0
 72
     0
 73
     1
 74
     1
 75
     0
 76
     0
 77
     0
 78
     0
170
     0
171
     2
172
     0
173
     0
174
     0
175
     0
176
     0
177
     0
178
     0
  0
DIMSTYLE
  2
BYGG-022296$0$MASKIN
 70
     0
  3

  4

  5

  6

  7

 40
0.0
 41
3.0
 42
1.5
 43
10.0
 44
1.5
 45
0.0
 46
0.0
 47
0.0
 48
0.0
140
3.0
141
-5.0
142
0.0
143
25.399999999999999
144
-1.0
145
0.0
146
1.0
147
1.0
 71
     0
 72
     0
 73
     0
 74
     0
 75
     0
 76
     0
 77
     1
 78
     8
170
     0
171
     0
172
     1
173
     0
174
     0
175
     0
176
   256
177
   256
178
     2
  0
DIMSTYLE
  2
BYGG-014554$0$STANDARD
 70
     0
  3

  4

  5

  6

  7

 40
1.0
 41
0.18
 42
0.0625
 43
0.38
 44
0.18
 45
0.0
 46
0.0
 47
0.0
 48
0.0
140
0.18
141
0.09
142
0.0
143
25.399999999999999
144
1.0
145
0.0
146
1.0
147
0.09
 71
     0
 72
     0
 73
     1
 74
     1
 75
     0
 76
     0
 77
     0
 78
     0
170
     0
171
     2
172
     0
173
     0
174
     0
175
     0
176
     0
177
     0
178
     0
  0
DIMSTYLE
  2
BYGG-014554$0$MASKIN
 70
     0
  3

  4

  5

  6

  7

 40
0.0
 41
3.0
 42
1.5
 43
10.0
 44
1.5
 45
0.0
 46
0.0
 47
0.0
 48
0.0
140
3.0
141
-5.0
142
0.0
143
25.399999999999999
144
-1.0
145
0.0
146
1.0
147
1.0
 71
     0
 72
     0
 73
     0
 74
     1
 75
     0
 76
     0
 77
     1
 78
     8
170
     0
171
     0
172
     1
173
     0
174
     0
175
     0
176
   256
177
   256
178
     2
  0
DIMSTYLE
  2
BYGG-022629$0$STANDARD
 70
     0
  3

  4

  5

  6

  7

 40
1.0
 41
0.18
 42
0.0625
 43
0.38
 44
0.18
 45
0.0
 46
0.0
 47
0.0
 48
0.0
140
0.18
141
0.09
142
0.0
143
25.399999999999999
144
1.0
145
0.0
146
1.0
147
0.09
 71
     0
 72
     0
 73
     1
 74
     1
 75
     0
 76
     0
 77
     0
 78
     0
170
     0
171
     2
172
     0
173
     0
174
     0
175
     0
176
     0
177
     0
178
     0
  0
DIMSTYLE
  2
BYGG-022629$0$MASKIN
 70
     0
  3

  4

  5

  6

  7

 40
0.0
 41
3.0
 42
1.5
 43
10.0
 44
1.5
 45
0.0
 46
0.0
 47
0.0
 48
0.0
140
3.0
141
-5.0
142
0.0
143
25.399999999999999
144
-1.0
145
0.0
146
1.0
147
1.0
 71
     0
 72
     0
 73
     0
 74
     0
 75
     0
 76
     0
 77
     1
 78
     8
170
     0
171
     0
172
     1
173
     0
174
     0
175
     0
176
   256
177
   256
178
     2
  0
DIMSTYLE
  2
BYGG-014203$0$STANDARD
 70
     0
  3

  4

  5

  6

  7

 40
1.0
 41
0.18
 42
0.0625
 43
0.38
 44
0.18
 45
0.0
 46
0.0
 47
0.0
 48
0.0
140
0.18
141
0.09
142
0.0
143
25.399999999999999
144
1.0
145
0.0
146
1.0
147
0.09
 71
     0
 72
     0
 73
     1
 74
     1
 75
     0
 76
     0
 77
     0
 78
     0
170
     0
171
     2
172
     0
173
     0
174
     0
175
     0
176
     0
177
     0
178
     0
  0
DIMSTYLE
  2
BYGG-014203$0$MASKIN
 70
     0
  3

  4

  5

  6

  7

 40
0.0
 41
3.0
 42
1.5
 43
10.0
 44
1.5
 45
0.0
 46
0.0
 47
0.0
 48
0.0
140
3.0
141
-5.0
142
0.0
143
25.399999999999999
144
-1.0
145
0.0
146
1.0
147
1.0
 71
     0
 72
     0
 73
     0
 74
     0
 75
     0
 76
     0
 77
     1
 78
     8
170
     0
171
     0
172
     1
173
     0
174
     0
175
     0
176
   256
177
   256
178
   256
  0
DIMSTYLE
  2
BYGG-021959$0$STANDARD
 70
     0
  3

  4

  5

  6

  7

 40
1.0
 41
0.18
 42
0.0625
 43
0.38
 44
0.18
 45
0.0
 46
0.0
 47
0.0
 48
0.0
140
0.18
141
0.09
142
0.0
143
25.399999999999999
144
1.0
145
0.0
146
1.0
147
0.09
 71
     0
 72
     0
 73
     1
 74
     1
 75
     0
 76
     0
 77
     0
 78
     0
170
     0
171
     2
172
     0
173
     0
174
     0
175
     0
176
     0
177
     0
178
     0
  0
DIMSTYLE
  2
BYGG-021959$0$MASKIN
 70
     0
  3

  4

  5

  6

  7

 40
0.0
 41
3.0
 42
1.5
 43
10.0
 44
1.5
 45
0.0
 46
0.0
 47
0.0
 48
0.0
140
3.0
141
-5.0
142
0.0
143
25.399999999999999
144
-1.0
145
0.0
146
1.0
147
1.0
 71
     0
 72
     0
 73
     0
 74
     0
 75
     0
 76
     0
 77
     1
 78
     8
170
     0
171
     0
172
     1
173
     0
174
     0
175
     0
176
   256
177
   256
178
     2
  0
DIMSTYLE
  2
BYGG-014557$0$STANDARD
 70
     0
  3

  4

  5

  6

  7

 40
1.0
 41
0.18
 42
0.0625
 43
0.38
 44
0.18
 45
0.0
 46
0.0
 47
0.0
 48
0.0
140
0.18
141
0.09
142
0.0
143
25.399999999999999
144
1.0
145
0.0
146
1.0
147
0.09
 71
     0
 72
     0
 73
     1
 74
     1
 75
     0
 76
     0
 77
     0
 78
     0
170
     0
171
     2
172
     0
173
     0
174
     0
175
     0
176
     0
177
     0
178
     0
  0
DIMSTYLE
  2
BYGG-014557$0$MASKIN
 70
     0
  3

  4

  5

  6

  7

 40
0.0
 41
3.0
 42
1.5
 43
10.0
 44
1.5
 45
0.0
 46
0.0
 47
0.0
 48
0.0
140
3.0
141
-5.0
142
0.0
143
25.399999999999999
144
-1.0
145
0.0
146
1.0
147
1.0
 71
     0
 72
     0
 73
     0
 74
     1
 75
     0
 76
     0
 77
     1
 78
     8
170
     0
171
     0
172
     1
173
     0
174
     0
175
     0
176
   256
177
   256
178
     2
  0
ENDTAB
  0
ENDSEC
  0
SECTION
  2
BLOCKS
  0
BLOCK
  8
0
  2
$MODEL_SPACE
 70
     0
 10
0.0
 20
0.0
 30
0.0
  3
$MODEL_SPACE
  1

  0
ENDBLK
  5
D
  8
0
  0
BLOCK
 67
     1
  8
0
  2
$PAPER_SPACE
 70
     0
 10
0.0
 20
0.0
 30
0.0
  3
$PAPER_SPACE
  1

  0
ENDBLK
  5
12
 67
     1
  8
0
  0
BLOCK
  8
0
  2
BYGG-022629$0$18049
 70
     0
 10
0.0
 20
0.0
 30
0.0
  3
BYGG-022629$0$18049
  1

  0
LINE
  5
69F
  8
0
 10
1.257104106126135
 20
1.175882970362522
 30
0.0
 11
0.4756705193898512
 21
3.7049892555045281
 31
0.0
  0
LINE
  5
6A0
  8
0
 10
4.2044423602476391
 20
-3.6036842434053251
 30
0.0
 11
1.257104106126135
 21
1.175882970362522
 31
0.0
  0
LINE
  5
6A1
  8
0
 10
1.8046723971954881
 20
-1.3930204203302869
 30
0.0
 11
3.8614632483672291
 21
-4.0897212559317486
 31
0.0
  0
LINE
  5
6A2
  8
0
 10
1.5165716772223581
 20
-5.4492779234504951
 30
0.0
 11
1.365416573142894
 21
-1.670607021296405
 31
0.0
  0
LINE
  5
6A3
  8
0
 10
-1.360859991273756
 20
-1.626983735284284
 30
0.0
 11
-2.700553210624562
 21
-2.0440140738289752
 31
0.0
  0
LINE
  5
6A4
  8
0
 10
4.2213954165827374
 20
-11.20389088691797
 30
0.0
 11
1.8374940511294251
 21
-6.144112628652123
 31
0.0
  0
ARC
  5
6A5
  8
0
 10
-15.61932099734079
 20
-27.035324816149512
 30
0.0
 40
24.584181139217058
 50
49.137781603725038
 51
55.430876072989847
  0
ARC
  5
6A6
  8
0
 10
0.6928349840118671
 20
-8.6374822721460305
 30
0.0
 40
0.3000000000000043
 50
139.5071087518125
 51
319.08060320227031
  0
ARC
  5
6A7
  8
0
 10
2.5157725486285609
 20
-5.4093077022735647
 30
0.0
 40
0.9999999999999417
 50
182.29073520949271
 51
227.290735209491
  0
ARC
  5
6A8
  8
0
 10
-1.547436887770814
 20
-6.4109931887336984
 30
0.0
 40
0.3999999999999566
 50
92.290735209487536
 51
252.11880956275439
  0
LINE
  5
6A9
  8
0
 10
-0.264463843413381
 20
-5.9593515526413512
 30
0.0
 11
-1.5634249762415491
 21
-6.0113128401712279
 31
0.0
  0
ARC
  5
6AA
  8
0
 10
-0.2764549097664855
 20
-5.6595912912194422
 30
0.0
 40
0.3000000000000553
 50
272.2907352094972
 51
2.2907352094997808
  0
LINE
  5
6AB
  8
0
 10
-0.0606321128159806
 20
-3.5492783949131872
 30
0.0
 11
0.023305351655452
 21
-5.6476002248663226
 31
0.0
  0
ARC
  5
6AC
  8
0
 10
-0.3603923742378612
 20
-3.561269461266249
 30
0.0
 40
0.3000000000000252
 50
2.2907352094893678
 51
92.290735209491856
  0
LINE
  5
6AD
  8
0
 10
-1.271664224856621
 20
-3.2974823989035249
 30
0.0
 11
-0.3723834405909372
 21
-3.26150919984434
 31
0.0
  0
LINE
  5
6AE
  8
0
 10
-1.2576746474447731
 20
-3.6472027038957431
 30
0.0
 11
-1.271664224856621
 21
-3.2974823989035249
 31
0.0
  0
ARC
  5
6AF
  8
0
 10
-1.557434908866596
 20
-3.6591937702488049
 30
0.0
 40
0.2999999999999189
 50
227.29073520948009
 51
2.2907352094898008
  0
LINE
  5
6B0
  8
0
 10
-2.6479064675971951
 20
-3.060880674298005
 30
0.0
 11
-1.760918458116336
 21
-3.8796352481622871
 31
0.0
  0
ARC
  5
6B1
  8
0
 10
-2.1052836695978661
 20
-2.4730367331951579
 30
0.0
 40
0.7999999999999711
 50
182.29073520948941
 51
227.2907352094899
  0
LINE
  5
6B2
  8
0
 10
-2.911147326750366
 20
-2.3424478020412489
 30
0.0
 11
-2.9046443667228621
 21
-2.5050129101366561
 31
0.0
  0
ARC
  5
6B3
  8
0
 10
-2.6113870653285431
 20
-2.3304567356881871
 30
0.0
 40
0.2999999999999028
 50
107.2907352094865
 51
182.29073520948981
  0
ARC
  5
6B4
  8
0
 10
1.665176834564803
 20
-1.658615954943286
 30
0.0
 40
0.3000000000000269
 50
62.29073520950076
 51
182.29073520950001
  0
ARC
  5
6B5
  8
0
 10
-1.45002613656969
 20
-1.340541073425072
 30
0.0
 40
0.2999999999999088
 50
287.29073520947099
 51
2.2907352094791711
  0
LINE
  5
6B6
  8
0
 10
-1.2531886636523799
 20
1.24437896187652
 30
0.0
 11
-1.150265875147894
 21
-1.3285500070720671
 31
0.0
  0
ARC
  5
6B7
  8
0
 10
-1.552948925074346
 20
1.2323878955234591
 30
0.0
 40
0.3000000000000847
 50
2.2907352094887168
 51
77.290735209486655
  0
LINE
  5
6B8
  8
0
 10
-2.8556712716364099
 20
1.8337253324163489
 30
0.0
 11
-1.4869477411285881
 21
1.5250375900693589
 31
0.0
  0
ARC
  5
6B9
  8
0
 10
-2.7896700876906229
 20
2.1263750269621928
 30
0.0
 40
0.3000000000000366
 50
182.29073520947821
 51
257.29073520947901
  0
LINE
  5
6BA
  8
0
 10
-3.0959333091400651
 20
2.276949068704595
 30
0.0
 11
-3.0894303491125461
 21
2.1143839606091879
 31
0.0
  0
ARC
  5
6BB
  8
0
 10
-2.296572612015197
 20
2.3089252456460372
 30
0.0
 40
0.7999999999998441
 50
137.29073520948589
 51
182.29073520948569
  0
LINE
  5
6BC
  8
0
 10
-2.0656619792536191
 20
3.7385360531263241
 30
0.0
 11
-2.8844165531179149
 21
2.8515480436453231
 31
0.0
  0
ARC
  5
6BD
  8
0
 10
-1.8452205013400651
 20
3.5350525038765559
 30
0.0
 40
0.3000000000000082
 50
2.2907352094784108
 51
137.29073520948529
  0
LINE
  5
6BE
  8
0
 10
-1.5434617288593271
 20
3.497083526659253
 30
0.0
 11
-1.5454602399181701
 21
3.5470435702295608
 31
0.0
  0
ARC
  5
6BF
  8
0
 10
-1.2437014674374249
 20
3.5090745930123139
 30
0.0
 40
0.3000000000000243
 50
182.29073520948921
 51
272.29073520948782
  0
LINE
  5
6C0
  8
0
 10
-0.6321898782405812
 20
3.2332964642965289
 30
0.0
 11
-1.23171040108437
 21
3.2093143315904049
 31
0.0
  0
ARC
  5
6C1
  8
0
 10
-0.6441809445936002
 20
3.5330567257183811
 30
0.0
 40
0.2999999999999656
 50
272.2907352094814
 51
2.2907352094787372
  0
LINE
  5
6C2
  8
0
 10
-0.3464191942305916
 20
3.5950078356417521
 30
0.0
 11
-0.344420683171748
 21
3.5450477920713861
 31
0.0
  0
ARC
  5
6C3
  8
0
 10
-0.046658932808711
 20
3.606998901994813
 30
0.0
 40
0.2999999999999673
 50
92.290735209486854
 51
182.2907352094893
  0
LINE
  5
6C4
  8
0
 10
0.177049383927411
 20
3.9161876544667962
 30
0.0
 11
-0.0586499991617586
 21
3.9067591634166661
 31
0.0
  0
ARC
  5
6C5
  8
0
 10
0.1890404502804017
 20
3.6164273930448871
 30
0.0
 40
0.3000000000000138
 50
17.169902926059759
 51
92.290735209475557
  0
CIRCLE
  5
6C6
  8
0
 10
0.0
 20
0.0
 30
0.0
 40
0.2
  0
ARC
  5
6C7
  8
0
 10
4.000958810997929
 20
-3.8241257213188642
 30
0.0
 40
0.2999999999999325
 50
242.29073520948819
 51
47.290735209489483
  0
ARC
  5
6C8
  8
0
 10
4.017911867332927
 20
-11.42433236483151
 30
0.0
 40
0.2999999999999948
 50
222.87790223034321
 51
47.290735209474143
  0
ARC
  5
6C9
  8
0
 10
-25.590924134226238
 20
-39.188544039530477
 30
0.0
 40
40.30140653252819
 50
43.041593976239149
 51
48.867350427507773
  0
ENDBLK
  5
6CA
  8
0
  0
BLOCK
  8
0
  2
BYGG-022629$0$18058
 70
     0
 10
0.0
 20
0.0
 30
0.0
  3
BYGG-022629$0$18058
  1

  0
POLYLINE
  5
6CE
  8
0
 66
     1
 10
0.0
 20
0.0
 30
0.0
 70
     1
  0
VERTEX
  5
B70
  8
0
 10
4.8334507297417977
 20
-5.2617122271897747
 30
0.0
 42
0.6997223268137053
  0
VERTEX
  5
B71
  8
0
 10
4.575936757014289
 20
-4.5556296340060376
 30
0.0
  0
VERTEX
  5
B72
  8
0
 10
3.3759367570143008
 20
-4.5556296340060376
 30
0.0
 42
-0.4142135623730951
  0
VERTEX
  5
B73
  8
0
 10
3.1759367570143122
 20
-4.355629634006049
 30
0.0
  0
VERTEX
  5
B74
  8
0
 10
3.1759367570142838
 20
-1.555629634006038
 30
0.0
 42
-0.59729408155688
  0
VERTEX
  5
B75
  8
0
 10
3.486028500133556
 20
-1.38865715694186
 30
0.0
  0
VERTEX
  5
B76
  8
0
 10
3.778230334995953
 20
-1.5813177074005571
 30
0.0
 42
0.7267081950900313
  0
VERTEX
  5
B77
  8
0
 10
4.447090661358259
 20
-1.0471071155557179
 30
0.0
  0
VERTEX
  5
B78
  8
0
 10
0.5873176626473935
 20
5.5050401533857212
 30
0.0
 42
0.7363258036229955
  0
VERTEX
  5
B79
  8
0
 10
-0.7166888610518641
 20
5.2103713392397699
 30
0.0
  0
VERTEX
  5
B7A
  8
0
 10
-1.3240632429856301
 20
1.765780049277339
 30
0.0
  0
VERTEX
  5
B7B
  8
0
 10
-2.7574321456306592
 20
-2.6694904128274279
 30
0.0
 42
0.885993824690421
  0
VERTEX
  5
B7C
  8
0
 10
-2.3382360028933951
 20
-3.0926345791103809
 30
0.0
  0
VERTEX
  5
B7D
  8
0
 10
-1.624063242985442
 20
-0.9471580705006203
 30
0.0
 42
-0.5773502691892892
  0
VERTEX
  5
B7E
  8
0
 10
-1.3240632429856301
 20
-1.120363151257606
 30
0.0
  0
VERTEX
  5
B7F
  8
0
 10
-1.3240632429856869
 20
-5.6510692487698293
 30
0.0
 42
-0.1989123673796363
  0
VERTEX
  5
B80
  8
0
 10
-1.3826418867483881
 20
-5.7924906050071172
 30
0.0
  0
VERTEX
  5
B81
  8
0
 10
-2.7562272241133172
 20
-10.167977501831951
 30
0.0
 42
0.7660459440748996
  0
VERTEX
  5
B82
  8
0
 10
-2.4141837562942068
 20
-10.635523841217941
 30
0.0
  0
VERTEX
  5
B83
  8
0
 10
1.832706186540491
 20
-6.8303485721410757
 30
0.0
 42
-0.3419987131192184
  0
VERTEX
  5
B84
  8
0
 10
1.953259031429212
 20
-6.851959023057872
 30
0.0
 42
0.7745966692401299
  0
VERTEX
  5
B85
  8
0
 10
2.4681048871406972
 20
-6.5828238435410071
 30
0.0
 42
-0.3419987131192394
  0
VERTEX
  5
B86
  8
0
 10
2.519167327488105
 20
-6.4715016661200471
 30
0.0
  0
SEQEND
  5
B87
  8
0
  0
CIRCLE
  5
6CF
  8
0
 10
0.0
 20
0.0
 30
0.0
 40
0.2
  0
ENDBLK
  5
6D0
  8
0
  0
BLOCK
  8
0
  2
*U47
 70
     1
 10
0.0
 20
0.0
 30
0.0
  3
*U47
  1

  0
TEXT
  5
B07
  8
SAPA_ARTIKELNR
 10
40.268556655363732
 20
54.288177607056049
 30
0.0
 40
3.5
  1
68047
  7
ISO
  0
ENDBLK
  5
B09
  8
0
  0
BLOCK
  8
0
  2
*U48
 70
     1
 10
0.0
 20
0.0
 30
0.0
  3
*U48
  1

  0
TEXT
  5
B0B
  8
SAPA_ARTIKELNR
 10
112.80157303584549
 20
54.288177607056049
 30
0.0
 40
3.5
  1
68040
  7
ISO
  0
ENDBLK
  5
B0D
  8
0
  0
BLOCK
  8
0
  2
*U49
 70
     1
 10
0.0
 20
0.0
 30
0.0
  3
*U49
  1

  0
TEXT
  5
B29
  8
0
 62
     2
 10
35.456845996112278
 20
-15.109722073176661
 30
0.0
 40
3.0
  1
120
  7
ISO
  0
ENDBLK
  5
B2B
  8
0
  0
BLOCK
  8
0
  2
*U50
 70
     1
 10
0.0
 20
0.0
 30
0.0
  3
*U50
  1

  0
TEXT
  5
B2D
  8
0
 62
     2
 10
123.4960757870183
 20
-15.09646793375793
 30
0.0
 40
3.0
  1
45
  7
ISO
  0
ENDBLK
  5
B2F
  8
0
  0
BLOCK
  8
0
  2
*U51
 70
     1
 10
0.0
 20
0.0
 30
0.0
  3
*U51
  1

  0
TEXT
  5
B31
  8
0
 62
     2
 10
99.695895064118531
 20
-15.09646793375793
 30
0.0
 40
3.0
  1
5
  7
ISO
  0
ENDBLK
  5
B33
  8
0
  0
BLOCK
  8
0
  2
*U52
 70
     1
 10
0.0
 20
0.0
 30
0.0
  3
*U52
  1

  0
TEXT
  5
B35
  8
0
 62
     2
 10
60.456845996112271
 20
-27.396328522528119
 30
0.0
 40
3.0
  1
170
  7
ISO
  0
ENDBLK
  5
B37
  8
0
  0
BLOCK
  8
0
  2
*U53
 70
     1
 10
0.0
 20
0.0
 30
0.0
  3
*U53
  1

  0
TEXT
  5
D69
  8
0
 62
     2
 10
223.25694460060811
 20
742.68797400912399
 30
0.0
 40
3.0
  1
50
 50
90.0
  7
BYGG-014554$0$ISO
  0
ENDBLK
  5
D6B
  8
0
  0
BLOCK
  8
0
  2
*U54
 70
     1
 10
0.0
 20
0.0
 30
0.0
  3
*U54
  1

  0
TEXT
  5
D6D
  8
0
 62
     2
 10
176.95869673732579
 20
712.16043879070753
 30
0.0
 40
3.0
  1
67
  7
BYGG-014554$0$ISO
  0
ENDBLK
  5
D6F
  8
0
  0
BLOCK
  8
0
  2
*U55
 70
     1
 10
0.0
 20
0.0
 30
0.0
  3
*U55
  1

  0
TEXT
  5
DCD
  8
0
 10
269.13695666615928
 20
387.12121780868893
 30
0.0
 40
3.0
  1
22
 50
90.0
  7
BYGG-014203$0$ISO
  0
ENDBLK
  5
DCF
  8
0
  0
BLOCK
  8
0
  2
*U56
 70
     1
 10
0.0
 20
0.0
 30
0.0
  3
*U56
  1

  0
TEXT
  5
DD1
  8
0
 10
243.50583563664401
 20
406.8346351471406
 30
0.0
 40
3.0
  1
29
  7
BYGG-014203$0$ISO
  0
ENDBLK
  5
DD3
  8
0
  0
BLOCK
  8
0
  2
*U57
 70
     1
 10
0.0
 20
0.0
 30
0.0
  3
*U57
  1

  0
TEXT
  5
DD6
  8
0
 10
89.477352001818133
 20
536.91038923748056
 30
0.0
 40
3.0
  1
29.00259511
  7
BYGG-014203$0$ISO
  0
ENDBLK
  5
DD8
  8
0
  0
BLOCK
  8
0
  2
*U58
 70
     1
 10
0.0
 20
0.0
 30
0.0
  3
*U58
  1

  0
TEXT
  5
DDA
  8
0
 10
139.81857160131429
 20
500.42082458589999
 30
0.0
 40
3.0
  1
21.99913956
 50
90.0
  7
BYGG-014203$0$ISO
  0
ENDBLK
  5
DDC
  8
0
  0
BLOCK
  8
0
  2
*U59
 70
     1
 10
0.0
 20
0.0
 30
0.0
  3
*U59
  1

  0
TEXT
  5
F7E
  8
0
 62
     2
 10
724.43576367800563
 20
504.89051800140891
 30
0.0
 40
6.0
  1
50
 50
90.0
  7
BYGG-014557$0$ISO
  0
ENDBLK
  5
F80
  8
0
  0
BLOCK
  8
0
  2
*U60
 70
     1
 10
0.0
 20
0.0
 30
0.0
  3
*U60
  1

  0
TEXT
  5
F82
  8
0
 62
     2
 10
643.97846611151215
 20
469.29273540499821
 30
0.0
 40
6.0
  1
120
  7
BYGG-014557$0$ISO
  0
ENDBLK
  5
F84
  8
0
  0
BLOCK
  8
0
  2
*U61
 70
     1
 10
0.0
 20
0.0
 30
0.0
  3
*U61
  1

  0
TEXT
  5
FA2
  8
0
 62
     2
 10
159.0960387412845
 20
26.464502929487111
 30
0.0
 40
3.0
  1
50
 50
90.0
  7
BYGG-014554$0$ISO
  0
ENDBLK
  5
FA4
  8
0
  0
BLOCK
  8
0
  2
*U62
 70
     1
 10
0.0
 20
0.0
 30
0.0
  3
*U62
  1

  0
TEXT
  5
FA6
  8
0
 62
     2
 10
112.7977908780021
 20
63.194400352628001
 30
0.0
 40
3.0
  1
67
  7
BYGG-014554$0$ISO
  0
ENDBLK
  5
FA8
  8
0
  0
BLOCK
  8
0
  2
*U63
 70
     1
 10
0.0
 20
0.0
 30
0.0
  3
*U63
  1

  0
TEXT
  5
FAA
  8
0
 10
-13.143282040040891
 20
59.527801845810977
 30
0.0
 40
3.0
  1
22
  7
BYGG-014203$0$ISO
  0
ENDBLK
  5
FAC
  8
0
  0
BLOCK
  8
0
  2
*U64
 70
     1
 10
0.0
 20
0.0
 30
0.0
  3
*U64
  1

  0
TEXT
  5
FAE
  8
0
 10
-28.552703315500619
 20
36.896680816295813
 30
0.0
 40
3.0
  1
29
 50
90.0
  7
BYGG-014203$0$ISO
  0
ENDBLK
  5
FB0
  8
0
  0
BLOCK
  8
0
  2
*U65
 70
     1
 10
0.0
 20
0.0
 30
0.0
  3
*U65
  1

  0
TEXT
  5
11D0
  8
0
 62
     2
 10
113.0629624602436
 20
24.366213393384712
 30
0.0
 40
6.0
  1
50
 50
90.0
  7
BYGG-014557$0$ISO
  0
ENDBLK
  5
11D2
  8
0
  0
BLOCK
  8
0
  2
*U66
 70
     1
 10
0.0
 20
0.0
 30
0.0
  3
*U66
  1

  0
TEXT
  5
11D4
  8
0
 62
     2
 10
32.605664893750088
 20
-11.231569203026011
 30
0.0
 40
6.0
  1
120
  7
BYGG-014557$0$ISO
  0
ENDBLK
  5
11D6
  8
0
  0
ENDSEC
  0
SECTION
  2
ENTITIES
  0
POLYLINE
  5
502
  8
SAPA_GLAS
 66
     1
 10
0.0
 20
0.0
 30
0.0
 70
     1
  0
VERTEX
  5
B01
  8
SAPA_GLAS
 10
2.6740516566194961
 20
9.7833592813392727
 30
0.0
  0
VERTEX
  5
B02
  8
SAPA_GLAS
 10
2.6740516566194961
 20
19.81706222897148
 30
0.0
  0
VERTEX
  5
B03
  8
SAPA_GLAS
 10
4.7144339270225544
 20
19.81706222897148
 30
0.0
  0
VERTEX
  5
B04
  8
SAPA_GLAS
 10
4.7144339270225544
 20
9.7833592813392727
 30
0.0
  0
SEQEND
  5
B05
  8
SAPA_GLAS
  0
INSERT
  5
506
  8
0
  2
*U47
 10
0.0
 20
0.0
 30
0.0
  0
INSERT
  5
507
  8
0
  2
*U48
 10
0.0
 20
0.0
 30
0.0
  0
LINE
  5
5C0
  8
GÅNGJÄRN
 10
93.030463901876217
 20
16.06568403184923
 30
0.0
 11
95.808207821374253
 21
16.07671712572176
 31
0.0
  0
LINE
  5
5C1
  8
GÅNGJÄRN
 10
87.149434693705146
 20
21.565684031849631
 30
0.0
 11
93.030463901876217
 21
21.565684031849631
 31
0.0
  0
LINE
  5
5C2
  8
GÅNGJÄRN
  6
DASHDOT
 62
     2
 10
69.203646310111111
 20
28.56568403184929
 30
0.0
 11
80.799469526314937
 21
28.56568403184929
 31
0.0
  0
LINE
  5
5C3
  8
GÅNGJÄRN
  6
DASHDOT
 62
     2
 10
83.808027098474525
 20
28.56568403184929
 30
0.0
 11
93.795328213864508
 21
28.56568403184929
 31
0.0
  0
LINE
  5
5C5
  8
GÅNGJÄRN
 10
94.649615416605144
 20
10.55791294751725
 30
0.0
 11
93.030463901876203
 21
10.557912947517201
 31
0.0
  0
LINE
  5
5C7
  8
GÅNGJÄRN
 10
93.030463901876203
 20
10.557912947517201
 30
0.0
 11
93.030463901876004
 21
41.065684031849173
 31
0.0
  0
LINE
  5
5C8
  8
1
 10
93.030463901876004
 20
41.065684031849173
 30
0.0
 11
95.808207821374296
 21
41.065684031849173
 31
0.0
  0
POLYLINE
  5
5CC
  8
SAPA_LIGHT
 66
     1
 10
0.0
 20
0.0
 30
0.0
  0
VERTEX
  5
B0E
  8
SAPA_LIGHT
 10
81.451620569133183
 20
46.571467164369153
 30
0.0
  0
VERTEX
  5
B0F
  8
SAPA_LIGHT
 10
81.451620569133183
 20
53.568575598109248
 30
0.0
  0
VERTEX
  5
B10
  8
SAPA_LIGHT
 10
148.45162056913321
 20
53.568575598109248
 30
0.0
  0
VERTEX
  5
B11
  8
SAPA_LIGHT
 10
148.45162056913321
 20
3.5685755981091338
 30
0.0
  0
VERTEX
  5
B12
  8
SAPA_LIGHT
 10
103.4516205691332
 20
3.5685755981091338
 30
0.0
  0
VERTEX
  5
B13
  8
SAPA_LIGHT
 10
103.4516205691332
 20
10.568575598109129
 30
0.0
  0
VERTEX
  5
B14
  8
SAPA_LIGHT
 10
95.95162056913324
 20
10.56857559810925
 30
0.0
  0
VERTEX
  5
B15
  8
SAPA_LIGHT
 10
95.951620569133226
 20
46.571467164369153
 30
0.0
  0
VERTEX
  5
B16
  8
SAPA_LIGHT
 10
81.451439846233342
 20
46.571467164369153
 30
0.0
  0
SEQEND
  5
B17
  8
SAPA_LIGHT
  0
POLYLINE
  5
5CD
  8
SAPA_LIGHT
 66
     1
 10
0.0
 20
0.0
 30
0.0
  0
VERTEX
  5
B18
  8
SAPA_LIGHT
 10
-21.731399190274061
 20
18.566824678669771
 30
0.0
  0
VERTEX
  5
B19
  8
SAPA_LIGHT
 10
-21.731399190274061
 20
53.571467164369039
 30
0.0
  0
VERTEX
  5
B1A
  8
SAPA_LIGHT
 10
76.451439846233342
 20
53.571467164369039
 30
0.0
  0
VERTEX
  5
B1B
  8
SAPA_LIGHT
 10
76.451439846233342
 20
46.571467164369153
 30
0.0
  0
VERTEX
  5
B1C
  8
SAPA_LIGHT
 10
83.951439846233356
 20
46.57146716436916
 30
0.0
  0
VERTEX
  5
B1D
  8
SAPA_LIGHT
 10
83.951439846233342
 20
10.56857559810925
 30
0.0
  0
VERTEX
  5
B1E
  8
SAPA_LIGHT
 10
98.451439846233285
 20
10.56857559810925
 30
0.0
  0
VERTEX
  5
B1F
  8
SAPA_LIGHT
 10
98.451439846233285
 20
3.571467164369039
 30
0.0
  0
VERTEX
  5
B20
  8
SAPA_LIGHT
 10
-21.731399190274061
 20
3.571467164369039
 30
0.0
  0
VERTEX
  5
B21
  8
SAPA_LIGHT
 10
-21.731399190274061
 20
12.56682467866977
 30
0.0
  0
SEQEND
  5
B22
  8
SAPA_LIGHT
  0
POLYLINE
  5
5CE
  8
SAPA_LIGHT
 66
     1
 10
0.0
 20
0.0
 30
0.0
 70
     1
  0
VERTEX
  5
B23
  8
SAPA_LIGHT
 10
-4.9442769545711647
 20
12.56682467866977
 30
0.0
  0
VERTEX
  5
B24
  8
SAPA_LIGHT
 10
-37.450558058464033
 20
12.56682467866977
 30
0.0
  0
VERTEX
  5
B25
  8
SAPA_LIGHT
 10
-37.450558058464033
 20
18.566824678669771
 30
0.0
  0
VERTEX
  5
B26
  8
SAPA_LIGHT
 10
-4.9442769545711647
 20
18.566824678669771
 30
0.0
  0
SEQEND
  5
B27
  8
SAPA_LIGHT
  0
LINE
  5
830
  8
GÅNGJÄRN
  6
DASHDOT
 10
81.956700313315054
 20
43.752610927477342
 30
0.0
 11
53.675496915953183
 21
40.461228936239991
 31
0.0
  0
ARC
  5
831
  8
GÅNGJÄRN
  6
DASHDOT
 10
55.038039758851667
 20
28.753578052743329
 30
0.0
 40
11.786670955302609
 50
96.638251341199634
 51
241.89620480424739
  0
LINE
  5
832
  8
GÅNGJÄRN
  6
DASHDOT
 10
49.485689005232729
 20
18.35660669963471
 30
0.0
 11
82.255972306937878
 21
13.64394612127211
 31
0.0
  0
LINE
  5
833
  8
GÅNGJÄRN
 10
82.31514755262296
 20
19.565684031849571
 30
0.0
 11
48.435963286589271
 21
19.56568403184923
 31
0.0
  0
LINE
  5
834
  8
GÅNGJÄRN
 10
48.435963286589271
 20
19.56568403184923
 30
0.0
 11
48.435963286589271
 21
37.565684031849287
 31
0.0
  0
LINE
  5
835
  8
GÅNGJÄRN
 10
48.435963286589271
 20
37.565684031849287
 30
0.0
 11
82.31514755262296
 21
37.565684031849287
 31
0.0
  0
LINE
  5
836
  8
GÅNGJÄRN
 10
84.149434693705501
 20
16.065684031849109
 30
0.0
 11
87.149434693705146
 21
16.065684031849109
 31
0.0
  0
LINE
  5
837
  8
GÅNGJÄRN
 10
87.149434693705146
 20
16.065684031849109
 30
0.0
 11
87.149434693705146
 21
41.065684031849173
 31
0.0
  0
LINE
  5
838
  8
GÅNGJÄRN
 10
87.149434693705146
 20
41.065684031849173
 30
0.0
 11
84.149434693705501
 21
41.065684031849287
 31
0.0
  0
LINE
  5
839
  8
GÅNGJÄRN
 10
84.149434693705501
 20
41.065684031849287
 30
0.0
 11
84.149434693705501
 21
16.065684031849109
 31
0.0
  0
LINE
  5
83A
  8
GÅNGJÄRN
 10
93.030463901876004
 20
33.686288651056998
 30
0.0
 11
91.151068521083587
 21
35.565684031849287
 31
0.0
  0
LINE
  5
83B
  8
GÅNGJÄRN
 10
91.151068521083587
 20
35.565684031849287
 30
0.0
 11
87.149434693705146
 21
35.565684031849287
 31
0.0
  0
POLYLINE
  5
9FF
  8
SAPA_PROFIL
 66
     1
 10
0.0
 20
0.0
 30
0.0
 70
     1
  0
VERTEX
  5
10C0
  8
SAPA_PROFIL
 10
82.008027098474486
 20
5.8685755981091461
 30
0.0
  0
VERTEX
  5
10C1
  8
SAPA_PROFIL
 10
82.008027098474486
 20
14.04896035583846
 30
0.0
  0
VERTEX
  5
10C2
  8
SAPA_PROFIL
 10
82.308027098474426
 20
14.56857559810908
 30
0.0
  0
VERTEX
  5
10C3
  8
SAPA_PROFIL
 10
82.008027098474486
 20
15.08819084037969
 30
0.0
  0
VERTEX
  5
10C4
  8
SAPA_PROFIL
 10
82.008027098474486
 20
20.068575598109138
 30
0.0
  0
VERTEX
  5
10C5
  8
SAPA_PROFIL
 10
81.998027098474495
 20
20.068575598109138
 30
0.0
  0
VERTEX
  5
10C6
  8
SAPA_PROFIL
 10
81.308027098474554
 20
20.758575598109129
 30
0.0
  0
VERTEX
  5
10C7
  8
SAPA_PROFIL
 10
81.308027098474668
 20
28.04896035583846
 30
0.0
  0
VERTEX
  5
10C8
  8
SAPA_PROFIL
 10
81.608027098474622
 20
28.568575598109138
 30
0.0
  0
VERTEX
  5
10C9
  8
SAPA_PROFIL
 10
81.308027098474668
 20
29.088190840379809
 30
0.0
  0
VERTEX
  5
10CA
  8
SAPA_PROFIL
 10
81.308027098474668
 20
36.378575598109201
 30
0.0
  0
VERTEX
  5
10CB
  8
SAPA_PROFIL
 10
81.998027098474736
 20
37.068575598109128
 30
0.0
  0
VERTEX
  5
10CC
  8
SAPA_PROFIL
 10
82.008027098474486
 20
37.068575598109128
 30
0.0
  0
VERTEX
  5
10CD
  8
SAPA_PROFIL
 10
82.008027098474486
 20
40.54896035583846
 30
0.0
  0
VERTEX
  5
10CE
  8
SAPA_PROFIL
 10
82.308027098474426
 20
41.068575598109128
 30
0.0
  0
VERTEX
  5
10CF
  8
SAPA_PROFIL
 10
82.008027098474486
 20
41.588190840379809
 30
0.0
  0
VERTEX
  5
10D0
  8
SAPA_PROFIL
 10
82.008027098474486
 20
44.368575598109089
 30
0.0
 42
0.4142135623730951
  0
VERTEX
  5
10D1
  8
SAPA_PROFIL
 10
81.508027098474486
 20
44.868575598109089
 30
0.0
  0
VERTEX
  5
10D2
  8
SAPA_PROFIL
 10
75.508027098474486
 20
44.868575598109203
 30
0.0
 42
-0.4142135623730935
  0
VERTEX
  5
10D3
  8
SAPA_PROFIL
 10
74.508027098474486
 20
45.868575598109203
 30
0.0
  0
VERTEX
  5
10D4
  8
SAPA_PROFIL
 10
74.508027098474486
 20
51.268575598109067
 30
0.0
 42
0.4142135623730951
  0
VERTEX
  5
10D5
  8
SAPA_PROFIL
 10
74.008027098474486
 20
51.768575598109067
 30
0.0
  0
VERTEX
  5
10D6
  8
SAPA_PROFIL
 10
7.1080270984745084
 20
51.768575598109067
 30
0.0
  0
VERTEX
  5
10D7
  8
SAPA_PROFIL
 10
7.1080270984745084
 20
30.663575598109158
 30
0.0
 42
-0.4142135623730951
  0
VERTEX
  5
10D8
  8
SAPA_PROFIL
 10
6.613027098474503
 20
30.168575598109161
 30
0.0
  0
VERTEX
  5
10D9
  8
SAPA_PROFIL
 10
6.6030270984745121
 20
30.168575598109161
 30
0.0
 42
-0.4142135623730951
  0
VERTEX
  5
10DA
  8
SAPA_PROFIL
 10
6.1080270984745084
 20
30.663575598109158
 30
0.0
  0
VERTEX
  5
10DB
  8
SAPA_PROFIL
 10
6.1080270984745084
 20
30.82357559810913
 30
0.0
 42
0.4142135623730824
  0
VERTEX
  5
10DC
  8
SAPA_PROFIL
 10
5.6130270984746167
 20
31.318575598109138
 30
0.0
  0
VERTEX
  5
10DD
  8
SAPA_PROFIL
 10
4.808027098474553
 20
31.318575598109138
 30
0.0
 42
0.3747564601179689
  0
VERTEX
  5
10DE
  8
SAPA_PROFIL
 10
2.083632055240173
 20
28.942970641345429
 30
0.0
  0
VERTEX
  5
10DF
  8
SAPA_PROFIL
 10
2.4580270984748722
 20
28.568575598109138
 30
0.0
  0
VERTEX
  5
10E0
  8
SAPA_PROFIL
 10
2.083632055238354
 20
28.19418055487262
 30
0.0
 42
0.3747564601179689
  0
VERTEX
  5
10E1
  8
SAPA_PROFIL
 10
4.8080270984744402
 20
25.818575598109131
 30
0.0
  0
VERTEX
  5
10E2
  8
SAPA_PROFIL
 10
5.613027098474503
 20
25.818575598109131
 30
0.0
 42
0.4142135623730826
  0
VERTEX
  5
10E3
  8
SAPA_PROFIL
 10
6.1080270984745084
 20
26.313575598109029
 30
0.0
  0
VERTEX
  5
10E4
  8
SAPA_PROFIL
 10
6.1080270984745084
 20
26.473575598109111
 30
0.0
 42
-0.4142135623730951
  0
VERTEX
  5
10E5
  8
SAPA_PROFIL
 10
6.6030270984745121
 20
26.968575598109108
 30
0.0
  0
VERTEX
  5
10E6
  8
SAPA_PROFIL
 10
6.613027098474503
 20
26.968575598109108
 30
0.0
 42
-0.4142135623730951
  0
VERTEX
  5
10E7
  8
SAPA_PROFIL
 10
7.1080270984745084
 20
26.473575598109111
 30
0.0
  0
VERTEX
  5
10E8
  8
SAPA_PROFIL
 10
7.1080270984745084
 20
5.3685755981090892
 30
0.0
  0
VERTEX
  5
10E9
  8
SAPA_PROFIL
 10
81.508027098474486
 20
5.3685755981091461
 30
0.0
 42
0.414213562373095
  0
SEQEND
  5
10EA
  8
SAPA_PROFIL
  0
POLYLINE
  5
A00
  8
SAPA_PROFIL
 66
     1
 10
0.0
 20
0.0
 30
0.0
 70
     1
  0
VERTEX
  5
10EB
  8
SAPA_PROFIL
 10
98.308027098474454
 20
7.7685755981091233
 30
0.0
 42
0.4142135623730951
  0
VERTEX
  5
10EC
  8
SAPA_PROFIL
 10
98.008027098474486
 20
8.0685755981091347
 30
0.0
  0
VERTEX
  5
10ED
  8
SAPA_PROFIL
 10
96.798027098474449
 20
8.0685755981091347
 30
0.0
 42
0.4142135623730951
  0
VERTEX
  5
10EE
  8
SAPA_PROFIL
 10
95.808027098474454
 20
7.0785755981091247
 30
0.0
  0
VERTEX
  5
10EF
  8
SAPA_PROFIL
 10
95.808027098474454
 20
7.0685755981091338
 30
0.0
  0
VERTEX
  5
10F0
  8
SAPA_PROFIL
 10
97.058027098474454
 20
7.0685755981091338
 30
0.0
  0
VERTEX
  5
10F1
  8
SAPA_PROFIL
 10
97.058027098474454
 20
5.5685755981091338
 30
0.0
 42
-0.4142135623730951
  0
VERTEX
  5
10F2
  8
SAPA_PROFIL
 10
96.558027098474554
 20
5.0685755981091338
 30
0.0
  0
VERTEX
  5
10F3
  8
SAPA_PROFIL
 10
88.558027098474554
 20
5.0685755981091338
 30
0.0
 42
-0.414213562373095
  0
VERTEX
  5
10F4
  8
SAPA_PROFIL
 10
88.05802709847444
 20
5.5685755981091338
 30
0.0
  0
VERTEX
  5
10F5
  8
SAPA_PROFIL
 10
88.05802709847444
 20
7.0685755981091338
 30
0.0
  0
VERTEX
  5
10F6
  8
SAPA_PROFIL
 10
89.30802709847444
 20
7.0685755981091338
 30
0.0
  0
VERTEX
  5
10F7
  8
SAPA_PROFIL
 10
89.30802709847444
 20
7.0785755981091247
 30
0.0
 42
0.4142135623730951
  0
VERTEX
  5
10F8
  8
SAPA_PROFIL
 10
88.318027098474417
 20
8.0685755981091347
 30
0.0
  0
VERTEX
  5
10F9
  8
SAPA_PROFIL
 10
87.798027098474435
 20
8.0685755981091347
 30
0.0
 42
0.4142135623730951
  0
VERTEX
  5
10FA
  8
SAPA_PROFIL
 10
86.80802709847444
 20
7.0785755981091247
 30
0.0
  0
VERTEX
  5
10FB
  8
SAPA_PROFIL
 10
86.80802709847444
 20
5.8685755981091461
 30
0.0
 42
-0.4142135623730951
  0
VERTEX
  5
10FC
  8
SAPA_PROFIL
 10
86.308027098474554
 20
5.3685755981091461
 30
0.0
  0
VERTEX
  5
10FD
  8
SAPA_PROFIL
 10
84.308027098474554
 20
5.3685755981090892
 30
0.0
 42
-0.414213562373095
  0
VERTEX
  5
10FE
  8
SAPA_PROFIL
 10
83.80802709847444
 20
5.8685755981090892
 30
0.0
  0
VERTEX
  5
10FF
  8
SAPA_PROFIL
 10
83.80802709847444
 20
44.368575598109203
 30
0.0
 42
-0.4142135623730951
  0
VERTEX
  5
1100
  8
SAPA_PROFIL
 10
84.30802709847444
 20
44.868575598109203
 30
0.0
  0
VERTEX
  5
1101
  8
SAPA_PROFIL
 10
85.808027098474454
 20
44.868575598109203
 30
0.0
 42
0.4142135623730951
  0
VERTEX
  5
1102
  8
SAPA_PROFIL
 10
86.30802709847444
 20
45.368575598109203
 30
0.0
  0
VERTEX
  5
1103
  8
SAPA_PROFIL
 10
86.30802709847444
 20
45.568575598109142
 30
0.0
 42
0.4142135623730951
  0
VERTEX
  5
1104
  8
SAPA_PROFIL
 10
85.30802709847444
 20
46.568575598109128
 30
0.0
  0
VERTEX
  5
1105
  8
SAPA_PROFIL
 10
77.30802709847444
 20
46.568575598109128
 30
0.0
 42
-0.4142135623730951
  0
VERTEX
  5
1106
  8
SAPA_PROFIL
 10
76.30802709847444
 20
47.568575598109128
 30
0.0
  0
VERTEX
  5
1107
  8
SAPA_PROFIL
 10
76.30802709847444
 20
53.068575598109142
 30
0.0
 42
0.4142135623730951
  0
VERTEX
  5
1108
  8
SAPA_PROFIL
 10
75.80802709847444
 20
53.568575598109128
 30
0.0
  0
VERTEX
  5
1109
  8
SAPA_PROFIL
 10
0.3080270984745539
 20
53.568575598109128
 30
0.0
  0
VERTEX
  5
110A
  8
SAPA_PROFIL
 10
0.3080270984745539
 20
50.568575598109142
 30
0.0
  0
VERTEX
  5
110B
  8
SAPA_PROFIL
 10
1.308027098474553
 20
49.568575598109128
 30
0.0
  0
VERTEX
  5
110C
  8
SAPA_PROFIL
 10
2.308027098474553
 20
49.568575598109128
 30
0.0
  0
VERTEX
  5
110D
  8
SAPA_PROFIL
 10
2.308027098474553
 20
51.768575598109067
 30
0.0
  0
VERTEX
  5
110E
  8
SAPA_PROFIL
 10
5.308027098474553
 20
51.768575598109067
 30
0.0
  0
VERTEX
  5
110F
  8
SAPA_PROFIL
 10
5.308027098474553
 20
33.068575598109142
 30
0.0
  0
VERTEX
  5
1110
  8
SAPA_PROFIL
 10
2.308027098474553
 20
33.068575598109142
 30
0.0
  0
VERTEX
  5
1111
  8
SAPA_PROFIL
 10
2.308027098474553
 20
35.568575598109142
 30
0.0
  0
VERTEX
  5
1112
  8
SAPA_PROFIL
 10
1.308027098474553
 20
35.568575598109142
 30
0.0
  0
VERTEX
  5
1113
  8
SAPA_PROFIL
 10
0.5080270984744857
 20
34.76857559810918
 30
0.0
  0
VERTEX
  5
1114
  8
SAPA_PROFIL
 10
0.5080270984744857
 20
29.088190840379809
 30
0.0
  0
VERTEX
  5
1115
  8
SAPA_PROFIL
 10
0.8080270984745538
 20
28.568575598109138
 30
0.0
  0
VERTEX
  5
1116
  8
SAPA_PROFIL
 10
0.5080270984744857
 20
28.04896035583846
 30
0.0
  0
VERTEX
  5
1117
  8
SAPA_PROFIL
 10
0.5080270984744857
 20
22.368575598109089
 30
0.0
  0
VERTEX
  5
1118
  8
SAPA_PROFIL
 10
1.30802709847444
 20
21.568575598109081
 30
0.0
  0
VERTEX
  5
1119
  8
SAPA_PROFIL
 10
2.3080270984744402
 20
21.568575598109081
 30
0.0
  0
VERTEX
  5
111A
  8
SAPA_PROFIL
 10
2.3080270984744402
 20
24.068575598109138
 30
0.0
  0
VERTEX
  5
111B
  8
SAPA_PROFIL
 10
5.3080270984744402
 20
24.068575598109138
 30
0.0
  0
VERTEX
  5
111C
  8
SAPA_PROFIL
 10
5.3080270984744402
 20
5.3685755981090892
 30
0.0
  0
VERTEX
  5
111D
  8
SAPA_PROFIL
 10
2.3080270984744402
 20
5.3685755981090892
 30
0.0
  0
VERTEX
  5
111E
  8
SAPA_PROFIL
 10
2.3080270984744402
 20
7.568575598109077
 30
0.0
  0
VERTEX
  5
111F
  8
SAPA_PROFIL
 10
1.30802709847444
 20
7.568575598109077
 30
0.0
  0
VERTEX
  5
1120
  8
SAPA_PROFIL
 10
0.3080270984744402
 20
6.568575598109077
 30
0.0
  0
VERTEX
  5
1121
  8
SAPA_PROFIL
 10
0.3080270984744402
 20
5.3685755981090892
 30
0.0
  0
VERTEX
  5
1122
  8
SAPA_PROFIL
 10
-9.6919729015255598
 20
5.3685755981090892
 30
0.0
 42
-0.4142135623730951
  0
VERTEX
  5
1123
  8
SAPA_PROFIL
 10
-10.19197290152556
 20
5.8685755981090892
 30
0.0
  0
VERTEX
  5
1124
  8
SAPA_PROFIL
 10
-10.19197290152556
 20
7.0785755981090679
 30
0.0
 42
0.4142135623730951
  0
VERTEX
  5
1125
  8
SAPA_PROFIL
 10
-11.181972901525571
 20
8.0685755981090779
 30
0.0
  0
VERTEX
  5
1126
  8
SAPA_PROFIL
 10
-11.701972901525551
 20
8.0685755981090779
 30
0.0
 42
0.4142135623730951
  0
VERTEX
  5
1127
  8
SAPA_PROFIL
 10
-12.69197290152556
 20
7.0785755981090679
 30
0.0
  0
VERTEX
  5
1128
  8
SAPA_PROFIL
 10
-12.69197290152556
 20
7.068575598109077
 30
0.0
  0
VERTEX
  5
1129
  8
SAPA_PROFIL
 10
-11.44197290152556
 20
7.068575598109077
 30
0.0
  0
VERTEX
  5
112A
  8
SAPA_PROFIL
 10
-11.44197290152556
 20
5.568575598109077
 30
0.0
 42
-0.4142135623730951
  0
VERTEX
  5
112B
  8
SAPA_PROFIL
 10
-11.94197290152556
 20
5.068575598109077
 30
0.0
  0
VERTEX
  5
112C
  8
SAPA_PROFIL
 10
-19.94197290152556
 20
5.068575598109077
 30
0.0
 42
-0.4142135623730951
  0
VERTEX
  5
112D
  8
SAPA_PROFIL
 10
-20.44197290152556
 20
5.568575598109077
 30
0.0
  0
VERTEX
  5
112E
  8
SAPA_PROFIL
 10
-20.44197290152556
 20
7.068575598109077
 30
0.0
  0
VERTEX
  5
112F
  8
SAPA_PROFIL
 10
-19.19197290152556
 20
7.068575598109077
 30
0.0
  0
VERTEX
  5
1130
  8
SAPA_PROFIL
 10
-19.19197290152556
 20
7.0785755981090679
 30
0.0
 42
0.4142135623730951
  0
VERTEX
  5
1131
  8
SAPA_PROFIL
 10
-20.181972901525569
 20
8.0685755981090779
 30
0.0
  0
VERTEX
  5
1132
  8
SAPA_PROFIL
 10
-21.391972901525492
 20
8.0685755981090779
 30
0.0
 42
0.4142135623730951
  0
VERTEX
  5
1133
  8
SAPA_PROFIL
 10
-21.69197290152556
 20
7.7685755981090656
 30
0.0
  0
VERTEX
  5
1134
  8
SAPA_PROFIL
 10
-21.69197290152556
 20
3.8685755981090888
 30
0.0
 42
0.4142135623730951
  0
VERTEX
  5
1135
  8
SAPA_PROFIL
 10
-21.391972901525492
 20
3.568575598109077
 30
0.0
  0
VERTEX
  5
1136
  8
SAPA_PROFIL
 10
98.008027098474486
 20
3.5685755981091338
 30
0.0
 42
0.4142135623730951
  0
VERTEX
  5
1137
  8
SAPA_PROFIL
 10
98.308027098474454
 20
3.8685755981091461
 30
0.0
  0
SEQEND
  5
1138
  8
SAPA_PROFIL
  0
LINE
  5
A01
  8
SAPA_PROFIL
 10
98.308027098474412
 20
3.8685755981091461
 30
0.0
 11
98.308027098474412
 21
7.7685755981091233
 31
0.0
  0
ARC
  5
A02
  8
SAPA_PROFIL
 10
98.008027098474429
 20
3.8685755981091172
 30
0.0
 40
0.2999999999999829
 50
270.0000000000054
 51
0.0000000000054281
  0
LINE
  5
A03
  8
SAPA_PROFIL
 10
-21.39197290152552
 20
3.568575598109077
 30
0.0
 11
98.008027098474443
 21
3.5685755981091338
 31
0.0
  0
ARC
  5
A04
  8
SAPA_PROFIL
 10
-21.391972901525548
 20
3.8685755981091172
 30
0.0
 40
0.3000000000000398
 50
180.0000000000054
 51
270.0000000000054
  0
LINE
  5
A05
  8
SAPA_PROFIL
 10
-21.691972901525592
 20
7.7685755981090656
 30
0.0
 11
-21.691972901525592
 21
3.8685755981090888
 31
0.0
  0
ARC
  5
A06
  8
SAPA_PROFIL
 10
-21.391972901525548
 20
7.7685755981090381
 30
0.0
 40
0.3000000000000398
 50
89.999999999994586
 51
179.99999999999449
  0
LINE
  5
A07
  8
SAPA_PROFIL
 10
-20.181972901525601
 20
8.0685755981090779
 30
0.0
 11
-21.39197290152552
 21
8.0685755981090779
 31
0.0
  0
ARC
  5
A08
  8
SAPA_PROFIL
 10
-20.181972901525601
 20
7.0785755981090679
 30
0.0
 40
0.990000000000009
 50
0.0
 51
90.0
  0
LINE
  5
A09
  8
SAPA_PROFIL
 10
-19.191972901525592
 20
7.068575598109077
 30
0.0
 11
-19.191972901525592
 21
7.0785755981090679
 31
0.0
  0
LINE
  5
A0A
  8
SAPA_PROFIL
 10
-20.441972901525592
 20
7.068575598109077
 30
0.0
 11
-19.191972901525592
 21
7.068575598109077
 31
0.0
  0
LINE
  5
A0B
  8
SAPA_PROFIL
 10
-20.441972901525592
 20
5.568575598109077
 30
0.0
 11
-20.441972901525592
 21
7.068575598109077
 31
0.0
  0
ARC
  5
A0C
  8
SAPA_PROFIL
 10
-19.941972901525592
 20
5.568575598109077
 30
0.0
 40
0.5
 50
180.0
 51
270.0
  0
LINE
  5
A0D
  8
SAPA_PROFIL
 10
-11.94197290152559
 20
5.068575598109077
 30
0.0
 11
-19.941972901525592
 21
5.068575598109077
 31
0.0
  0
ARC
  5
A0E
  8
SAPA_PROFIL
 10
-11.94197290152559
 20
5.568575598109077
 30
0.0
 40
0.5
 50
270.0
 51
0.0
  0
LINE
  5
A0F
  8
SAPA_PROFIL
 10
-11.441972901525579
 20
7.068575598109077
 30
0.0
 11
-11.441972901525579
 21
5.568575598109077
 31
0.0
  0
LINE
  5
A10
  8
SAPA_PROFIL
 10
-12.69197290152559
 20
7.068575598109077
 30
0.0
 11
-11.441972901525579
 21
7.068575598109077
 31
0.0
  0
LINE
  5
A11
  8
SAPA_PROFIL
 10
-12.69197290152559
 20
7.0785755981090679
 30
0.0
 11
-12.69197290152559
 21
7.068575598109077
 31
0.0
  0
ARC
  5
A12
  8
SAPA_PROFIL
 10
-11.701972901525579
 20
7.0785755981090679
 30
0.0
 40
0.990000000000009
 50
90.0
 51
180.0
  0
LINE
  5
A13
  8
SAPA_PROFIL
 10
-11.181972901525601
 20
8.0685755981090779
 30
0.0
 11
-11.701972901525579
 21
8.0685755981090779
 31
0.0
  0
ARC
  5
A14
  8
SAPA_PROFIL
 10
-11.181972901525601
 20
7.0785755981090679
 30
0.0
 40
0.990000000000009
 50
0.0
 51
90.0
  0
LINE
  5
A15
  8
SAPA_PROFIL
 10
-10.191972901525579
 20
5.8685755981090892
 30
0.0
 11
-10.191972901525579
 21
7.0785755981090679
 31
0.0
  0
ARC
  5
A16
  8
SAPA_PROFIL
 10
-9.6919729015255882
 20
5.8685755981090892
 30
0.0
 40
0.5
 50
180.0
 51
270.0
  0
LINE
  5
A17
  8
SAPA_PROFIL
 10
0.3080270984744118
 20
5.3685755981090892
 30
0.0
 11
-9.6919729015255882
 21
5.3685755981090892
 31
0.0
  0
LINE
  5
A18
  8
SAPA_PROFIL
 10
0.3080270984744118
 20
6.568575598109077
 30
0.0
 11
0.3080270984744118
 21
5.3685755981090892
 31
0.0
  0
LINE
  5
A19
  8
SAPA_PROFIL
 10
1.3080270984744109
 20
7.568575598109077
 30
0.0
 11
0.3080270984744118
 21
6.568575598109077
 31
0.0
  0
LINE
  5
A1A
  8
SAPA_PROFIL
 10
2.3080270984744109
 20
7.568575598109077
 30
0.0
 11
1.3080270984744109
 21
7.568575598109077
 31
0.0
  0
LINE
  5
A1B
  8
SAPA_PROFIL
 10
2.3080270984744109
 20
5.3685755981090892
 30
0.0
 11
2.3080270984744109
 21
7.568575598109077
 31
0.0
  0
LINE
  5
A1C
  8
SAPA_PROFIL
 10
5.3080270984744109
 20
5.3685755981090892
 30
0.0
 11
2.3080270984744109
 21
5.3685755981090892
 31
0.0
  0
LINE
  5
A1D
  8
SAPA_PROFIL
 10
5.3080270984744109
 20
24.068575598109138
 30
0.0
 11
5.3080270984744109
 21
5.3685755981090892
 31
0.0
  0
LINE
  5
A1E
  8
SAPA_PROFIL
 10
2.3080270984744109
 20
24.068575598109138
 30
0.0
 11
5.3080270984744109
 21
24.068575598109138
 31
0.0
  0
LINE
  5
A1F
  8
SAPA_PROFIL
 10
2.3080270984744109
 20
21.568575598109081
 30
0.0
 11
2.3080270984744109
 21
24.068575598109138
 31
0.0
  0
LINE
  5
A20
  8
SAPA_PROFIL
 10
1.3080270984744109
 20
21.568575598109081
 30
0.0
 11
2.3080270984744109
 21
21.568575598109081
 31
0.0
  0
LINE
  5
A21
  8
SAPA_PROFIL
 10
0.5080270984744573
 20
22.368575598109089
 30
0.0
 11
1.3080270984744109
 21
21.568575598109081
 31
0.0
  0
LINE
  5
A22
  8
SAPA_PROFIL
 10
0.5080270984744573
 20
28.04896035583846
 30
0.0
 11
0.5080270984744573
 21
22.368575598109089
 31
0.0
  0
LINE
  5
A23
  8
SAPA_PROFIL
 10
0.8080270984745254
 20
28.568575598109138
 30
0.0
 11
0.5080270984744573
 21
28.04896035583846
 31
0.0
  0
LINE
  5
A24
  8
SAPA_PROFIL
 10
0.5080270984744573
 20
29.088190840379809
 30
0.0
 11
0.8080270984745254
 21
28.568575598109138
 31
0.0
  0
LINE
  5
A25
  8
SAPA_PROFIL
 10
0.5080270984744573
 20
34.76857559810918
 30
0.0
 11
0.5080270984744573
 21
29.088190840379809
 31
0.0
  0
LINE
  5
A26
  8
SAPA_PROFIL
 10
1.308027098474525
 20
35.568575598109142
 30
0.0
 11
0.5080270984744573
 21
34.76857559810918
 31
0.0
  0
LINE
  5
A27
  8
SAPA_PROFIL
 10
2.308027098474525
 20
35.568575598109142
 30
0.0
 11
1.308027098474525
 21
35.568575598109142
 31
0.0
  0
LINE
  5
A28
  8
SAPA_PROFIL
 10
2.308027098474525
 20
33.068575598109142
 30
0.0
 11
2.308027098474525
 21
35.568575598109142
 31
0.0
  0
LINE
  5
A29
  8
SAPA_PROFIL
 10
5.3080270984745246
 20
33.068575598109142
 30
0.0
 11
2.308027098474525
 21
33.068575598109142
 31
0.0
  0
LINE
  5
A2A
  8
SAPA_PROFIL
 10
5.3080270984745246
 20
51.768575598109067
 30
0.0
 11
5.3080270984745246
 21
33.068575598109142
 31
0.0
  0
LINE
  5
A2B
  8
SAPA_PROFIL
 10
2.308027098474525
 20
51.768575598109067
 30
0.0
 11
5.3080270984745246
 21
51.768575598109067
 31
0.0
  0
LINE
  5
A2C
  8
SAPA_PROFIL
 10
2.308027098474525
 20
49.568575598109128
 30
0.0
 11
2.308027098474525
 21
51.768575598109067
 31
0.0
  0
LINE
  5
A2D
  8
SAPA_PROFIL
 10
1.308027098474525
 20
49.568575598109128
 30
0.0
 11
2.308027098474525
 21
49.568575598109128
 31
0.0
  0
LINE
  5
A2E
  8
SAPA_PROFIL
 10
0.3080270984745255
 20
50.568575598109142
 30
0.0
 11
1.308027098474525
 21
49.568575598109128
 31
0.0
  0
LINE
  5
A2F
  8
SAPA_PROFIL
 10
0.3080270984745255
 20
53.568575598109128
 30
0.0
 11
0.3080270984745255
 21
50.568575598109142
 31
0.0
  0
LINE
  5
A30
  8
SAPA_PROFIL
 10
75.808027098474412
 20
53.568575598109128
 30
0.0
 11
0.3080270984745255
 21
53.568575598109128
 31
0.0
  0
ARC
  5
A31
  8
SAPA_PROFIL
 10
75.808027098474412
 20
53.068575598109142
 30
0.0
 40
0.5
 50
0.0
 51
90.0
  0
LINE
  5
A32
  8
SAPA_PROFIL
 10
76.308027098474412
 20
47.568575598109128
 30
0.0
 11
76.308027098474412
 21
53.068575598109142
 31
0.0
  0
ARC
  5
A33
  8
SAPA_PROFIL
 10
77.308027098474412
 20
47.568575598109128
 30
0.0
 40
1.0
 50
180.0
 51
270.0
  0
LINE
  5
A34
  8
SAPA_PROFIL
 10
85.308027098474398
 20
46.568575598109128
 30
0.0
 11
77.308027098474412
 21
46.568575598109128
 31
0.0
  0
ARC
  5
A35
  8
SAPA_PROFIL
 10
85.308027098474398
 20
45.568575598109142
 30
0.0
 40
1.0
 50
0.0
 51
90.0
  0
LINE
  5
A36
  8
SAPA_PROFIL
 10
86.308027098474426
 20
45.368575598109203
 30
0.0
 11
86.308027098474426
 21
45.568575598109142
 31
0.0
  0
ARC
  5
A37
  8
SAPA_PROFIL
 10
85.808027098474412
 20
45.368575598109203
 30
0.0
 40
0.5
 50
270.0
 51
0.0
  0
LINE
  5
A38
  8
SAPA_PROFIL
 10
84.308027098474412
 20
44.868575598109203
 30
0.0
 11
85.808027098474412
 21
44.868575598109203
 31
0.0
  0
ARC
  5
A39
  8
SAPA_PROFIL
 10
84.308027098474412
 20
44.368575598109203
 30
0.0
 40
0.5
 50
90.0
 51
180.0
  0
LINE
  5
A3A
  8
SAPA_PROFIL
 10
83.808027098474426
 20
5.8685755981090892
 30
0.0
 11
83.808027098474426
 21
44.368575598109203
 31
0.0
  0
ARC
  5
A3B
  8
SAPA_PROFIL
 10
84.308027098474454
 20
5.8685755981091461
 30
0.0
 40
0.500000000000057
 50
180.00000000000651
 51
270.00000000000648
  0
LINE
  5
A3C
  8
SAPA_PROFIL
 10
86.308027098474525
 20
5.3685755981091461
 30
0.0
 11
84.308027098474525
 21
5.3685755981090892
 31
0.0
  0
ARC
  5
A3D
  8
SAPA_PROFIL
 10
86.308027098474469
 20
5.8685755981090892
 30
0.0
 40
0.4999999999999432
 50
270.00000000000648
 51
0.0000000000065138
  0
LINE
  5
A3E
  8
SAPA_PROFIL
 10
86.808027098474412
 20
7.0785755981091247
 30
0.0
 11
86.808027098474412
 21
5.8685755981091461
 31
0.0
  0
ARC
  5
A3F
  8
SAPA_PROFIL
 10
87.798027098474435
 20
7.0785755981091247
 30
0.0
 40
0.990000000000009
 50
90.0
 51
180.0
  0
LINE
  5
A40
  8
SAPA_PROFIL
 10
88.318027098474403
 20
8.0685755981091347
 30
0.0
 11
87.798027098474435
 21
8.0685755981091347
 31
0.0
  0
ARC
  5
A41
  8
SAPA_PROFIL
 10
88.318027098474403
 20
7.0785755981091247
 30
0.0
 40
0.990000000000009
 50
0.0
 51
90.0
  0
LINE
  5
A42
  8
SAPA_PROFIL
 10
89.308027098474412
 20
7.0685755981091338
 30
0.0
 11
89.308027098474412
 21
7.0785755981091247
 31
0.0
  0
LINE
  5
A43
  8
SAPA_PROFIL
 10
88.058027098474412
 20
7.0685755981091338
 30
0.0
 11
89.308027098474412
 21
7.0685755981091338
 31
0.0
  0
LINE
  5
A44
  8
SAPA_PROFIL
 10
88.058027098474412
 20
5.5685755981091338
 30
0.0
 11
88.058027098474412
 21
7.0685755981091338
 31
0.0
  0
ARC
  5
A45
  8
SAPA_PROFIL
 10
88.558027098474469
 20
5.5685755981091907
 30
0.0
 40
0.500000000000057
 50
180.00000000000651
 51
270.00000000000648
  0
LINE
  5
A46
  8
SAPA_PROFIL
 10
96.558027098474525
 20
5.0685755981091338
 30
0.0
 11
88.558027098474525
 21
5.0685755981091338
 31
0.0
  0
ARC
  5
A47
  8
SAPA_PROFIL
 10
96.558027098474469
 20
5.568575598109077
 30
0.0
 40
0.4999999999999432
 50
270.00000000000648
 51
0.0000000000065138
  0
LINE
  5
A48
  8
SAPA_PROFIL
 10
97.058027098474412
 20
7.0685755981091338
 30
0.0
 11
97.058027098474412
 21
5.5685755981091338
 31
0.0
  0
LINE
  5
A49
  8
SAPA_PROFIL
 10
95.808027098474412
 20
7.0685755981091338
 30
0.0
 11
97.058027098474412
 21
7.0685755981091338
 31
0.0
  0
LINE
  5
A4A
  8
SAPA_PROFIL
 10
95.808027098474412
 20
7.0785755981091247
 30
0.0
 11
95.808027098474412
 21
7.0685755981091338
 31
0.0
  0
ARC
  5
A4B
  8
SAPA_PROFIL
 10
96.798027098474435
 20
7.0785755981091247
 30
0.0
 40
0.990000000000009
 50
90.0
 51
180.0
  0
LINE
  5
A4C
  8
SAPA_PROFIL
 10
98.008027098474443
 20
8.0685755981091347
 30
0.0
 11
96.798027098474435
 21
8.0685755981091347
 31
0.0
  0
ARC
  5
A4D
  8
SAPA_PROFIL
 10
98.008027098474429
 20
7.7685755981091509
 30
0.0
 40
0.2999999999999829
 50
359.99999999999449
 51
89.999999999994586
  0
ARC
  5
A4E
  8
SAPA_PROFIL
 10
81.508027098474443
 20
5.8685755981091461
 30
0.0
 40
0.5
 50
270.0
 51
0.0
  0
LINE
  5
A4F
  8
SAPA_PROFIL
 10
7.1080270984744791
 20
5.3685755981090892
 30
0.0
 11
81.508027098474443
 21
5.3685755981091461
 31
0.0
  0
LINE
  5
A50
  8
SAPA_PROFIL
 10
7.1080270984744791
 20
26.473575598109111
 30
0.0
 11
7.1080270984744791
 21
5.3685755981090892
 31
0.0
  0
ARC
  5
A51
  8
SAPA_PROFIL
 10
6.6130270984744746
 20
26.473575598109111
 30
0.0
 40
0.4950000000000046
 50
0.0
 51
90.0
  0
LINE
  5
A52
  8
SAPA_PROFIL
 10
6.6030270984744837
 20
26.968575598109108
 30
0.0
 11
6.6130270984744746
 21
26.968575598109108
 31
0.0
  0
ARC
  5
A53
  8
SAPA_PROFIL
 10
6.6030270984744837
 20
26.473575598109111
 30
0.0
 40
0.4950000000000046
 50
90.0
 51
180.0
  0
LINE
  5
A54
  8
SAPA_PROFIL
 10
6.1080270984744791
 20
26.313575598109029
 30
0.0
 11
6.1080270984744791
 21
26.473575598109111
 31
0.0
  0
ARC
  5
A55
  8
SAPA_PROFIL
 10
5.6130270984745207
 20
26.3135755981091
 30
0.0
 40
0.4949999999999584
 50
269.9999999999946
 51
359.9999999999921
  0
LINE
  5
A56
  8
SAPA_PROFIL
 10
4.8080270984744109
 20
25.818575598109131
 30
0.0
 11
5.6130270984744746
 21
25.818575598109131
 31
0.0
  0
ARC
  5
A57
  8
SAPA_PROFIL
 10
4.808027098473417
 20
28.56857559810998
 30
0.0
 40
2.7500000000008442
 50
187.82475693915711
 51
270.00000000002069
  0
LINE
  5
A58
  8
SAPA_PROFIL
 10
2.4580270984748429
 20
28.568575598109138
 30
0.0
 11
2.0836320552383252
 21
28.19418055487262
 31
0.0
  0
LINE
  5
A59
  8
SAPA_PROFIL
 10
2.0836320552401442
 20
28.942970641345429
 30
0.0
 11
2.4580270984748429
 21
28.568575598109138
 31
0.0
  0
ARC
  5
A5A
  8
SAPA_PROFIL
 10
4.808027098474513
 20
28.568575598109149
 30
0.0
 40
2.7499999999999778
 50
89.999999999999758
 51
172.17524306086341
  0
LINE
  5
A5B
  8
SAPA_PROFIL
 10
5.6130270984745891
 20
31.318575598109138
 30
0.0
 11
4.8080270984745246
 21
31.318575598109138
 31
0.0
  0
ARC
  5
A5C
  8
SAPA_PROFIL
 10
5.6130270984745207
 20
30.82357559810918
 30
0.0
 40
0.4949999999999584
 50
359.99999999999471
 51
89.999999999992184
  0
LINE
  5
A5D
  8
SAPA_PROFIL
 10
6.1080270984744791
 20
30.663575598109158
 30
0.0
 11
6.1080270984744791
 21
30.82357559810913
 31
0.0
  0
ARC
  5
A5E
  8
SAPA_PROFIL
 10
6.6030270984744837
 20
30.663575598109158
 30
0.0
 40
0.4950000000000046
 50
180.0
 51
270.0
  0
LINE
  5
A5F
  8
SAPA_PROFIL
 10
6.6130270984744746
 20
30.168575598109161
 30
0.0
 11
6.6030270984744837
 21
30.168575598109161
 31
0.0
  0
ARC
  5
A60
  8
SAPA_PROFIL
 10
6.6130270984744746
 20
30.663575598109158
 30
0.0
 40
0.4950000000000046
 50
270.0
 51
0.0
  0
LINE
  5
A61
  8
SAPA_PROFIL
 10
7.1080270984744791
 20
51.768575598109067
 30
0.0
 11
7.1080270984744791
 21
30.663575598109158
 31
0.0
  0
LINE
  5
A62
  8
SAPA_PROFIL
 10
74.008027098474457
 20
51.768575598109067
 30
0.0
 11
7.1080270984744791
 21
51.768575598109067
 31
0.0
  0
ARC
  5
A63
  8
SAPA_PROFIL
 10
74.008027098474457
 20
51.268575598109067
 30
0.0
 40
0.5
 50
0.0
 51
90.0
  0
LINE
  5
A64
  8
SAPA_PROFIL
 10
74.508027098474457
 20
45.868575598109203
 30
0.0
 11
74.508027098474457
 21
51.268575598109067
 31
0.0
  0
ARC
  5
A65
  8
SAPA_PROFIL
 10
75.508027098474443
 20
45.868575598109203
 30
0.0
 40
1.0
 50
180.0
 51
270.0
  0
LINE
  5
A66
  8
SAPA_PROFIL
 10
81.508027098474443
 20
44.868575598109089
 30
0.0
 11
75.508027098474443
 21
44.868575598109203
 31
0.0
  0
ARC
  5
A67
  8
SAPA_PROFIL
 10
81.508027098474443
 20
44.368575598109089
 30
0.0
 40
0.5
 50
0.0
 51
90.0
  0
LINE
  5
A68
  8
SAPA_PROFIL
 10
82.008027098474457
 20
41.588190840379809
 30
0.0
 11
82.008027098474457
 21
44.368575598109089
 31
0.0
  0
LINE
  5
A69
  8
SAPA_PROFIL
 10
82.308027098474412
 20
41.068575598109128
 30
0.0
 11
82.008027098474457
 21
41.588190840379809
 31
0.0
  0
LINE
  5
A6A
  8
SAPA_PROFIL
 10
82.008027098474457
 20
40.54896035583846
 30
0.0
 11
82.308027098474412
 21
41.068575598109128
 31
0.0
  0
LINE
  5
A6B
  8
SAPA_PROFIL
 10
82.008027098474457
 20
37.068575598109128
 30
0.0
 11
82.008027098474457
 21
40.54896035583846
 31
0.0
  0
LINE
  5
A6C
  8
SAPA_PROFIL
 10
81.998027098474694
 20
37.068575598109128
 30
0.0
 11
82.008027098474457
 21
37.068575598109128
 31
0.0
  0
LINE
  5
A6D
  8
SAPA_PROFIL
 10
81.308027098474625
 20
36.378575598109201
 30
0.0
 11
81.998027098474694
 21
37.068575598109128
 31
0.0
  0
LINE
  5
A6E
  8
SAPA_PROFIL
 10
81.308027098474625
 20
29.088190840379809
 30
0.0
 11
81.308027098474625
 21
36.378575598109201
 31
0.0
  0
LINE
  5
A6F
  8
SAPA_PROFIL
 10
81.608027098474594
 20
28.568575598109138
 30
0.0
 11
81.308027098474625
 21
29.088190840379809
 31
0.0
  0
LINE
  5
A70
  8
SAPA_PROFIL
 10
81.308027098474625
 20
28.04896035583846
 30
0.0
 11
81.608027098474594
 21
28.568575598109138
 31
0.0
  0
LINE
  5
A71
  8
SAPA_PROFIL
 10
81.308027098474525
 20
20.758575598109129
 30
0.0
 11
81.308027098474625
 21
28.04896035583846
 31
0.0
  0
LINE
  5
A72
  8
SAPA_PROFIL
 10
81.998027098474466
 20
20.068575598109138
 30
0.0
 11
81.308027098474525
 21
20.758575598109129
 31
0.0
  0
LINE
  5
A73
  8
SAPA_PROFIL
 10
82.008027098474457
 20
20.068575598109138
 30
0.0
 11
81.998027098474466
 21
20.068575598109138
 31
0.0
  0
LINE
  5
A74
  8
SAPA_PROFIL
 10
82.008027098474457
 20
15.08819084037969
 30
0.0
 11
82.008027098474457
 21
20.068575598109138
 31
0.0
  0
LINE
  5
A75
  8
SAPA_PROFIL
 10
82.308027098474412
 20
14.56857559810908
 30
0.0
 11
82.008027098474457
 21
15.08819084037969
 31
0.0
  0
LINE
  5
A76
  8
SAPA_PROFIL
 10
82.008027098474457
 20
14.04896035583846
 30
0.0
 11
82.308027098474412
 21
14.56857559810908
 31
0.0
  0
LINE
  5
A77
  8
SAPA_PROFIL
 10
82.008027098474457
 20
5.8685755981091461
 30
0.0
 11
82.008027098474457
 21
14.04896035583846
 31
0.0
  0
POLYLINE
  5
A78
  8
SAPA_PROFIL
 66
     1
 10
0.0
 20
0.0
 30
0.0
  0
VERTEX
  5
1139
  8
SAPA_PROFIL
 10
-2.5707098230773222
 20
37.24702041747571
 30
0.0
  0
VERTEX
  5
113A
  8
SAPA_PROFIL
 10
-19.691972901527659
 20
36.565980483617409
 30
0.0
 42
-0.4142135623730951
  0
VERTEX
  5
113B
  8
SAPA_PROFIL
 10
-20.191972901527659
 20
37.065980483617409
 30
0.0
  0
VERTEX
  5
113C
  8
SAPA_PROFIL
 10
-20.19197290152761
 20
48.865593966626129
 30
0.0
 42
-0.4076767287637263
  0
VERTEX
  5
113D
  8
SAPA_PROFIL
 10
-17.259076550710681
 20
51.864843799015659
 30
0.0
  0
VERTEX
  5
113E
  8
SAPA_PROFIL
 10
-2.5707098230773222
 20
52.019283021126448
 30
0.0
 42
-0.4182129759575463
  0
VERTEX
  5
113F
  8
SAPA_PROFIL
 10
-2.0595487110218178
 20
51.523771300269289
 30
0.0
  0
VERTEX
  5
1140
  8
SAPA_PROFIL
 10
-2.046721109496104
 20
49.04912354414995
 30
0.0
  0
VERTEX
  5
1141
  8
SAPA_PROFIL
 10
-0.3920325118722871
 20
47.423065587956387
 30
0.0
  0
VERTEX
  5
1142
  8
SAPA_PROFIL
 10
4.1570435224159041
 20
47.423065587956387
 30
0.0
 42
0.4293387945586749
  0
VERTEX
  5
1143
  8
SAPA_PROFIL
 10
4.4537700435004117
 20
47.741176723945728
 30
0.0
  0
VERTEX
  5
1144
  8
SAPA_PROFIL
 10
4.3811303673726911
 20
48.822632449216201
 30
0.0
 42
0.4883397947196161
  0
VERTEX
  5
1145
  8
SAPA_PROFIL
 10
2.8194085413643388
 20
48.602009515017983
 30
0.0
  0
VERTEX
  5
1146
  8
SAPA_PROFIL
 10
0.1203272653299336
 20
48.602009515017983
 30
0.0
  0
VERTEX
  5
1147
  8
SAPA_PROFIL
 10
-0.8511043810461842
 20
49.556632735215828
 30
0.0
  0
VERTEX
  5
1148
  8
SAPA_PROFIL
 10
-0.8511043810461842
 20
52.055758878100903
 30
0.0
  0
VERTEX
  5
1149
  8
SAPA_PROFIL
 10
-0.377328714531302
 20
52.055758878100903
 30
0.0
  0
VERTEX
  5
114A
  8
SAPA_PROFIL
 10
-0.377328714531302
 20
53.568575598109128
 30
0.0
  0
VERTEX
  5
114B
  8
SAPA_PROFIL
 10
-21.394613608219739
 20
53.568575598109248
 30
0.0
 42
0.4116378201539302
  0
VERTEX
  5
114C
  8
SAPA_PROFIL
 10
-21.691972901527599
 20
53.268587120438902
 30
0.0
  0
VERTEX
  5
114D
  8
SAPA_PROFIL
 10
-21.691972901527659
 20
24.86598048361742
 30
0.0
 42
0.414213562373095
  0
VERTEX
  5
114E
  8
SAPA_PROFIL
 10
-21.391972901527652
 20
24.565980483617359
 30
0.0
  0
VERTEX
  5
114F
  8
SAPA_PROFIL
 10
-20.181972901527669
 20
24.565980483617409
 30
0.0
 42
0.4142135623731037
  0
VERTEX
  5
1150
  8
SAPA_PROFIL
 10
-19.191972901527659
 20
25.555980483617361
 30
0.0
  0
VERTEX
  5
1151
  8
SAPA_PROFIL
 10
-19.191972901527659
 20
25.565980483617409
 30
0.0
  0
VERTEX
  5
1152
  8
SAPA_PROFIL
 10
-20.441972901527659
 20
25.565980483617409
 30
0.0
  0
VERTEX
  5
1153
  8
SAPA_PROFIL
 10
-20.441972901527659
 20
27.065980483617409
 30
0.0
 42
-0.4142135623730951
  0
VERTEX
  5
1154
  8
SAPA_PROFIL
 10
-19.941972901527659
 20
27.565980483617409
 30
0.0
  0
VERTEX
  5
1155
  8
SAPA_PROFIL
 10
-11.941972901527659
 20
27.565980483617409
 30
0.0
 42
-0.4142135623730951
  0
VERTEX
  5
1156
  8
SAPA_PROFIL
 10
-11.441972901527659
 20
27.065980483617409
 30
0.0
  0
VERTEX
  5
1157
  8
SAPA_PROFIL
 10
-11.441972901527659
 20
25.565980483617409
 30
0.0
  0
VERTEX
  5
1158
  8
SAPA_PROFIL
 10
-12.691972901527659
 20
25.565980483617409
 30
0.0
  0
VERTEX
  5
1159
  8
SAPA_PROFIL
 10
-12.691972901527659
 20
25.555980483617361
 30
0.0
 42
0.414213562373095
  0
VERTEX
  5
115A
  8
SAPA_PROFIL
 10
-11.70197290152765
 20
24.565980483617359
 30
0.0
  0
VERTEX
  5
115B
  8
SAPA_PROFIL
 10
-11.191972901527659
 20
24.565980483617409
 30
0.0
 42
0.4142135623730953
  0
VERTEX
  5
115C
  8
SAPA_PROFIL
 10
-10.191972901527659
 20
25.565980483617409
 30
0.0
  0
VERTEX
  5
115D
  8
SAPA_PROFIL
 10
-10.191972901527659
 20
27.065980483617409
 30
0.0
 42
0.4142135623730951
  0
VERTEX
  5
115E
  8
SAPA_PROFIL
 10
-11.89197290152765
 20
28.765980483617401
 30
0.0
  0
VERTEX
  5
115F
  8
SAPA_PROFIL
 10
-19.691972901527659
 20
28.765980483617462
 30
0.0
 42
-0.414213562373095
  0
VERTEX
  5
1160
  8
SAPA_PROFIL
 10
-20.191972901527659
 20
29.265980483617451
 30
0.0
  0
VERTEX
  5
1161
  8
SAPA_PROFIL
 10
-20.191972901527659
 20
34.765980483617462
 30
0.0
 42
-0.4142135623730951
  0
VERTEX
  5
1162
  8
SAPA_PROFIL
 10
-19.691972901527659
 20
35.265980483617462
 30
0.0
  0
VERTEX
  5
1163
  8
SAPA_PROFIL
 10
-2.5707098230773222
 20
35.937190130083771
 30
0.0
  0
VERTEX
  5
1164
  8
SAPA_PROFIL
 10
2.8322369406723729
 20
36.594128580813113
 30
0.0
 42
-0.4666505291506209
  0
VERTEX
  5
1165
  8
SAPA_PROFIL
 10
3.1120385065911469
 20
36.332297049768563
 30
0.0
  0
VERTEX
  5
1166
  8
SAPA_PROFIL
 10
3.0724956126728098
 20
35.609640956209603
 30
0.0
 42
0.7332303362618522
  0
VERTEX
  5
1167
  8
SAPA_PROFIL
 10
3.60857163532512
 20
35.409466367639432
 30
0.0
  0
VERTEX
  5
1168
  8
SAPA_PROFIL
 10
4.3794817528295189
 20
37.51957370717713
 30
0.0
 42
0.668178637919333
  0
VERTEX
  5
1169
  8
SAPA_PROFIL
 10
4.1063155576352406
 20
38.001921559267942
 30
0.0
  0
VERTEX
  5
116A
  8
SAPA_PROFIL
 10
-2.5707098230773222
 20
37.24702041747571
 30
0.0
  0
VERTEX
  5
116B
  8
SAPA_PROFIL
 10
-2.5707098230773222
 20
37.256553869638822
 30
0.0
  0
SEQEND
  5
116C
  8
SAPA_PROFIL
  0
POLYLINE
  5
A79
  8
SAPA_PROFIL
 66
     1
 10
0.0
 20
0.0
 30
0.0
 70
     1
  0
VERTEX
  5
116D
  8
SAPA_PROFIL
 10
81.308027098474611
 20
49.365684031849469
 30
0.0
 42
0.4142135623730951
  0
VERTEX
  5
116E
  8
SAPA_PROFIL
 10
81.608027098474565
 20
49.065684031849401
 30
0.0
  0
VERTEX
  5
116F
  8
SAPA_PROFIL
 10
82.818027098474587
 20
49.065684031849287
 30
0.0
 42
0.4142135623730951
  0
VERTEX
  5
1170
  8
SAPA_PROFIL
 10
83.808027098474611
 20
50.055684031849303
 30
0.0
  0
VERTEX
  5
1171
  8
SAPA_PROFIL
 10
83.808027098474611
 20
50.06568403184928
 30
0.0
  0
VERTEX
  5
1172
  8
SAPA_PROFIL
 10
82.558027098474611
 20
50.06568403184928
 30
0.0
  0
VERTEX
  5
1173
  8
SAPA_PROFIL
 10
82.558027098474611
 20
51.565684031849287
 30
0.0
 42
-0.4142135623730951
  0
VERTEX
  5
1174
  8
SAPA_PROFIL
 10
83.058027098474597
 20
52.06568403184928
 30
0.0
  0
VERTEX
  5
1175
  8
SAPA_PROFIL
 10
91.058027098474611
 20
52.06568403184928
 30
0.0
 42
-0.4142135623730951
  0
VERTEX
  5
1176
  8
SAPA_PROFIL
 10
91.558027098474625
 20
51.565684031849287
 30
0.0
  0
VERTEX
  5
1177
  8
SAPA_PROFIL
 10
91.558027098474625
 20
50.06568403184928
 30
0.0
  0
VERTEX
  5
1178
  8
SAPA_PROFIL
 10
90.308027098474625
 20
50.06568403184928
 30
0.0
  0
VERTEX
  5
1179
  8
SAPA_PROFIL
 10
90.308027098474625
 20
50.055684031849303
 30
0.0
 42
0.4142135623730951
  0
VERTEX
  5
117A
  8
SAPA_PROFIL
 10
91.29802709847462
 20
49.065684031849287
 30
0.0
  0
VERTEX
  5
117B
  8
SAPA_PROFIL
 10
91.818027098474602
 20
49.065684031849287
 30
0.0
 42
0.4142135623730951
  0
VERTEX
  5
117C
  8
SAPA_PROFIL
 10
92.808027098474625
 20
50.055684031849303
 30
0.0
  0
VERTEX
  5
117D
  8
SAPA_PROFIL
 10
92.808027098474554
 20
51.265684031849332
 30
0.0
 42
-0.4142135623730951
  0
VERTEX
  5
117E
  8
SAPA_PROFIL
 10
93.308027098474554
 20
51.765684031849332
 30
0.0
  0
VERTEX
  5
117F
  8
SAPA_PROFIL
 10
95.308027098474625
 20
51.765684031849332
 30
0.0
 42
-0.4142135623730951
  0
VERTEX
  5
1180
  8
SAPA_PROFIL
 10
95.808027098474611
 20
51.265684031849332
 30
0.0
  0
VERTEX
  5
1181
  8
SAPA_PROFIL
 10
95.808027098474554
 20
12.765684031849331
 30
0.0
 42
-0.4142135623730951
  0
VERTEX
  5
1182
  8
SAPA_PROFIL
 10
95.308027098474554
 20
12.265684031849331
 30
0.0
  0
VERTEX
  5
1183
  8
SAPA_PROFIL
 10
93.808027098474554
 20
12.265684031849331
 30
0.0
 42
0.4142135623730951
  0
VERTEX
  5
1184
  8
SAPA_PROFIL
 10
93.308027098474554
 20
11.765684031849331
 30
0.0
  0
VERTEX
  5
1185
  8
SAPA_PROFIL
 10
93.308027098474554
 20
11.565684031849401
 30
0.0
 42
0.4142135623730951
  0
VERTEX
  5
1186
  8
SAPA_PROFIL
 10
94.308027098474554
 20
10.565684031849401
 30
0.0
  0
VERTEX
  5
1187
  8
SAPA_PROFIL
 10
102.3080270984745
 20
10.565684031849401
 30
0.0
 42
-0.4142135623730951
  0
VERTEX
  5
1188
  8
SAPA_PROFIL
 10
103.3080270984745
 20
9.5656840318494005
 30
0.0
  0
VERTEX
  5
1189
  8
SAPA_PROFIL
 10
103.3080270984745
 20
4.0656840318493996
 30
0.0
 42
0.4142135623730951
  0
VERTEX
  5
118A
  8
SAPA_PROFIL
 10
103.8080270984745
 20
3.5656840318494001
 30
0.0
  0
VERTEX
  5
118B
  8
SAPA_PROFIL
 10
148.3080270984745
 20
3.565684031849286
 30
0.0
  0
VERTEX
  5
118C
  8
SAPA_PROFIL
 10
148.3080270984745
 20
6.565684031849286
 30
0.0
  0
VERTEX
  5
118D
  8
SAPA_PROFIL
 10
147.3080270984745
 20
7.565684031849286
 30
0.0
  0
VERTEX
  5
118E
  8
SAPA_PROFIL
 10
146.3080270984745
 20
7.565684031849286
 30
0.0
  0
VERTEX
  5
118F
  8
SAPA_PROFIL
 10
146.3080270984745
 20
5.3656840318493551
 30
0.0
  0
VERTEX
  5
1190
  8
SAPA_PROFIL
 10
143.3080270984745
 20
5.3656840318493551
 30
0.0
  0
VERTEX
  5
1191
  8
SAPA_PROFIL
 10
143.30802709847461
 20
24.06568403184929
 30
0.0
  0
VERTEX
  5
1192
  8
SAPA_PROFIL
 10
146.30802709847461
 20
24.06568403184929
 30
0.0
  0
VERTEX
  5
1193
  8
SAPA_PROFIL
 10
146.30802709847461
 20
21.56568403184929
 30
0.0
  0
VERTEX
  5
1194
  8
SAPA_PROFIL
 10
147.30802709847461
 20
21.56568403184929
 30
0.0
  0
VERTEX
  5
1195
  8
SAPA_PROFIL
 10
148.10802709847451
 20
22.365684031849359
 30
0.0
  0
VERTEX
  5
1196
  8
SAPA_PROFIL
 10
148.10802709847451
 20
28.046068789578609
 30
0.0
  0
VERTEX
  5
1197
  8
SAPA_PROFIL
 10
147.80802709847461
 20
28.56568403184929
 30
0.0
  0
VERTEX
  5
1198
  8
SAPA_PROFIL
 10
148.10802709847451
 20
29.085299274119961
 30
0.0
  0
VERTEX
  5
1199
  8
SAPA_PROFIL
 10
148.10802709847451
 20
34.765684031849332
 30
0.0
  0
VERTEX
  5
119A
  8
SAPA_PROFIL
 10
147.30802709847461
 20
35.565684031849287
 30
0.0
  0
VERTEX
  5
119B
  8
SAPA_PROFIL
 10
146.30802709847461
 20
35.565684031849287
 30
0.0
  0
VERTEX
  5
119C
  8
SAPA_PROFIL
 10
146.30802709847461
 20
33.065684031849287
 30
0.0
  0
VERTEX
  5
119D
  8
SAPA_PROFIL
 10
143.30802709847461
 20
33.065684031849287
 30
0.0
  0
VERTEX
  5
119E
  8
SAPA_PROFIL
 10
143.30802709847461
 20
51.765684031849332
 30
0.0
  0
VERTEX
  5
119F
  8
SAPA_PROFIL
 10
146.30802709847461
 20
51.765684031849332
 30
0.0
  0
VERTEX
  5
11A0
  8
SAPA_PROFIL
 10
146.30802709847461
 20
49.56568403184928
 30
0.0
  0
VERTEX
  5
11A1
  8
SAPA_PROFIL
 10
147.30802709847461
 20
49.56568403184928
 30
0.0
  0
VERTEX
  5
11A2
  8
SAPA_PROFIL
 10
148.30802709847461
 20
50.565684031849287
 30
0.0
  0
VERTEX
  5
11A3
  8
SAPA_PROFIL
 10
148.30802709847461
 20
53.565684031849287
 30
0.0
  0
VERTEX
  5
11A4
  8
SAPA_PROFIL
 10
81.608027098474565
 20
53.565684031849401
 30
0.0
 42
0.4142135623730951
  0
VERTEX
  5
11A5
  8
SAPA_PROFIL
 10
81.308027098474554
 20
53.265684031849332
 30
0.0
  0
SEQEND
  5
11A6
  8
SAPA_PROFIL
  0
POLYLINE
  5
A7A
  8
SAPA_PROFIL
 66
     1
 10
0.0
 20
0.0
 30
0.0
 70
     1
  0
VERTEX
  5
11A7
  8
SAPA_PROFIL
 10
140.8080270984745
 20
36.778964756209923
 30
0.0
  0
VERTEX
  5
11A8
  8
SAPA_PROFIL
 10
140.80802709847461
 20
30.765684031849329
 30
0.0
 42
0.4142135623730941
  0
VERTEX
  5
11A9
  8
SAPA_PROFIL
 10
141.40802709847461
 20
30.16568403184931
 30
0.0
  0
VERTEX
  5
11AA
  8
SAPA_PROFIL
 10
141.90802709847461
 20
30.16568403184931
 30
0.0
 42
0.4142135623730951
  0
VERTEX
  5
11AB
  8
SAPA_PROFIL
 10
142.50802709847451
 20
30.765684031849329
 30
0.0
  0
VERTEX
  5
11AC
  8
SAPA_PROFIL
 10
142.50802709847451
 20
30.8206840318494
 30
0.0
 42
-0.4142135623730866
  0
VERTEX
  5
11AD
  8
SAPA_PROFIL
 10
143.00302709847449
 20
31.31568403184929
 30
0.0
  0
VERTEX
  5
11AE
  8
SAPA_PROFIL
 10
143.80802709847461
 20
31.31568403184929
 30
0.0
 42
-0.3747564601179694
  0
VERTEX
  5
11AF
  8
SAPA_PROFIL
 10
146.5324221417107
 20
28.940079075085801
 30
0.0
  0
VERTEX
  5
11B0
  8
SAPA_PROFIL
 10
146.15802709847421
 20
28.56568403184929
 30
0.0
  0
VERTEX
  5
11B1
  8
SAPA_PROFIL
 10
146.53242214170899
 20
28.19128898861311
 30
0.0
 42
-0.374756460117968
  0
VERTEX
  5
11B2
  8
SAPA_PROFIL
 10
143.80802709847461
 20
25.81568403184929
 30
0.0
  0
VERTEX
  5
11B3
  8
SAPA_PROFIL
 10
143.00302709847449
 20
25.81568403184929
 30
0.0
 42
-0.4142135623730866
  0
VERTEX
  5
11B4
  8
SAPA_PROFIL
 10
142.50802709847451
 20
26.310684031849291
 30
0.0
  0
VERTEX
  5
11B5
  8
SAPA_PROFIL
 10
142.50802709847451
 20
26.365684031849241
 30
0.0
 42
0.4142135623730951
  0
VERTEX
  5
11B6
  8
SAPA_PROFIL
 10
141.90802709847449
 20
26.965684031849261
 30
0.0
  0
VERTEX
  5
11B7
  8
SAPA_PROFIL
 10
141.40802709847461
 20
26.965684031849261
 30
0.0
 42
0.414213562373096
  0
VERTEX
  5
11B8
  8
SAPA_PROFIL
 10
140.80802709847461
 20
26.365684031849241
 30
0.0
  0
VERTEX
  5
11B9
  8
SAPA_PROFIL
 10
140.80802709847461
 20
20.352403307488661
 30
0.0
  0
VERTEX
  5
11BA
  8
SAPA_PROFIL
 10
141.50802709847451
 20
20.090684031849261
 30
0.0
  0
VERTEX
  5
11BB
  8
SAPA_PROFIL
 10
141.50802709847451
 20
15.08529927411996
 30
0.0
  0
VERTEX
  5
11BC
  8
SAPA_PROFIL
 10
141.8080270984745
 20
14.56568403184929
 30
0.0
  0
VERTEX
  5
11BD
  8
SAPA_PROFIL
 10
141.50802709847451
 20
14.04606878957861
 30
0.0
  0
VERTEX
  5
11BE
  8
SAPA_PROFIL
 10
141.50802709847451
 20
6.3656840318493551
 30
0.0
 42
-0.4142135623730951
  0
VERTEX
  5
11BF
  8
SAPA_PROFIL
 10
140.50802709847451
 20
5.3656840318493551
 30
0.0
  0
VERTEX
  5
11C0
  8
SAPA_PROFIL
 10
105.60802709847449
 20
5.3656840318493551
 30
0.0
 42
-0.4142135623730951
  0
VERTEX
  5
11C1
  8
SAPA_PROFIL
 10
105.10802709847449
 20
5.8656840318493551
 30
0.0
  0
VERTEX
  5
11C2
  8
SAPA_PROFIL
 10
105.10802709847449
 20
11.265684031849331
 30
0.0
 42
0.4142135623730951
  0
VERTEX
  5
11C3
  8
SAPA_PROFIL
 10
104.10802709847449
 20
12.265684031849331
 30
0.0
  0
VERTEX
  5
11C4
  8
SAPA_PROFIL
 10
99.30802709847444
 20
12.265684031849441
 30
0.0
 42
-0.4142135623730951
  0
VERTEX
  5
11C5
  8
SAPA_PROFIL
 10
98.308027098474454
 20
13.265684031849441
 30
0.0
  0
VERTEX
  5
11C6
  8
SAPA_PROFIL
 10
98.308027098474497
 20
50.765684031849332
 30
0.0
 42
-0.4142135623730951
  0
VERTEX
  5
11C7
  8
SAPA_PROFIL
 10
99.308027098474497
 20
51.765684031849332
 30
0.0
  0
VERTEX
  5
11C8
  8
SAPA_PROFIL
 10
140.50802709847451
 20
51.765684031849332
 30
0.0
 42
-0.4142135623730951
  0
VERTEX
  5
11C9
  8
SAPA_PROFIL
 10
141.50802709847451
 20
50.765684031849332
 30
0.0
  0
VERTEX
  5
11CA
  8
SAPA_PROFIL
 10
141.50802709847451
 20
43.085299274120068
 30
0.0
  0
VERTEX
  5
11CB
  8
SAPA_PROFIL
 10
141.80802709847461
 20
42.56568403184928
 30
0.0
  0
VERTEX
  5
11CC
  8
SAPA_PROFIL
 10
141.50802709847451
 20
42.046068789578612
 30
0.0
  0
VERTEX
  5
11CD
  8
SAPA_PROFIL
 10
141.50802709847451
 20
37.04068403184931
 30
0.0
  0
SEQEND
  5
11CE
  8
SAPA_PROFIL
  0
POLYLINE
  5
A9A
  8
SAPA_GLAS
 66
     1
 10
0.0
 20
0.0
 30
0.0
 70
     1
  0
VERTEX
  5
11F4
  8
SAPA_GLAS
 10
0.303743895631448
 20
20.438385371848579
 30
0.0
  0
VERTEX
  5
11F5
  8
SAPA_GLAS
 10
0.3037438956314764
 20
33.538385371848612
 30
0.0
  0
VERTEX
  5
11F6
  8
SAPA_GLAS
 10
-0.6962561043685236
 20
33.538385371848612
 30
0.0
  0
VERTEX
  5
11F7
  8
SAPA_GLAS
 10
-0.696256104368552
 20
21.438385371848579
 30
0.0
  0
VERTEX
  5
11F8
  8
SAPA_GLAS
 10
-12.696256104368549
 20
21.438385371848579
 30
0.0
  0
VERTEX
  5
11F9
  8
SAPA_GLAS
 10
-12.696256104368549
 20
20.438385371848579
 30
0.0
  0
SEQEND
  5
11FA
  8
SAPA_GLAS
  0
LINE
  5
A9B
  8
SAPA_GLAS
 62
     1
 10
-15.24540925718525
 20
18.83838537184857
 30
0.0
 11
-4.4962579031867334
 21
18.83838537184856
 31
0.0
  0
LINE
  5
A9C
  8
SAPA_GLAS
 62
     1
 10
-4.4962579031867334
 20
12.232968125720429
 30
0.0
 11
-15.18746277188556
 21
12.23296812572044
 31
0.0
  0
POLYLINE
  5
A9D
  8
SAPA_GLAS
 62
     6
 66
     1
 10
0.0
 20
0.0
 30
0.0
 70
     1
  0
VERTEX
  5
11FB
  8
SAPA_GLAS
 62
     6
 10
-0.6919729051733095
 20
18.83838537184856
 30
0.0
  0
VERTEX
  5
11FC
  8
SAPA_GLAS
 62
     6
 10
-12.69197290517331
 20
18.83838537184856
 30
0.0
  0
VERTEX
  5
11FD
  8
SAPA_GLAS
 62
     6
 10
-12.69197290517331
 20
20.438385371848579
 30
0.0
  0
VERTEX
  5
11FE
  8
SAPA_GLAS
 62
     6
 10
-0.6919729051733095
 20
20.438385371848579
 30
0.0
  0
SEQEND
  5
11FF
  8
SAPA_GLAS
 62
     6
  0
POLYLINE
  5
A9E
  8
SAPA_GLAS
 62
     6
 66
     1
 10
0.0
 20
0.0
 30
0.0
 70
     1
  0
VERTEX
  5
1200
  8
SAPA_GLAS
 62
     6
 10
-0.6919729051733095
 20
10.653624856966569
 30
0.0
  0
VERTEX
  5
1201
  8
SAPA_GLAS
 62
     6
 10
-12.69197290517331
 20
10.653624856966569
 30
0.0
  0
VERTEX
  5
1202
  8
SAPA_GLAS
 62
     6
 10
-12.69197290517331
 20
12.25362485696659
 30
0.0
  0
VERTEX
  5
1203
  8
SAPA_GLAS
 62
     6
 10
-0.6919729051733095
 20
12.25362485696659
 30
0.0
  0
SEQEND
  5
1204
  8
SAPA_GLAS
 62
     6
  0
POLYLINE
  5
A9F
  8
SAPA_GLAS
 66
     1
 10
0.0
 20
0.0
 30
0.0
 70
     1
  0
VERTEX
  5
1205
  8
SAPA_GLAS
 10
-0.6919729051733095
 20
10.653624856966569
 30
0.0
  0
VERTEX
  5
1206
  8
SAPA_GLAS
 10
-0.6919729051732811
 20
34.053379744328183
 30
0.0
  0
VERTEX
  5
1207
  8
SAPA_GLAS
 10
0.308027094826719
 20
34.053379744328183
 30
0.0
  0
VERTEX
  5
1208
  8
SAPA_GLAS
 10
0.3080270948266905
 20
9.653624856966573
 30
0.0
  0
VERTEX
  5
1209
  8
SAPA_GLAS
 10
-12.69197290517331
 20
9.653624856966573
 30
0.0
  0
VERTEX
  5
120A
  8
SAPA_GLAS
 10
-12.691972905173079
 20
10.653624856966569
 30
0.0
  0
SEQEND
  5
120B
  8
SAPA_GLAS
  0
LINE
  5
AA0
  8
SAPA_GLAS
 62
     1
 10
-4.6962579031867326
 20
18.718385371848669
 30
0.0
 11
-4.6962579031867326
 21
12.232968125720429
 31
0.0
  0
POLYLINE
  5
AA1
  8
SAPA_GLAS
 66
     1
 10
0.0
 20
0.0
 30
0.0
  0
VERTEX
  5
120C
  8
SAPA_GLAS
 10
-37.40851380906588
 20
18.53585553302884
 30
0.0
  0
VERTEX
  5
120D
  8
SAPA_GLAS
 10
-4.9022327051729908
 20
18.535855533028819
 30
0.0
  0
VERTEX
  5
120E
  8
SAPA_GLAS
 10
-4.9022327051729908
 20
12.535855533028821
 30
0.0
  0
VERTEX
  5
120F
  8
SAPA_GLAS
 10
-37.408513809065823
 20
12.53585553302883
 30
0.0
  0
SEQEND
  5
1210
  8
SAPA_GLAS
  0
LINE
  5
AA2
  8
SAPA_GLAS
  6
BYGG-022629$0$DASHDOT
 62
     2
 10
5.6111339104625193
 20
28.540498018727352
 30
0.0
 11
-5.7736278675532953
 21
28.540498018727352
 31
0.0
  0
POLYLINE
  5
AAF
  8
SAPA_FOGBAND
 66
     1
 10
0.0
 20
0.0
 30
0.0
 70
     1
  0
VERTEX
  5
1245
  8
SAPA_FOGBAND
 10
91.141498933750512
 20
50.446440955444658
 30
0.0
  0
VERTEX
  5
1246
  8
SAPA_FOGBAND
 10
90.362353295212273
 20
51.83917452458634
 30
0.0
  0
VERTEX
  5
1247
  8
SAPA_FOGBAND
 10
87.092546713031652
 20
51.83917452458622
 30
0.0
  0
VERTEX
  5
1248
  8
SAPA_FOGBAND
 10
83.822740130850946
 20
51.83917452458622
 30
0.0
  0
VERTEX
  5
1249
  8
SAPA_FOGBAND
 10
83.043594492312764
 20
50.446440955444537
 30
0.0
 42
0.5728458134769883
  0
VERTEX
  5
124A
  8
SAPA_FOGBAND
 10
83.130866060188694
 20
50.297618077195992
 30
0.0
  0
VERTEX
  5
124B
  8
SAPA_FOGBAND
 10
83.822740130850946
 20
50.297618077195992
 30
0.0
 42
-0.9999999999999998
  0
VERTEX
  5
124C
  8
SAPA_FOGBAND
 10
83.822740130850946
 20
49.01209868681174
 30
0.0
 42
0.9999999999999998
  0
VERTEX
  5
124D
  8
SAPA_FOGBAND
 10
83.822740130850946
 20
46.747770963915009
 30
0.0
  0
VERTEX
  5
124E
  8
SAPA_FOGBAND
 10
87.092546713031652
 20
46.747770963915009
 30
0.0
  0
VERTEX
  5
124F
  8
SAPA_FOGBAND
 10
90.362353295212316
 20
46.747770963915009
 30
0.0
 42
1.000000000000012
  0
VERTEX
  5
1250
  8
SAPA_FOGBAND
 10
90.362353295212316
 20
49.01209868681174
 30
0.0
 42
-0.9999999999999998
  0
VERTEX
  5
1251
  8
SAPA_FOGBAND
 10
90.362353295212316
 20
50.297618077195992
 30
0.0
  0
VERTEX
  5
1252
  8
SAPA_FOGBAND
 10
91.054227365874596
 20
50.297618077195992
 30
0.0
 42
0.5728458134769883
  0
SEQEND
  5
1253
  8
SAPA_FOGBAND
  0
POLYLINE
  5
AB0
  8
SAPA_FOGBAND
 66
     1
 10
0.0
 20
0.0
 30
0.0
 70
     1
  0
VERTEX
  5
1254
  8
SAPA_FOGBAND
 10
83.822740130850946
 20
47.147770963914986
 30
0.0
 42
-0.9999999999999998
  0
VERTEX
  5
1255
  8
SAPA_FOGBAND
 10
83.822740130850946
 20
48.612098686811763
 30
0.0
  0
VERTEX
  5
1256
  8
SAPA_FOGBAND
 10
90.362353295212316
 20
48.612098686811763
 30
0.0
 42
-1.000000000000012
  0
VERTEX
  5
1257
  8
SAPA_FOGBAND
 10
90.362353295212316
 20
47.147770963914986
 30
0.0
  0
VERTEX
  5
1258
  8
SAPA_FOGBAND
 10
87.092546713031652
 20
47.147770963914986
 30
0.0
  0
SEQEND
  5
1259
  8
SAPA_FOGBAND
  0
POLYLINE
  5
AB1
  8
SAPA_FOGBAND
 66
     1
 10
0.0
 20
0.0
 30
0.0
 70
     1
  0
VERTEX
  5
125A
  8
SAPA_FOGBAND
 10
85.671521479846319
 20
51.116809790994878
 30
0.0
 42
0.9999999999999998
  0
VERTEX
  5
125B
  8
SAPA_FOGBAND
 10
85.671521479846319
 20
49.753813897475148
 30
0.0
  0
VERTEX
  5
125C
  8
SAPA_FOGBAND
 10
88.307561636329027
 20
49.753813897475148
 30
0.0
 42
0.9944227986505279
  0
VERTEX
  5
125D
  8
SAPA_FOGBAND
 10
88.315184655867725
 20
51.116809790994992
 30
0.0
  0
SEQEND
  5
125E
  8
SAPA_FOGBAND
  0
INSERT
  5
AB2
  8
SAPA_FOGBAND
  2
BYGG-022629$0$18058
 10
-17.294879022447841
 20
21.424482049009612
 30
0.0
 41
-1.0
 50
270.0
  0
INSERT
  5
AB3
  8
SAPA_FOGBAND
  2
BYGG-022629$0$18049
 10
-15.645291329559649
 20
8.1379687185242489
 30
0.0
 41
-1.0
 50
270.0
  0
POLYLINE
  5
AB4
  8
SAPA_FOGBAND
 66
     1
 10
0.0
 20
0.0
 30
0.0
 70
     1
  0
VERTEX
  5
125F
  8
SAPA_FOGBAND
 10
93.944532717102746
 20
6.0174498389636142
 30
0.0
 42
0.9999999999999998
  0
VERTEX
  5
1260
  8
SAPA_FOGBAND
 10
93.944532717102746
 20
7.380445732483337
 30
0.0
  0
VERTEX
  5
1261
  8
SAPA_FOGBAND
 10
91.30849256062001
 20
7.380445732483337
 30
0.0
 42
0.9944227986505279
  0
VERTEX
  5
1262
  8
SAPA_FOGBAND
 10
91.300869541081255
 20
6.0174498389636142
 30
0.0
  0
SEQEND
  5
1263
  8
SAPA_FOGBAND
  0
POLYLINE
  5
AB5
  8
SAPA_FOGBAND
 66
     1
 10
0.0
 20
0.0
 30
0.0
 70
     1
  0
VERTEX
  5
1264
  8
SAPA_FOGBAND
 10
95.793314066098191
 20
9.9864886660435541
 30
0.0
 42
-0.9999999999999998
  0
VERTEX
  5
1265
  8
SAPA_FOGBAND
 10
95.793314066098191
 20
8.5221609431468437
 30
0.0
  0
VERTEX
  5
1266
  8
SAPA_FOGBAND
 10
89.253700901736664
 20
8.5221609431467868
 30
0.0
 42
-1.000000000000012
  0
VERTEX
  5
1267
  8
SAPA_FOGBAND
 10
89.253700901736664
 20
9.9864886660434991
 30
0.0
  0
VERTEX
  5
1268
  8
SAPA_FOGBAND
 10
92.523507483917427
 20
9.9864886660435541
 30
0.0
  0
SEQEND
  5
1269
  8
SAPA_FOGBAND
  0
POLYLINE
  5
AB6
  8
SAPA_FOGBAND
 66
     1
 10
0.0
 20
0.0
 30
0.0
 70
     1
  0
VERTEX
  5
126A
  8
SAPA_FOGBAND
 10
88.474555263198525
 20
6.6878186745139478
 30
0.0
  0
VERTEX
  5
126B
  8
SAPA_FOGBAND
 10
89.253700901736764
 20
5.295085105372265
 30
0.0
  0
VERTEX
  5
126C
  8
SAPA_FOGBAND
 10
92.523507483917427
 20
5.2950851053723218
 30
0.0
  0
VERTEX
  5
126D
  8
SAPA_FOGBAND
 10
95.793314066098191
 20
5.2950851053723218
 30
0.0
  0
VERTEX
  5
126E
  8
SAPA_FOGBAND
 10
96.572459704636316
 20
6.6878186745139478
 30
0.0
 42
0.5728458134769883
  0
VERTEX
  5
126F
  8
SAPA_FOGBAND
 10
96.485188136760343
 20
6.8366415527625568
 30
0.0
  0
VERTEX
  5
1270
  8
SAPA_FOGBAND
 10
95.793314066098191
 20
6.8366415527625568
 30
0.0
 42
-0.9999999999999998
  0
VERTEX
  5
1271
  8
SAPA_FOGBAND
 10
95.793314066098191
 20
8.1221609431468096
 30
0.0
 42
0.9999999999999998
  0
VERTEX
  5
1272
  8
SAPA_FOGBAND
 10
95.793314066098191
 20
10.38648866604359
 30
0.0
  0
VERTEX
  5
1273
  8
SAPA_FOGBAND
 10
92.523507483917427
 20
10.38648866604359
 30
0.0
  0
VERTEX
  5
1274
  8
SAPA_FOGBAND
 10
89.253700901736664
 20
10.38648866604353
 30
0.0
 42
1.000000000000012
  0
VERTEX
  5
1275
  8
SAPA_FOGBAND
 10
89.253700901736664
 20
8.1221609431467527
 30
0.0
 42
-0.9999999999999998
  0
VERTEX
  5
1276
  8
SAPA_FOGBAND
 10
89.253700901736664
 20
6.8366415527625
 30
0.0
  0
VERTEX
  5
1277
  8
SAPA_FOGBAND
 10
88.561826831074512
 20
6.8366415527625
 30
0.0
 42
0.5728458134769883
  0
SEQEND
  5
1278
  8
SAPA_FOGBAND
  0
TEXT
  5
AD5
  8
SAPA_MATT
 62
     2
 10
60.456845996112271
 20
-27.396328522528119
 30
0.0
 40
3.0
  1
170
  7
ISO
  0
TEXT
  5
AD6
  8
SAPA_MATT
 62
     2
 10
99.695895064118531
 20
-15.09646793375793
 30
0.0
 40
3.0
  1
5
  7
ISO
  0
TEXT
  5
AD7
  8
SAPA_MATT
 62
     2
 10
123.4960757870183
 20
-15.09646793375793
 30
0.0
 40
3.0
  1
45
  7
ISO
  0
TEXT
  5
AD8
  8
SAPA_MATT
 62
     2
 10
35.456845996112278
 20
-15.109722073176661
 30
0.0
 40
3.0
  1
120
  7
ISO
  0
SOLID
  5
AD9
  8
SAPA_MATT
 10
95.308027098474469
 20
-15.61001734876721
 30
0.0
 11
95.308027098474469
 21
-16.610017348767212
 31
0.0
 12
98.308027098474454
 22
-16.110017348767212
 32
0.0
 13
98.308027098474454
 23
-16.110017348767212
 33
0.0
  0
SOLID
  5
ADA
  8
SAPA_MATT
 10
-18.691972901525499
 20
-15.61001734876721
 30
0.0
 11
-18.691972901525499
 21
-16.610017348767212
 31
0.0
 12
-21.691972901525499
 22
-16.110017348767212
 32
0.0
 13
-21.691972901525499
 23
-16.110017348767212
 33
0.0
  0
LINE
  5
ADB
  8
SAPA_MATT
 10
-18.691972901525499
 20
-16.110017348767212
 30
0.0
 11
95.308027098474469
 21
-16.110017348767212
 31
0.0
  0
LINE
  5
ADC
  8
SAPA_MATT
 10
98.308027098474454
 20
2.368575598109202
 30
0.0
 11
98.308027098474454
 21
-17.610017348767212
 31
0.0
  0
LINE
  5
ADD
  8
SAPA_MATT
 10
-21.691972901525499
 20
2.3685755981090888
 30
0.0
 11
-21.691972901525499
 21
-17.610017348767212
 31
0.0
  0
SOLID
  5
ADE
  8
SAPA_MATT
 10
145.3082078213742
 20
-15.59646793375793
 30
0.0
 11
145.3082078213742
 21
-16.596467933757928
 31
0.0
 12
148.3082078213742
 22
-16.096467933757928
 32
0.0
 13
148.3082078213742
 23
-16.096467933757928
 33
0.0
  0
SOLID
  5
ADF
  8
SAPA_MATT
 10
106.3082078213742
 20
-15.59646793375793
 30
0.0
 11
106.3082078213742
 21
-16.596467933757928
 31
0.0
 12
103.3082078213742
 22
-16.096467933757928
 32
0.0
 13
103.3082078213742
 23
-16.096467933757928
 33
0.0
  0
LINE
  5
AE0
  8
SAPA_MATT
 10
106.3082078213742
 20
-16.096467933757928
 30
0.0
 11
145.3082078213742
 21
-16.096467933757928
 31
0.0
  0
LINE
  5
AE1
  8
SAPA_MATT
 10
148.3082078213742
 20
2.5656840318494001
 30
0.0
 11
148.3082078213742
 21
-17.596467933757928
 31
0.0
  0
LINE
  5
AE2
  8
SAPA_MATT
 10
103.3082078213742
 20
2.5656840318494001
 30
0.0
 11
103.3082078213742
 21
-17.596467933757928
 31
0.0
  0
SOLID
  5
AE3
  8
SAPA_MATT
 10
106.3080270984745
 20
-15.59646793375793
 30
0.0
 11
106.3080270984745
 21
-16.596467933757928
 31
0.0
 12
103.3080270984745
 22
-16.096467933757928
 32
0.0
 13
103.3080270984745
 23
-16.096467933757928
 33
0.0
  0
SOLID
  5
AE4
  8
SAPA_MATT
 10
95.30802709847444
 20
-15.59646793375793
 30
0.0
 11
95.30802709847444
 21
-16.596467933757928
 31
0.0
 12
98.308027098474454
 22
-16.096467933757928
 32
0.0
 13
98.308027098474454
 23
-16.096467933757928
 33
0.0
  0
LINE
  5
AE5
  8
SAPA_MATT
 10
98.308027098474454
 20
-16.096467933757928
 30
0.0
 11
103.3080270984745
 21
-16.096467933757928
 31
0.0
  0
LINE
  5
AE6
  8
SAPA_MATT
 10
106.3080270984745
 20
-16.096467933757928
 30
0.0
 11
109.3080270984745
 21
-16.096467933757928
 31
0.0
  0
LINE
  5
AE7
  8
SAPA_MATT
 10
95.30802709847444
 20
-16.096467933757928
 30
0.0
 11
92.308027098474426
 21
-16.096467933757928
 31
0.0
  0
LINE
  5
AE8
  8
SAPA_MATT
 10
103.3080270984745
 20
4.3185755981091907
 30
0.0
 11
103.3080270984745
 21
-17.596467933757928
 31
0.0
  0
LINE
  5
AE9
  8
SAPA_MATT
 10
98.308027098474454
 20
4.3185755981091338
 30
0.0
 11
98.308027098474454
 21
-17.596467933757928
 31
0.0
  0
SOLID
  5
AEA
  8
SAPA_MATT
 10
145.3080270984745
 20
-27.896328522528108
 30
0.0
 11
145.3080270984745
 21
-28.896328522528119
 31
0.0
 12
148.3080270984745
 22
-28.396328522528119
 32
0.0
 13
148.3080270984745
 23
-28.396328522528119
 33
0.0
  0
SOLID
  5
AEB
  8
SAPA_MATT
 10
-18.691972901525592
 20
-27.896328522528108
 30
0.0
 11
-18.691972901525592
 21
-28.896328522528119
 31
0.0
 12
-21.691972901525592
 22
-28.396328522528119
 32
0.0
 13
-21.691972901525592
 23
-28.396328522528119
 33
0.0
  0
LINE
  5
AEC
  8
SAPA_MATT
 10
-18.691972901525592
 20
-28.396328522528119
 30
0.0
 11
145.3080270984745
 21
-28.396328522528119
 31
0.0
  0
LINE
  5
AED
  8
SAPA_MATT
 10
148.3080270984745
 20
2.065684031849286
 30
0.0
 11
148.3080270984745
 21
-29.896328522528119
 31
0.0
  0
LINE
  5
AEE
  8
SAPA_MATT
 10
-21.691972901525592
 20
2.3685755981091461
 30
0.0
 11
-21.691972901525592
 21
-29.896328522528119
 31
0.0
  0
ENDSEC
  0
EOF
