  0
SECTION
  2
HEADER
  9
$ACADVER
  1
AC1009
  9
$INSBASE
 10
38.163526022609261
 20
444.14249232610922
 30
0.0
  9
$EXTMIN
 10
-10.040591523095321
 20
-10.99999999999994
 30
0.0
  9
$EXTMAX
 10
101.4360493166442
 20
116.9581978201245
 30
0.0
  9
$LIMMIN
 10
0.0
 20
0.0
  9
$LIMMAX
 10
998.0
 20
710.0
  9
$ORTHOMODE
 70
     1
  9
$REGENMODE
 70
     1
  9
$FILLMODE
 70
     1
  9
$QTEXTMODE
 70
     0
  9
$MIRRTEXT
 70
     1
  9
$DRAGMODE
 70
     2
  9
$LTSCALE
 40
7.0
  9
$OSMODE
 70
   167
  9
$ATTMODE
 70
     1
  9
$TEXTSIZE
 40
6.0
  9
$TRACEWID
 40
0.05
  9
$TEXTSTYLE
  7
ISO
  9
$CLAYER
  8
0
  9
$CELTYPE
  6
BYLAYER
  9
$CECOLOR
 62
   256
  9
$DIMSCALE
 40
0.0
  9
$DIMASZ
 40
3.0
  9
$DIMEXO
 40
1.5
  9
$DIMDLI
 40
10.0
  9
$DIMRND
 40
0.0
  9
$DIMDLE
 40
0.0
  9
$DIMEXE
 40
1.5
  9
$DIMTP
 40
0.0
  9
$DIMTM
 40
0.0
  9
$DIMTXT
 40
3.0
  9
$DIMCEN
 40
-5.0
  9
$DIMTSZ
 40
0.0
  9
$DIMTOL
 70
     0
  9
$DIMLIM
 70
     0
  9
$DIMTIH
 70
     0
  9
$DIMTOH
 70
     1
  9
$DIMSE1
 70
     0
  9
$DIMSE2
 70
     0
  9
$DIMTAD
 70
     1
  9
$DIMZIN
 70
     8
  9
$DIMBLK
  1

  9
$DIMASO
 70
     1
  9
$DIMSHO
 70
     1
  9
$DIMPOST
  1

  9
$DIMAPOST
  1

  9
$DIMALT
 70
     0
  9
$DIMALTD
 70
     0
  9
$DIMALTF
 40
25.399999999999999
  9
$DIMLFAC
 40
-1.0
  9
$DIMTOFL
 70
     1
  9
$DIMTVP
 40
0.0
  9
$DIMTIX
 70
     0
  9
$DIMSOXD
 70
     0
  9
$DIMSAH
 70
     0
  9
$DIMBLK1
  1

  9
$DIMBLK2
  1

  9
$DIMSTYLE
  2
MASKIN
  9
$DIMCLRD
 70
   256
  9
$DIMCLRE
 70
   256
  9
$DIMCLRT
 70
     2
  9
$DIMTFAC
 40
1.0
  9
$DIMGAP
 40
1.0
  9
$LUNITS
 70
     2
  9
$LUPREC
 70
     2
  9
$SKETCHINC
 40
0.1
  9
$FILLETRAD
 40
0.0
  9
$AUNITS
 70
     0
  9
$AUPREC
 70
     2
  9
$MENU
  1
ACAD
  9
$ELEVATION
 40
0.0
  9
$PELEVATION
 40
0.0
  9
$THICKNESS
 40
0.0
  9
$LIMCHECK
 70
     0
  9
$BLIPMODE
 70
     0
  9
$CHAMFERA
 40
0.0
  9
$CHAMFERB
 40
0.0
  9
$SKPOLY
 70
     0
  9
$TDCREATE
 40
2450345.6217337959
  9
$TDUPDATE
 40
2454966.6493126391
  9
$TDINDWG
 40
0.3806112847
  9
$TDUSRTIMER
 40
0.3806112847
  9
$USRTIMER
 70
     1
  9
$ANGBASE
 50
0.0
  9
$ANGDIR
 70
     0
  9
$PDMODE
 70
     3
  9
$PDSIZE
 40
0.0
  9
$PLINEWID
 40
0.0
  9
$COORDS
 70
     1
  9
$SPLFRAME
 70
     0
  9
$SPLINETYPE
 70
     6
  9
$SPLINESEGS
 70
     8
  9
$ATTDIA
 70
     0
  9
$ATTREQ
 70
     1
  9
$HANDLING
 70
     1
  9
$HANDSEED
  5
B81
  9
$SURFTAB1
 70
     6
  9
$SURFTAB2
 70
     6
  9
$SURFTYPE
 70
     6
  9
$SURFU
 70
     6
  9
$SURFV
 70
     6
  9
$UCSNAME
  2

  9
$UCSORG
 10
0.0
 20
0.0
 30
0.0
  9
$UCSXDIR
 10
1.0
 20
0.0
 30
0.0
  9
$UCSYDIR
 10
0.0
 20
1.0
 30
0.0
  9
$PUCSNAME
  2

  9
$PUCSORG
 10
0.0
 20
0.0
 30
0.0
  9
$PUCSXDIR
 10
1.0
 20
0.0
 30
0.0
  9
$PUCSYDIR
 10
0.0
 20
1.0
 30
0.0
  9
$USERI1
 70
     0
  9
$USERI2
 70
     0
  9
$USERI3
 70
     0
  9
$USERI4
 70
     0
  9
$USERI5
 70
     0
  9
$USERR1
 40
0.0
  9
$USERR2
 40
0.0
  9
$USERR3
 40
0.0
  9
$USERR4
 40
0.0
  9
$USERR5
 40
0.0
  9
$WORLDVIEW
 70
     1
  9
$SHADEDGE
 70
     1
  9
$SHADEDIF
 70
    70
  9
$TILEMODE
 70
     1
  9
$MAXACTVP
 70
    16
  9
$PLIMCHECK
 70
     0
  9
$PEXTMIN
 10
1.0000000000000000E+020
 20
1.0000000000000000E+020
 30
1.0000000000000000E+020
  9
$PEXTMAX
 10
-1.0000000000000000E+020
 20
-1.0000000000000000E+020
 30
-1.0000000000000000E+020
  9
$PLIMMIN
 10
-0.1666668268639272
 20
-0.166666657905879
  9
$PLIMMAX
 10
10.833332932840181
 20
8.3333331017982317
  9
$UNITMODE
 70
     0
  9
$VISRETAIN
 70
     1
  9
$PLINEGEN
 70
     0
  9
$PSLTSCALE
 70
     1
  0
ENDSEC
  0
SECTION
  2
TABLES
  0
TABLE
  2
VPORT
 70
     1
  0
VPORT
  2
*ACTIVE
 70
     0
 10
0.0
 20
0.0
 11
1.0
 21
1.0
 12
184.0295913389736
 22
63.128788964043451
 13
0.0
 23
0.0
 14
5.0
 24
5.0
 15
10.0
 25
10.0
 16
0.0
 26
0.0
 36
1.0
 17
0.0
 27
0.0
 37
0.0
 40
290.8255023326912
 41
2.362776025236593
 42
50.0
 43
0.0
 44
0.0
 50
0.0
 51
0.0
 71
     0
 72
   100
 73
     1
 74
     0
 75
     0
 76
     0
 77
     0
 78
     2
  0
ENDTAB
  0
TABLE
  2
LTYPE
 70
     2
  0
LTYPE
  2
CONTINUOUS
 70
     0
  3
Solid line
 72
    65
 73
     0
 40
0.0
  0
LTYPE
  2
BYGG-014554$0$NEWDOT
 70
     0
  3
____ . ____ . ____ . ____ . ____ . ____ . ____
 72
    65
 73
     4
 40
2.0
 49
1.0
 49
-0.5
 49
0.0
 49
-0.5
  0
ENDTAB
  0
TABLE
  2
LAYER
 70
    28
  0
LAYER
  2
0
 70
     0
 62
     7
  6
CONTINUOUS
  0
LAYER
  2
SAPA_ANSLUTNING
 70
     0
 62
     6
  6
CONTINUOUS
  0
LAYER
  2
SAPA_PROFIL
 70
     0
 62
     7
  6
CONTINUOUS
  0
ENDTAB
  0
TABLE
  2
STYLE
 70
     7
  0
STYLE
  2
STANDARD
 70
     0
 40
0.0
 41
1.0
 50
0.0
 71
     0
 42
0.2
  3
txt
  4

  0
STYLE
  2
ISO
 70
     0
 40
0.0
 41
1.0
 50
0.0
 71
     0
 42
6.0
  3
isocp3.shx
  4

  0
STYLE
  2
ANNOTATIVE
 70
     0
 40
0.0
 41
1.0
 50
0.0
 71
     0
 42
0.2
  3
txt
  4

  0
STYLE
  2
BYGG-023642$0$STANDARD
 70
     0
 40
0.0
 41
1.0
 50
0.0
 71
     0
 42
0.2
  3
txt
  4

  0
STYLE
  2
BYGG-023642$0$ISO
 70
     0
 40
0.0
 41
1.0
 50
0.0
 71
     0
 42
3.5
  3
txt
  4

  0
STYLE
  2
BYGG-014554$0$STANDARD
 70
     0
 40
0.0
 41
1.0
 50
0.0
 71
     0
 42
0.2
  3
txt
  4

  0
STYLE
  2
BYGG-014554$0$ISO
 70
     0
 40
0.0
 41
1.0
 50
0.0
 71
     0
 42
2.5
  3
isocp3.shx
  4

  0
ENDTAB
  0
TABLE
  2
VIEW
 70
     0
  0
ENDTAB
  0
TABLE
  2
UCS
 70
     0
  0
ENDTAB
  0
TABLE
  2
APPID
 70
    18
  0
APPID
  2
ACAD
 70
     0
  0
APPID
  2
ACAD_PSEXT
 70
     0
  0
APPID
  2
ACAECLAYERSTANDARD
 70
     0
  0
APPID
  2
ACAD_MLEADERVER
 70
     0
  0
APPID
  2
ACAD_DSTYLE_DIMTEXT_FILL
 70
     0
  0
APPID
  2
ACAD_DSTYLE_DIMEXT_LENGTH
 70
     0
  0
APPID
  2
ACAD_DSTYLE_DIMEXT_ENABLED
 70
     0
  0
APPID
  2
ACAD_DSTYLE_DIM_LINETYPE
 70
     0
  0
APPID
  2
ACAD_DSTYLE_DIM_EXT1_LINETYPE
 70
     0
  0
APPID
  2
ACAD_DSTYLE_DIM_EXT2_LINETYPE
 70
     0
  0
APPID
  2
ACAD_DSTYLE_DIMJOGGED_JOGA
 70
     0
  0
APPID
  2
ACAD_DSTYLE_DIMARC_LENGTH_
 70
     0
  0
APPID
  2
AMG_ARCHIVE11
 70
     0
  0
APPID
  2
ACAD_EXEMPT_FROM_CAD_STANDARDS
 70
     0
  0
APPID
  2
ACDBBLOCKREPETAG
 70
     0
  0
APPID
  2
ACAD_DSTYLE_DIMJAG
 70
     0
  0
APPID
  2
ACAD_DSTYLE_DIMTALN
 70
     0
  0
APPID
  2
ACADANNOTATIVE
 70
     0
  0
ENDTAB
  0
TABLE
  2
DIMSTYLE
 70
     6
  0
DIMSTYLE
  2
MASKIN
 70
     0
  3

  4

  5

  6

  7

 40
0.0
 41
3.0
 42
1.5
 43
10.0
 44
1.5
 45
0.0
 46
0.0
 47
0.0
 48
0.0
140
3.0
141
-5.0
142
0.0
143
25.399999999999999
144
-1.0
145
0.0
146
1.0
147
1.0
 71
     0
 72
     0
 73
     0
 74
     1
 75
     0
 76
     0
 77
     1
 78
     8
170
     0
171
     0
172
     1
173
     0
174
     0
175
     0
176
   256
177
   256
178
     2
  0
DIMSTYLE
  2
STANDARD
 70
     0
  3

  4

  5

  6

  7

 40
1.0
 41
0.18
 42
0.0625
 43
0.38
 44
0.18
 45
0.0
 46
0.0
 47
0.0
 48
0.0
140
0.18
141
0.09
142
0.0
143
25.399999999999999
144
1.0
145
0.0
146
1.0
147
0.09
 71
     0
 72
     0
 73
     1
 74
     1
 75
     0
 76
     0
 77
     0
 78
     0
170
     0
171
     2
172
     0
173
     0
174
     0
175
     0
176
     0
177
     0
178
     0
  0
DIMSTYLE
  2
ANNOTATIVE
 70
     0
  3

  4

  5

  6

  7

 40
1.0
 41
0.18
 42
0.0625
 43
0.38
 44
0.18
 45
0.0
 46
0.0
 47
0.0
 48
0.0
140
0.18
141
0.09
142
0.0
143
25.399999999999999
144
1.0
145
0.0
146
1.0
147
0.09
 71
     0
 72
     0
 73
     1
 74
     1
 75
     0
 76
     0
 77
     0
 78
     0
170
     0
171
     2
172
     0
173
     0
174
     0
175
     0
176
     0
177
     0
178
     0
  0
DIMSTYLE
  2
BYGG-023642$0$MASKIN
 70
     0
  3

  4

  5

  6

  7

 40
0.0
 41
3.0
 42
1.5
 43
10.0
 44
1.5
 45
0.0
 46
0.0
 47
0.0
 48
0.0
140
3.0
141
-5.0
142
0.0
143
25.399999999999999
144
-1.0
145
0.0
146
1.0
147
1.0
 71
     0
 72
     0
 73
     0
 74
     0
 75
     0
 76
     0
 77
     1
 78
     8
170
     0
171
     0
172
     1
173
     0
174
     0
175
     0
176
   256
177
   256
178
     2
  0
DIMSTYLE
  2
BYGG-014554$0$STANDARD
 70
     0
  3

  4

  5

  6

  7

 40
1.0
 41
0.18
 42
0.0625
 43
0.38
 44
0.18
 45
0.0
 46
0.0
 47
0.0
 48
0.0
140
0.18
141
0.09
142
0.0
143
25.399999999999999
144
1.0
145
0.0
146
1.0
147
0.09
 71
     0
 72
     0
 73
     1
 74
     1
 75
     0
 76
     0
 77
     0
 78
     0
170
     0
171
     2
172
     0
173
     0
174
     0
175
     0
176
     0
177
     0
178
     0
  0
DIMSTYLE
  2
BYGG-014554$0$MASKIN
 70
     0
  3

  4

  5

  6

  7

 40
0.0
 41
3.0
 42
1.5
 43
10.0
 44
1.5
 45
0.0
 46
0.0
 47
0.0
 48
0.0
140
3.0
141
-5.0
142
0.0
143
25.399999999999999
144
-1.0
145
0.0
146
1.0
147
1.0
 71
     0
 72
     0
 73
     0
 74
     1
 75
     0
 76
     0
 77
     1
 78
     8
170
     0
171
     0
172
     1
173
     0
174
     0
175
     0
176
   256
177
   256
178
     2
  0
ENDTAB
  0
ENDSEC
  0
SECTION
  2
BLOCKS
  0
BLOCK
  8
0
  2
$MODEL_SPACE
 70
     0
 10
0.0
 20
0.0
 30
0.0
  3
$MODEL_SPACE
  1

  0
ENDBLK
  5
D
  8
0
  0
BLOCK
 67
     1
  8
0
  2
$PAPER_SPACE
 70
     0
 10
0.0
 20
0.0
 30
0.0
  3
$PAPER_SPACE
  1

  0
ENDBLK
  5
12
 67
     1
  8
0
  0
BLOCK
  8
0
  2
*X7
 70
     1
 10
0.0
 20
0.0
 30
0.0
  3
*X7
  1

  0
LINE
  5
9FF
  8
0
 62
     0
 10
100.95064030267289
 20
78.499999999999986
 30
0.0
 11
101.4360493166442
 21
78.985409013971335
 31
0.0
  0
LINE
  5
A00
  8
0
 62
     0
 10
96.460512242138307
 20
78.5
 30
0.0
 11
101.4360493166442
 21
83.475537074505908
 31
0.0
  0
LINE
  5
A01
  8
0
 62
     0
 10
91.970384181603734
 20
78.5
 30
0.0
 11
101.4360493166442
 21
87.965665135040496
 31
0.0
  0
LINE
  5
A02
  8
0
 62
     0
 10
87.480256121069161
 20
78.5
 30
0.0
 11
101.4360493166442
 21
92.455793195575083
 31
0.0
  0
LINE
  5
A03
  8
0
 62
     0
 10
82.990128060534573
 20
78.5
 30
0.0
 11
101.4360493166442
 21
96.945921256109656
 31
0.0
  0
LINE
  5
A04
  8
0
 62
     0
 10
78.500000000000014
 20
78.5
 30
0.0
 11
101.4360493166442
 21
101.4360493166442
 31
0.0
  0
LINE
  5
A05
  8
0
 62
     0
 10
74.009871939465427
 20
78.5
 30
0.0
 11
101.4360493166442
 21
105.9261773771788
 31
0.0
  0
LINE
  5
A06
  8
0
 62
     0
 10
69.519743878930853
 20
78.499999999999986
 30
0.0
 11
101.4360493166442
 21
110.4163054377134
 31
0.0
  0
LINE
  5
A07
  8
0
 62
     0
 10
65.02961581839628
 20
78.5
 30
0.0
 11
101.4360493166442
 21
114.90643349824801
 31
0.0
  0
LINE
  5
A08
  8
0
 62
     0
 10
60.5394877578617
 20
78.5
 30
0.0
 11
98.997685577986203
 21
116.9581978201245
 31
0.0
  0
LINE
  5
A09
  8
0
 62
     0
 10
56.049359697327127
 20
78.5
 30
0.0
 11
94.50755751745163
 21
116.9581978201245
 31
0.0
  0
LINE
  5
A0A
  8
0
 62
     0
 10
51.559231636792553
 20
78.5
 30
0.0
 11
90.017429456917057
 21
116.9581978201245
 31
0.0
  0
LINE
  5
A0B
  8
0
 62
     0
 10
47.069103576257973
 20
78.499999999999986
 30
0.0
 11
85.527301396382484
 21
116.9581978201245
 31
0.0
  0
LINE
  5
A0C
  8
0
 62
     0
 10
42.5789755157234
 20
78.5
 30
0.0
 11
81.037173335847896
 21
116.9581978201245
 31
0.0
  0
LINE
  5
A0D
  8
0
 62
     0
 10
38.088847455188812
 20
78.5
 30
0.0
 11
76.547045275313323
 21
116.9581978201245
 31
0.0
  0
LINE
  5
A0E
  8
0
 62
     0
 10
33.598719394654253
 20
78.5
 30
0.0
 11
72.05691721477875
 21
116.9581978201245
 31
0.0
  0
LINE
  5
A0F
  8
0
 62
     0
 10
29.108591334119691
 20
78.500000000000028
 30
0.0
 11
67.566789154244177
 21
116.9581978201245
 31
0.0
  0
LINE
  5
A10
  8
0
 62
     0
 10
24.61846327358511
 20
78.5
 30
0.0
 11
63.076661093709603
 21
116.9581978201245
 31
0.0
  0
LINE
  5
A11
  8
0
 62
     0
 10
20.12833521305053
 20
78.500000000000014
 30
0.0
 11
58.58653303317503
 21
116.9581978201245
 31
0.0
  0
LINE
  5
A12
  8
0
 62
     0
 10
15.63820715251595
 20
78.500000000000014
 30
0.0
 11
54.096404972640457
 21
116.9581978201245
 31
0.0
  0
LINE
  5
A13
  8
0
 62
     0
 10
11.148079091981369
 20
78.500000000000014
 30
0.0
 11
49.606276912105869
 21
116.9581978201245
 31
0.0
  0
LINE
  5
A14
  8
0
 62
     0
 10
6.6579510314467987
 20
78.500000000000014
 30
0.0
 11
45.116148851571303
 21
116.9581978201245
 31
0.0
  0
LINE
  5
A15
  8
0
 62
     0
 10
2.1678229709122192
 20
78.5
 30
0.0
 11
40.626020791036723
 21
116.9581978201245
 31
0.0
  0
LINE
  5
A16
  8
0
 62
     0
 10
-2.322305089622354
 20
78.5
 30
0.0
 11
36.13589273050215
 21
116.9581978201245
 31
0.0
  0
LINE
  5
A17
  8
0
 62
     0
 10
-6.8124331501569344
 20
78.500000000000014
 30
0.0
 11
31.64576466996758
 21
116.9581978201245
 31
0.0
  0
LINE
  5
A18
  8
0
 62
     0
 10
-10.040591523095321
 20
79.761969687596206
 30
0.0
 11
27.155636609432989
 21
116.9581978201245
 31
0.0
  0
LINE
  5
A19
  8
0
 62
     0
 10
-10.040591523095321
 20
84.25209774813078
 30
0.0
 11
22.665508548898419
 21
116.9581978201245
 31
0.0
  0
LINE
  5
A1A
  8
0
 62
     0
 10
-10.04059152309531
 20
88.742225808665367
 30
0.0
 11
18.175380488363839
 21
116.9581978201245
 31
0.0
  0
LINE
  5
A1B
  8
0
 62
     0
 10
-10.04059152309531
 20
93.232353869199926
 30
0.0
 11
13.685252427829271
 21
116.9581978201245
 31
0.0
  0
LINE
  5
A1C
  8
0
 62
     0
 10
-10.04059152309531
 20
97.722481929734485
 30
0.0
 11
9.1951243672946958
 21
116.9581978201245
 31
0.0
  0
LINE
  5
A1D
  8
0
 62
     0
 10
-10.04059152309531
 20
102.2126099902691
 30
0.0
 11
4.7049963067601146
 21
116.9581978201245
 31
0.0
  0
LINE
  5
A1E
  8
0
 62
     0
 10
-10.04059152309531
 20
106.7027380508037
 30
0.0
 11
0.2148682462255422
 21
116.9581978201245
 31
0.0
  0
LINE
  5
A1F
  8
0
 62
     0
 10
-10.04059152309531
 20
111.1928661113382
 30
0.0
 11
-4.275259814309031
 21
116.9581978201245
 31
0.0
  0
LINE
  5
A20
  8
0
 62
     0
 10
-10.04059152309531
 20
115.68299417187281
 30
0.0
 11
-8.7653878748436043
 21
116.9581978201245
 31
0.0
  0
ENDBLK
  5
A22
  8
0
  0
BLOCK
  8
0
  2
*U8
 70
     1
 10
0.0
 20
0.0
 30
0.0
  3
*U8
  1

  0
TEXT
  5
A86
  8
0
 62
     2
 10
223.25694460060811
 20
742.68797400912399
 30
0.0
 40
3.0
  1
50
 50
90.0
  7
BYGG-014554$0$ISO
  0
ENDBLK
  5
A88
  8
0
  0
BLOCK
  8
0
  2
*U9
 70
     1
 10
0.0
 20
0.0
 30
0.0
  3
*U9
  1

  0
TEXT
  5
A8A
  8
0
 62
     2
 10
176.95869673732579
 20
712.16043879070753
 30
0.0
 40
3.0
  1
67
  7
BYGG-014554$0$ISO
  0
ENDBLK
  5
A8C
  8
0
  0
BLOCK
  8
0
  2
*U10
 70
     1
 10
0.0
 20
0.0
 30
0.0
  3
*U10
  1

  0
TEXT
  5
AB6
  8
0
 62
     2
 10
35.951181102362114
 20
69.28801164280992
 30
0.0
 40
3.0
  1
50
 50
180.0
  7
BYGG-014554$0$ISO
  0
ENDBLK
  5
AB8
  8
0
  0
BLOCK
  8
0
  2
*U11
 70
     1
 10
0.0
 20
0.0
 30
0.0
  3
*U11
  1

  0
TEXT
  5
ABA
  8
0
 62
     2
 10
-0.7787163207788042
 20
22.989763779527571
 30
0.0
 40
3.0
  1
67
 50
90.000000000000028
  7
BYGG-014554$0$ISO
  0
ENDBLK
  5
ABC
  8
0
  0
ENDSEC
  0
SECTION
  2
ENTITIES
  0
LINE
  5
609
  8
SAPA_ANSLUTNING
 62
     7
 10
100.6514734909118
 20
78.499999999999986
 30
0.0
 11
-10.04059152309531
 21
78.500000000000014
 31
0.0
  0
POLYLINE
  5
885
  8
SAPA_ANSLUTNING
 66
     1
 10
0.0
 20
0.0
 30
0.0
  0
VERTEX
  5
9D0
  8
SAPA_ANSLUTNING
 10
11.40315694085271
 20
58.50000000000005
 30
0.0
  0
VERTEX
  5
9D1
  8
SAPA_ANSLUTNING
 10
11.403156940852471
 20
73.500000000001052
 30
0.0
 42
-0.9999989466455055
  0
VERTEX
  5
9D2
  8
SAPA_ANSLUTNING
 10
15.403156940848151
 20
73.500004213421249
 30
0.0
  0
VERTEX
  5
9D3
  8
SAPA_ANSLUTNING
 10
15.403156940848151
 20
55.601273374753283
 30
0.0
 42
0.9999999999999998
  0
VERTEX
  5
9D4
  8
SAPA_ANSLUTNING
 10
19.403156940848149
 20
55.601273374753283
 30
0.0
  0
VERTEX
  5
9D5
  8
SAPA_ANSLUTNING
 10
19.403156940848032
 20
73.500005002885914
 30
0.0
 42
-0.9999974985601646
  0
VERTEX
  5
9D6
  8
SAPA_ANSLUTNING
 10
23.40315694083553
 20
73.500005002885914
 30
0.0
  0
VERTEX
  5
9D7
  8
SAPA_ANSLUTNING
 10
23.403156940835441
 20
55.500000000000071
 30
0.0
 42
0.9999999999999998
  0
VERTEX
  5
9D8
  8
SAPA_ANSLUTNING
 10
27.40315694083549
 20
55.500000000000071
 30
0.0
  0
VERTEX
  5
9D9
  8
SAPA_ANSLUTNING
 10
27.40315694083549
 20
56.500000000000043
 30
0.0
  0
SEQEND
  5
9DA
  8
SAPA_ANSLUTNING
  0
POLYLINE
  5
88B
  8
SAPA_ANSLUTNING
 66
     1
 10
0.0
 20
0.0
 30
0.0
  0
VERTEX
  5
9DB
  8
SAPA_ANSLUTNING
 10
39.403156940826321
 20
56.50000000000005
 30
0.0
  0
VERTEX
  5
9DC
  8
SAPA_ANSLUTNING
 10
39.403156940826321
 20
55.543752209991993
 30
0.0
 42
0.9999999999999998
  0
VERTEX
  5
9DD
  8
SAPA_ANSLUTNING
 10
43.403156940826321
 20
55.543752209991993
 30
0.0
  0
VERTEX
  5
9DE
  8
SAPA_ANSLUTNING
 10
43.403156940826207
 20
76.550059581447925
 30
0.0
 42
-0.9999974985601646
  0
VERTEX
  5
9DF
  8
SAPA_ANSLUTNING
 10
47.403156940813687
 20
76.550059581447925
 30
0.0
  0
VERTEX
  5
9E0
  8
SAPA_ANSLUTNING
 10
47.403156940813609
 20
55.500000000000043
 30
0.0
 42
0.9999999999999998
  0
VERTEX
  5
9E1
  8
SAPA_ANSLUTNING
 10
51.403156940813652
 20
55.500000000000043
 30
0.0
  0
VERTEX
  5
9E2
  8
SAPA_ANSLUTNING
 10
51.403156940813581
 20
76.55005694966971
 30
0.0
 42
-0.9999989466455052
  0
VERTEX
  5
9E3
  8
SAPA_ANSLUTNING
 10
55.403156940809268
 20
76.550052736249512
 30
0.0
  0
VERTEX
  5
9E4
  8
SAPA_ANSLUTNING
 10
55.403156940809041
 20
60.215281983936478
 30
0.0
 42
0.2635240997481427
  0
VERTEX
  5
9E5
  8
SAPA_ANSLUTNING
 10
56.37465914519499
 20
58.499999999999979
 30
0.0
  0
SEQEND
  5
9E6
  8
SAPA_ANSLUTNING
  0
POLYLINE
  5
88C
  8
SAPA_ANSLUTNING
 66
     1
 10
0.0
 20
0.0
 30
0.0
  0
VERTEX
  5
9E7
  8
SAPA_ANSLUTNING
 10
27.40315694083549
 20
58.05315694083567
 30
0.0
  0
VERTEX
  5
9E8
  8
SAPA_ANSLUTNING
 10
27.403156940835419
 20
73.506552347438145
 30
0.0
 42
-0.9999989466455052
  0
VERTEX
  5
9E9
  8
SAPA_ANSLUTNING
 10
31.403156940831099
 20
73.506548134017947
 30
0.0
  0
VERTEX
  5
9EA
  8
SAPA_ANSLUTNING
 10
31.403156940830868
 20
60.215281983936478
 30
0.0
 42
0.9999999999999998
  0
VERTEX
  5
9EB
  8
SAPA_ANSLUTNING
 10
35.403156940830868
 20
60.215281983936478
 30
0.0
  0
VERTEX
  5
9EC
  8
SAPA_ANSLUTNING
 10
35.403156940830641
 20
76.550052736249512
 30
0.0
 42
-0.9999989466455055
  0
VERTEX
  5
9ED
  8
SAPA_ANSLUTNING
 10
39.403156940826321
 20
76.55005694966971
 30
0.0
  0
VERTEX
  5
9EE
  8
SAPA_ANSLUTNING
 10
39.403156940826321
 20
58.300000000000011
 30
0.0
  0
SEQEND
  5
9EF
  8
SAPA_ANSLUTNING
  0
POLYLINE
  5
8BF
  8
SAPA_ANSLUTNING
 62
     7
 66
     1
 10
0.0
 20
0.0
 30
0.0
 70
     1
  0
VERTEX
  5
9F0
  8
SAPA_ANSLUTNING
 62
     7
 10
84.333796388980716
 20
75.5
 30
0.0
  0
VERTEX
  5
9F1
  8
SAPA_ANSLUTNING
 62
     7
 10
62.333796388980709
 20
75.5
 30
0.0
  0
VERTEX
  5
9F2
  8
SAPA_ANSLUTNING
 62
     7
 10
62.333796388980709
 20
38.499999999999957
 30
0.0
  0
VERTEX
  5
9F3
  8
SAPA_ANSLUTNING
 62
     7
 10
59.333796388980709
 20
38.499999999999957
 30
0.0
  0
VERTEX
  5
9F4
  8
SAPA_ANSLUTNING
 62
     7
 10
59.333796388980709
 20
78.5
 30
0.0
  0
VERTEX
  5
9F5
  8
SAPA_ANSLUTNING
 62
     7
 10
84.333796388980716
 20
78.5
 30
0.0
  0
SEQEND
  5
9F6
  8
SAPA_ANSLUTNING
 62
     7
  0
POLYLINE
  5
8C0
  8
SAPA_ANSLUTNING
 62
     7
 66
     1
 10
0.0
 20
0.0
 30
0.0
 70
     1
  0
VERTEX
  5
9F7
  8
SAPA_ANSLUTNING
 62
     7
 10
30.48586594423972
 20
75.5
 30
0.0
  0
VERTEX
  5
9F8
  8
SAPA_ANSLUTNING
 62
     7
 10
8.4858659442397197
 20
75.5
 30
0.0
  0
VERTEX
  5
9F9
  8
SAPA_ANSLUTNING
 62
     7
 10
8.4858659442397197
 20
38.499999999999957
 30
0.0
  0
VERTEX
  5
9FA
  8
SAPA_ANSLUTNING
 62
     7
 10
5.4858659442397188
 20
38.499999999999957
 30
0.0
  0
VERTEX
  5
9FB
  8
SAPA_ANSLUTNING
 62
     7
 10
5.4858659442397188
 20
78.5
 30
0.0
  0
VERTEX
  5
9FC
  8
SAPA_ANSLUTNING
 62
     7
 10
30.48586594423972
 20
78.5
 30
0.0
  0
SEQEND
  5
9FD
  8
SAPA_ANSLUTNING
 62
     7
  0
INSERT
  5
90E
  8
SAPA_ANSLUTNING
  6
CONTINUOUS
 62
     7
  2
*X7
 10
0.0
 20
0.0
 30
0.0
1001
ACAD
1000
HATCH
1002
{
1070
    19
1000
ANSI31
1040
1.0
1040
0.0
1000
R14_HATCH_DATA
1000
90E
1011
1.0
1021
0.0
1031
0.0
1021
0.0
1031
0.0
1011
0.0
1021
0.0
1031
0.0
1021
1.0
1031
0.0
1011
0.0
1021
0.0
1031
0.0
1021
0.0
1031
1.0
1040
0.0
1010
0.0
1020
0.0
1030
1.0
1000
ANSI31
1070
     0
1070
     0
1071
        1
1071
        7
1070
     1
1070
     1
1071
       10
1040
36.958515884930357
1040
78.500000000000014
1040
-0.1125688588252703
1040
37.84779799673116
1040
78.5
1040
0.0
1040
44.958507805643698
1040
78.5
1040
-0.1125709567435934
1040
45.84780607599621
1040
78.5
1040
0.0
1040
52.958515884908813
1040
78.5
1040
-0.1125688588252694
1040
53.847797996709602
1040
78.5
1040
0.0
1040
101.4360493166442
1040
78.5
1040
0.0
1040
101.4360493166442
1040
116.9581978201245
1040
0.0
1040
-10.04059152309531
1040
116.9581978201245
1040
0.0
1040
-10.04059152309531
1040
78.500000000000014
1040
0.0
1071
        0
1070
     0
1070
     1
1040
0.0
1040
1.0
1070
     0
1070
     1
1040
0.7853981633974483
1040
0.0
1040
0.0
1040
-2.2450640302672871
1040
2.245064030267288
1070
     0
1040
0.24181534524102
1071
        1
1040
29.099996080921638
1040
93.743924574039397
1040
0.0
1002
}
  0
POLYLINE
  5
9BC
  8
SAPA_PROFIL
 66
     1
 10
0.0
 20
0.0
 30
0.0
 70
     1
  0
VERTEX
  5
B1F
  8
SAPA_PROFIL
 10
13.049999999999731
 20
-8.4999999999999432
 30
0.0
 42
0.4142135623730951
  0
VERTEX
  5
B20
  8
SAPA_PROFIL
 10
13.34999999999979
 20
-8.1999999999999886
 30
0.0
  0
VERTEX
  5
B21
  8
SAPA_PROFIL
 10
13.349999999999911
 20
-6.9899999999999523
 30
0.0
 42
0.4142135623730951
  0
VERTEX
  5
B22
  8
SAPA_PROFIL
 10
12.3599999999999
 20
-5.9999999999999432
 30
0.0
  0
VERTEX
  5
B23
  8
SAPA_PROFIL
 10
12.349999999999911
 20
-5.9999999999999432
 30
0.0
  0
VERTEX
  5
B24
  8
SAPA_PROFIL
 10
12.349999999999911
 20
-7.2499999999999432
 30
0.0
  0
VERTEX
  5
B25
  8
SAPA_PROFIL
 10
10.849999999999911
 20
-7.2499999999999432
 30
0.0
 42
-0.4142135623730951
  0
VERTEX
  5
B26
  8
SAPA_PROFIL
 10
10.349999999999911
 20
-6.7499999999999432
 30
0.0
  0
VERTEX
  5
B27
  8
SAPA_PROFIL
 10
10.349999999999911
 20
1.250000000000056
 30
0.0
 42
-0.4142135623730951
  0
VERTEX
  5
B28
  8
SAPA_PROFIL
 10
10.849999999999911
 20
1.750000000000056
 30
0.0
  0
VERTEX
  5
B29
  8
SAPA_PROFIL
 10
12.349999999999911
 20
1.750000000000056
 30
0.0
  0
VERTEX
  5
B2A
  8
SAPA_PROFIL
 10
12.349999999999911
 20
0.500000000000057
 30
0.0
  0
VERTEX
  5
B2B
  8
SAPA_PROFIL
 10
12.3599999999999
 20
0.500000000000057
 30
0.0
 42
0.4142135623730951
  0
VERTEX
  5
B2C
  8
SAPA_PROFIL
 10
13.349999999999911
 20
1.4900000000000651
 30
0.0
  0
VERTEX
  5
B2D
  8
SAPA_PROFIL
 10
13.349999999999911
 20
2.0100000000000469
 30
0.0
 42
0.4142135623730951
  0
VERTEX
  5
B2E
  8
SAPA_PROFIL
 10
12.3599999999999
 20
3.000000000000056
 30
0.0
  0
VERTEX
  5
B2F
  8
SAPA_PROFIL
 10
11.14999999999986
 20
3.0
 30
0.0
 42
-0.4142135623730951
  0
VERTEX
  5
B30
  8
SAPA_PROFIL
 10
10.64999999999986
 20
3.5
 30
0.0
  0
VERTEX
  5
B31
  8
SAPA_PROFIL
 10
10.64999999999986
 20
5.500000000000056
 30
0.0
 42
-0.4142135623730951
  0
VERTEX
  5
B32
  8
SAPA_PROFIL
 10
11.14999999999986
 20
6.000000000000056
 30
0.0
  0
VERTEX
  5
B33
  8
SAPA_PROFIL
 10
49.649999999999856
 20
6.0
 30
0.0
 42
-0.4142135623730951
  0
VERTEX
  5
B34
  8
SAPA_PROFIL
 10
50.149999999999856
 20
5.5
 30
0.0
  0
VERTEX
  5
B35
  8
SAPA_PROFIL
 10
50.149999999999856
 20
4.0
 30
0.0
 42
0.4142135623730951
  0
VERTEX
  5
B36
  8
SAPA_PROFIL
 10
50.649999999999871
 20
3.5
 30
0.0
  0
VERTEX
  5
B37
  8
SAPA_PROFIL
 10
50.849999999999788
 20
3.5
 30
0.0
 42
0.4142135623730951
  0
VERTEX
  5
B38
  8
SAPA_PROFIL
 10
51.849999999999802
 20
4.5
 30
0.0
  0
VERTEX
  5
B39
  8
SAPA_PROFIL
 10
51.849999999999802
 20
12.5
 30
0.0
 42
-0.4142135623730951
  0
VERTEX
  5
B3A
  8
SAPA_PROFIL
 10
52.849999999999788
 20
13.5
 30
0.0
  0
VERTEX
  5
B3B
  8
SAPA_PROFIL
 10
58.349999999999788
 20
13.5
 30
0.0
 42
0.4142135623730951
  0
VERTEX
  5
B3C
  8
SAPA_PROFIL
 10
58.849999999999802
 20
14.0
 30
0.0
  0
VERTEX
  5
B3D
  8
SAPA_PROFIL
 10
58.849999999999902
 20
58.5
 30
0.0
  0
VERTEX
  5
B3E
  8
SAPA_PROFIL
 10
55.849999999999909
 20
58.5
 30
0.0
  0
VERTEX
  5
B3F
  8
SAPA_PROFIL
 10
54.849999999999909
 20
57.5
 30
0.0
  0
VERTEX
  5
B40
  8
SAPA_PROFIL
 10
54.849999999999909
 20
56.5
 30
0.0
  0
VERTEX
  5
B41
  8
SAPA_PROFIL
 10
57.049999999999841
 20
56.5
 30
0.0
  0
VERTEX
  5
B42
  8
SAPA_PROFIL
 10
57.049999999999841
 20
53.5
 30
0.0
  0
VERTEX
  5
B43
  8
SAPA_PROFIL
 10
38.349999999999909
 20
53.50000000000005
 30
0.0
  0
VERTEX
  5
B44
  8
SAPA_PROFIL
 10
38.349999999999909
 20
56.50000000000005
 30
0.0
  0
VERTEX
  5
B45
  8
SAPA_PROFIL
 10
40.849999999999909
 20
56.50000000000005
 30
0.0
  0
VERTEX
  5
B46
  8
SAPA_PROFIL
 10
40.849999999999909
 20
57.500000000000057
 30
0.0
  0
VERTEX
  5
B47
  8
SAPA_PROFIL
 10
40.049999999999827
 20
58.300000000000011
 30
0.0
  0
VERTEX
  5
B48
  8
SAPA_PROFIL
 10
34.369615242270577
 20
58.300000000000011
 30
0.0
  0
VERTEX
  5
B49
  8
SAPA_PROFIL
 10
33.849999999999909
 20
58.000000000000057
 30
0.0
  0
VERTEX
  5
B4A
  8
SAPA_PROFIL
 10
33.330384757729227
 20
58.300000000000011
 30
0.0
  0
VERTEX
  5
B4B
  8
SAPA_PROFIL
 10
27.64999999999986
 20
58.300000000000011
 30
0.0
  0
VERTEX
  5
B4C
  8
SAPA_PROFIL
 10
26.849999999999909
 20
57.500000000000057
 30
0.0
  0
VERTEX
  5
B4D
  8
SAPA_PROFIL
 10
26.849999999999909
 20
56.50000000000005
 30
0.0
  0
VERTEX
  5
B4E
  8
SAPA_PROFIL
 10
29.349999999999909
 20
56.50000000000005
 30
0.0
  0
VERTEX
  5
B4F
  8
SAPA_PROFIL
 10
29.349999999999909
 20
53.50000000000005
 30
0.0
  0
VERTEX
  5
B50
  8
SAPA_PROFIL
 10
10.64999999999986
 20
53.50000000000005
 30
0.0
  0
VERTEX
  5
B51
  8
SAPA_PROFIL
 10
10.64999999999986
 20
56.50000000000005
 30
0.0
  0
VERTEX
  5
B52
  8
SAPA_PROFIL
 10
12.849999999999911
 20
56.50000000000005
 30
0.0
  0
VERTEX
  5
B53
  8
SAPA_PROFIL
 10
12.849999999999911
 20
57.500000000000057
 30
0.0
  0
VERTEX
  5
B54
  8
SAPA_PROFIL
 10
11.849999999999911
 20
58.50000000000005
 30
0.0
  0
VERTEX
  5
B55
  8
SAPA_PROFIL
 10
8.8499999999999091
 20
58.50000000000005
 30
0.0
  0
VERTEX
  5
B56
  8
SAPA_PROFIL
 10
8.8499999999997954
 20
-8.1999999999999886
 30
0.0
 42
0.4142135623730951
  0
VERTEX
  5
B57
  8
SAPA_PROFIL
 10
9.1499999999998636
 20
-8.5
 30
0.0
  0
SEQEND
  5
B58
  8
SAPA_PROFIL
  0
POLYLINE
  5
9BD
  8
SAPA_PROFIL
 66
     1
 10
0.0
 20
0.0
 30
0.0
 70
     1
  0
VERTEX
  5
B59
  8
SAPA_PROFIL
 10
25.63671927563928
 20
51.000000000000028
 30
0.0
  0
VERTEX
  5
B5A
  8
SAPA_PROFIL
 10
31.649999999999871
 20
51.00000000000005
 30
0.0
 42
0.4142135623730941
  0
VERTEX
  5
B5B
  8
SAPA_PROFIL
 10
32.249999999999893
 20
51.600000000000051
 30
0.0
  0
VERTEX
  5
B5C
  8
SAPA_PROFIL
 10
32.249999999999893
 20
52.100000000000023
 30
0.0
 42
0.4142135623730951
  0
VERTEX
  5
B5D
  8
SAPA_PROFIL
 10
31.649999999999871
 20
52.700000000000017
 30
0.0
  0
VERTEX
  5
B5E
  8
SAPA_PROFIL
 10
31.5949999999998
 20
52.699999999999989
 30
0.0
 42
-0.4142135623730866
  0
VERTEX
  5
B5F
  8
SAPA_PROFIL
 10
31.099999999999909
 20
53.194999999999993
 30
0.0
  0
VERTEX
  5
B60
  8
SAPA_PROFIL
 10
31.099999999999909
 20
54.00000000000005
 30
0.0
 42
-0.3747564601179694
  0
VERTEX
  5
B61
  8
SAPA_PROFIL
 10
33.475604956763391
 20
56.724395043236143
 30
0.0
  0
VERTEX
  5
B62
  8
SAPA_PROFIL
 10
33.849999999999909
 20
56.349999999999618
 30
0.0
  0
VERTEX
  5
B63
  8
SAPA_PROFIL
 10
34.224395043236093
 20
56.724395043234438
 30
0.0
 42
-0.374756460117968
  0
VERTEX
  5
B64
  8
SAPA_PROFIL
 10
36.599999999999909
 20
54.00000000000005
 30
0.0
  0
VERTEX
  5
B65
  8
SAPA_PROFIL
 10
36.599999999999909
 20
53.194999999999993
 30
0.0
 42
-0.4142135623730866
  0
VERTEX
  5
B66
  8
SAPA_PROFIL
 10
36.104999999999912
 20
52.699999999999989
 30
0.0
  0
VERTEX
  5
B67
  8
SAPA_PROFIL
 10
36.049999999999947
 20
52.69999999999996
 30
0.0
 42
0.4142135623730951
  0
VERTEX
  5
B68
  8
SAPA_PROFIL
 10
35.449999999999932
 20
52.099999999999973
 30
0.0
  0
VERTEX
  5
B69
  8
SAPA_PROFIL
 10
35.449999999999932
 20
51.600000000000051
 30
0.0
 42
0.414213562373096
  0
VERTEX
  5
B6A
  8
SAPA_PROFIL
 10
36.049999999999947
 20
51.00000000000005
 30
0.0
  0
VERTEX
  5
B6B
  8
SAPA_PROFIL
 10
42.063280724360531
 20
51.000000000000078
 30
0.0
  0
VERTEX
  5
B6C
  8
SAPA_PROFIL
 10
42.324999999999932
 20
51.69999999999996
 30
0.0
  0
VERTEX
  5
B6D
  8
SAPA_PROFIL
 10
47.330384757729227
 20
51.699999999999932
 30
0.0
  0
VERTEX
  5
B6E
  8
SAPA_PROFIL
 10
47.849999999999909
 20
51.999999999999943
 30
0.0
  0
VERTEX
  5
B6F
  8
SAPA_PROFIL
 10
48.369615242270577
 20
51.699999999999932
 30
0.0
  0
VERTEX
  5
B70
  8
SAPA_PROFIL
 10
56.049999999999841
 20
51.699999999999932
 30
0.0
 42
-0.4142135623730951
  0
VERTEX
  5
B71
  8
SAPA_PROFIL
 10
57.049999999999841
 20
50.699999999999932
 30
0.0
  0
VERTEX
  5
B72
  8
SAPA_PROFIL
 10
57.049999999999841
 20
15.799999999999949
 30
0.0
 42
-0.4142135623730951
  0
VERTEX
  5
B73
  8
SAPA_PROFIL
 10
56.549999999999841
 20
15.299999999999949
 30
0.0
  0
VERTEX
  5
B74
  8
SAPA_PROFIL
 10
51.149999999999856
 20
15.299999999999949
 30
0.0
 42
0.4142135623730951
  0
VERTEX
  5
B75
  8
SAPA_PROFIL
 10
50.149999999999856
 20
14.299999999999949
 30
0.0
  0
VERTEX
  5
B76
  8
SAPA_PROFIL
 10
50.14999999999975
 20
9.4999999999998863
 30
0.0
 42
-0.4142135623730951
  0
VERTEX
  5
B77
  8
SAPA_PROFIL
 10
49.14999999999975
 20
8.4999999999998863
 30
0.0
  0
VERTEX
  5
B78
  8
SAPA_PROFIL
 10
11.64999999999986
 20
8.4999999999999432
 30
0.0
 42
-0.4142135623730951
  0
VERTEX
  5
B79
  8
SAPA_PROFIL
 10
10.64999999999986
 20
9.4999999999999432
 30
0.0
  0
VERTEX
  5
B7A
  8
SAPA_PROFIL
 10
10.64999999999986
 20
50.699999999999989
 30
0.0
 42
-0.4142135623730951
  0
VERTEX
  5
B7B
  8
SAPA_PROFIL
 10
11.64999999999986
 20
51.699999999999989
 30
0.0
  0
VERTEX
  5
B7C
  8
SAPA_PROFIL
 10
19.330384757729121
 20
51.699999999999989
 30
0.0
  0
VERTEX
  5
B7D
  8
SAPA_PROFIL
 10
19.849999999999909
 20
52.000000000000057
 30
0.0
  0
VERTEX
  5
B7E
  8
SAPA_PROFIL
 10
20.36961524227058
 20
51.699999999999989
 30
0.0
  0
VERTEX
  5
B7F
  8
SAPA_PROFIL
 10
25.37499999999989
 20
51.699999999999989
 30
0.0
  0
SEQEND
  5
B80
  8
SAPA_PROFIL
  0
ENDSEC
  0
EOF
