  0
SECTION
  2
HEADER
  9
$ACADVER
  1
AC1021
  9
$ACADMAINTVER
 70
    50
  9
$DWGCODEPAGE
  3
ANSI_1252
  9
$INSBASE
 10
0.0
 20
0.0
 30
0.0
  9
$EXTMIN
 10
-200.4084103790539
 20
-1880.296789685671
 30
0.0
  9
$EXTMAX
 10
2580.714377436058
 20
2703.190716887612
 30
0.0
  9
$LIMMIN
 10
0.0
 20
0.0
  9
$LIMMAX
 10
998.0
 20
710.0
  9
$ORTHOMODE
 70
     0
  9
$REGENMODE
 70
     1
  9
$FILLMODE
 70
     1
  9
$QTEXTMODE
 70
     0
  9
$MIRRTEXT
 70
     1
  9
$LTSCALE
 40
7.0
  9
$ATTMODE
 70
     1
  9
$TEXTSIZE
 40
3.5
  9
$TRACEWID
 40
0.05
  9
$TEXTSTYLE
  7
ISO
  9
$CLAYER
  8
sapa_elevation
  9
$CELTYPE
  6
BYLAYER
  9
$CECOLOR
 62
   256
  9
$CELTSCALE
 40
1.0
  9
$DISPSILH
 70
     0
  9
$DIMSCALE
 40
1.5
  9
$DIMASZ
 40
3.5
  9
$DIMEXO
 40
1.5
  9
$DIMDLI
 40
10.0
  9
$DIMRND
 40
0.0
  9
$DIMDLE
 40
0.0
  9
$DIMEXE
 40
1.5
  9
$DIMTP
 40
0.0
  9
$DIMTM
 40
0.0
  9
$DIMTXT
 40
3.5
  9
$DIMCEN
 40
-5.0
  9
$DIMTSZ
 40
0.0
  9
$DIMTOL
 70
     0
  9
$DIMLIM
 70
     0
  9
$DIMTIH
 70
     0
  9
$DIMTOH
 70
     0
  9
$DIMSE1
 70
     0
  9
$DIMSE2
 70
     0
  9
$DIMTAD
 70
     1
  9
$DIMZIN
 70
     8
  9
$DIMBLK
  1

  9
$DIMASO
 70
     1
  9
$DIMSHO
 70
     1
  9
$DIMPOST
  1

  9
$DIMAPOST
  1

  9
$DIMALT
 70
     0
  9
$DIMALTD
 70
     0
  9
$DIMALTF
 40
25.4
  9
$DIMLFAC
 40
1.0
  9
$DIMTOFL
 70
     0
  9
$DIMTVP
 40
0.0
  9
$DIMTIX
 70
     0
  9
$DIMSOXD
 70
     0
  9
$DIMSAH
 70
     0
  9
$DIMBLK1
  1

  9
$DIMBLK2
  1

  9
$DIMSTYLE
  2
MASKIN
  9
$DIMCLRD
 70
   256
  9
$DIMCLRE
 70
   256
  9
$DIMCLRT
 70
   256
  9
$DIMTFAC
 40
1.0
  9
$DIMGAP
 40
0.09
  9
$DIMJUST
 70
     0
  9
$DIMSD1
 70
     0
  9
$DIMSD2
 70
     0
  9
$DIMTOLJ
 70
     1
  9
$DIMTZIN
 70
     8
  9
$DIMALTZ
 70
     8
  9
$DIMALTTZ
 70
     8
  9
$DIMUPT
 70
     0
  9
$DIMDEC
 70
     2
  9
$DIMTDEC
 70
     2
  9
$DIMALTU
 70
     2
  9
$DIMALTTD
 70
     0
  9
$DIMTXSTY
  7
ISO
  9
$DIMAUNIT
 70
     0
  9
$DIMADEC
 70
     0
  9
$DIMALTRND
 40
0.0
  9
$DIMAZIN
 70
     0
  9
$DIMDSEP
 70
    46
  9
$DIMATFIT
 70
     3
  9
$DIMFRAC
 70
     0
  9
$DIMLDRBLK
  1

  9
$DIMLUNIT
 70
     2
  9
$DIMLWD
 70
    -2
  9
$DIMLWE
 70
    -2
  9
$DIMTMOVE
 70
     2
  9
$DIMFXL
 40
1.0
  9
$DIMFXLON
 70
     0
  9
$DIMJOGANG
 40
0.7853981633974483
  9
$DIMTFILL
 70
     0
  9
$DIMTFILLCLR
 70
     0
  9
$DIMARCSYM
 70
     0
  9
$DIMLTYPE
  6

  9
$DIMLTEX1
  6

  9
$DIMLTEX2
  6

  9
$LUNITS
 70
     2
  9
$LUPREC
 70
     2
  9
$SKETCHINC
 40
0.1
  9
$FILLETRAD
 40
0.0
  9
$AUNITS
 70
     0
  9
$AUPREC
 70
     2
  9
$MENU
  1
ACAD
  9
$ELEVATION
 40
0.0
  9
$PELEVATION
 40
0.0
  9
$THICKNESS
 40
0.0
  9
$LIMCHECK
 70
     0
  9
$CHAMFERA
 40
0.0
  9
$CHAMFERB
 40
0.0
  9
$CHAMFERC
 40
0.0
  9
$CHAMFERD
 40
0.0
  9
$SKPOLY
 70
     0
  9
$TDCREATE
 40
2449499.461258333
  9
$TDUCREATE
 40
2449499.377925000
  9
$TDUPDATE
 40
2457606.457760961
  9
$TDUUPDATE
 40
2457606.374427627
  9
$TDINDWG
 40
0.0912712384
  9
$TDUSRTIMER
 40
0.0912712384
  9
$USRTIMER
 70
     1
  9
$ANGBASE
 50
0.0
  9
$ANGDIR
 70
     0
  9
$PDMODE
 70
     3
  9
$PDSIZE
 40
-5.0
  9
$PLINEWID
 40
0.0
  9
$SPLFRAME
 70
     0
  9
$SPLINETYPE
 70
     6
  9
$SPLINESEGS
 70
     8
  9
$HANDSEED
  5
15F
  9
$SURFTAB1
 70
     6
  9
$SURFTAB2
 70
     6
  9
$SURFTYPE
 70
     6
  9
$SURFU
 70
     6
  9
$SURFV
 70
     6
  9
$UCSBASE
  2

  9
$UCSNAME
  2

  9
$UCSORG
 10
0.0
 20
0.0
 30
0.0
  9
$UCSXDIR
 10
1.0
 20
0.0
 30
0.0
  9
$UCSYDIR
 10
0.0
 20
1.0
 30
0.0
  9
$UCSORTHOREF
  2

  9
$UCSORTHOVIEW
 70
     0
  9
$UCSORGTOP
 10
0.0
 20
0.0
 30
0.0
  9
$UCSORGBOTTOM
 10
0.0
 20
0.0
 30
0.0
  9
$UCSORGLEFT
 10
0.0
 20
0.0
 30
0.0
  9
$UCSORGRIGHT
 10
0.0
 20
0.0
 30
0.0
  9
$UCSORGFRONT
 10
0.0
 20
0.0
 30
0.0
  9
$UCSORGBACK
 10
0.0
 20
0.0
 30
0.0
  9
$PUCSBASE
  2

  9
$PUCSNAME
  2

  9
$PUCSORG
 10
0.0
 20
0.0
 30
0.0
  9
$PUCSXDIR
 10
1.0
 20
0.0
 30
0.0
  9
$PUCSYDIR
 10
0.0
 20
1.0
 30
0.0
  9
$PUCSORTHOREF
  2

  9
$PUCSORTHOVIEW
 70
     0
  9
$PUCSORGTOP
 10
0.0
 20
0.0
 30
0.0
  9
$PUCSORGBOTTOM
 10
0.0
 20
0.0
 30
0.0
  9
$PUCSORGLEFT
 10
0.0
 20
0.0
 30
0.0
  9
$PUCSORGRIGHT
 10
0.0
 20
0.0
 30
0.0
  9
$PUCSORGFRONT
 10
0.0
 20
0.0
 30
0.0
  9
$PUCSORGBACK
 10
0.0
 20
0.0
 30
0.0
  9
$USERI1
 70
     0
  9
$USERI2
 70
     0
  9
$USERI3
 70
     0
  9
$USERI4
 70
     0
  9
$USERI5
 70
     0
  9
$USERR1
 40
0.0
  9
$USERR2
 40
0.0
  9
$USERR3
 40
0.0
  9
$USERR4
 40
0.0
  9
$USERR5
 40
0.0
  9
$WORLDVIEW
 70
     1
  9
$SHADEDGE
 70
     1
  9
$SHADEDIF
 70
    70
  9
$TILEMODE
 70
     1
  9
$MAXACTVP
 70
    16
  9
$PINSBASE
 10
0.0
 20
0.0
 30
0.0
  9
$PLIMCHECK
 70
     0
  9
$PEXTMIN
 10
5.869999703752308
 20
-0.0000001723469722
 30
0.0
  9
$PEXTMAX
 10
185.8683605469043
 20
282.999999827653
 30
0.0
  9
$PLIMMIN
 10
-16.9819514257581
 20
-5.035665021851514
  9
$PLIMMAX
 10
192.9913762109606
 20
291.9326577320547
  9
$UNITMODE
 70
     0
  9
$VISRETAIN
 70
     0
  9
$PLINEGEN
 70
     0
  9
$PSLTSCALE
 70
     1
  9
$TREEDEPTH
 70
  3020
  9
$CMLSTYLE
  2
STANDARD
  9
$CMLJUST
 70
     0
  9
$CMLSCALE
 40
1.0
  9
$PROXYGRAPHICS
 70
     1
  9
$MEASUREMENT
 70
     0
  9
$CELWEIGHT
370
    -1
  9
$ENDCAPS
280
     0
  9
$JOINSTYLE
280
     0
  9
$LWDISPLAY
290
     0
  9
$INSUNITS
 70
     0
  9
$HYPERLINKBASE
  1

  9
$STYLESHEET
  1

  9
$XEDIT
290
     1
  9
$CEPSNTYPE
380
     0
  9
$PSTYLEMODE
290
     1
  9
$FINGERPRINTGUID
  2
{7FC20FFB-C714-4932-9929-C6124611BA72}
  9
$VERSIONGUID
  2
{17EA05F0-0F00-4DD0-B78B-36D14A165F84}
  9
$EXTNAMES
290
     1
  9
$PSVPSCALE
 40
0.0
  9
$OLESTARTUP
290
     0
  9
$SORTENTS
280
   127
  9
$INDEXCTL
280
     0
  9
$HIDETEXT
280
     1
  9
$XCLIPFRAME
290
     0
  9
$HALOGAP
280
     0
  9
$OBSCOLOR
 70
   257
  9
$OBSLTYPE
280
     0
  9
$INTERSECTIONDISPLAY
280
     0
  9
$INTERSECTIONCOLOR
 70
   257
  9
$DIMASSOC
280
     1
  9
$PROJECTNAME
  1

  9
$CAMERADISPLAY
290
     0
  9
$LENSLENGTH
 40
50.0
  9
$CAMERAHEIGHT
 40
0.0
  9
$STEPSPERSEC
 40
2.0
  9
$STEPSIZE
 40
6.0
  9
$3DDWFPREC
 40
2.0
  9
$PSOLWIDTH
 40
0.25
  9
$PSOLHEIGHT
 40
4.0
  9
$LOFTANG1
 40
1.570796326794896
  9
$LOFTANG2
 40
1.570796326794896
  9
$LOFTMAG1
 40
0.0
  9
$LOFTMAG2
 40
0.0
  9
$LOFTPARAM
 70
     7
  9
$LOFTNORMALS
280
     1
  9
$LATITUDE
 40
37.795
  9
$LONGITUDE
 40
-122.394
  9
$NORTHDIRECTION
 40
0.0
  9
$TIMEZONE
 70
 -8000
  9
$LIGHTGLYPHDISPLAY
280
     1
  9
$TILEMODELIGHTSYNCH
280
     1
  9
$CMATERIAL
347
2E
  9
$SOLIDHIST
280
     1
  9
$SHOWHIST
280
     1
  9
$DWFFRAME
280
     2
  9
$DGNFRAME
280
     0
  9
$REALWORLDSCALE
290
     1
  9
$INTERFERECOLOR
 62
     1
  9
$INTERFEREOBJVS
345
3B
  9
$INTERFEREVPVS
346
3C
  9
$CSHADOW
280
     0
  9
$SHADOWPLANELOCATION
 40
0.0
  0
ENDSEC
  0
SECTION
  2
CLASSES
  0
CLASS
  1
IMAGE
  2
AcDbRasterImage
  3
ISM
 90
     2175
 91
        0
280
     0
281
     1
  0
CLASS
  1
IMAGEDEF_REACTOR
  2
AcDbRasterImageDefReactor
  3
ISM
 90
        1
 91
        0
280
     0
281
     0
  0
CLASS
  1
IMAGEDEF
  2
AcDbRasterImageDef
  3
ISM
 90
        0
 91
        0
280
     0
281
     0
  0
CLASS
  1
RASTERVARIABLES
  2
AcDbRasterVariables
  3
ISM
 90
        0
 91
        0
280
     0
281
     0
  0
CLASS
  1
ACDBDICTIONARYWDFLT
  2
AcDbDictionaryWithDefault
  3
ObjectDBX Classes
 90
        0
 91
        1
280
     0
281
     0
  0
CLASS
  1
TABLESTYLE
  2
AcDbTableStyle
  3
ObjectDBX Classes
 90
     4095
 91
        1
280
     0
281
     0
  0
CLASS
  1
DICTIONARYVAR
  2
AcDbDictionaryVar
  3
ObjectDBX Classes
 90
        0
 91
        9
280
     0
281
     0
  0
CLASS
  1
MATERIAL
  2
AcDbMaterial
  3
ObjectDBX Classes
 90
     1153
 91
        3
280
     0
281
     0
  0
CLASS
  1
VISUALSTYLE
  2
AcDbVisualStyle
  3
ObjectDBX Classes
 90
     4095
 91
        3
280
     0
281
     0
  0
CLASS
  1
SCALE
  2
AcDbScale
  3
ObjectDBX Classes
 90
     1153
 91
       51
280
     0
281
     0
  0
CLASS
  1
MLEADERSTYLE
  2
AcDbMLeaderStyle
  3
ACDB_MLEADERSTYLE_CLASS
 90
     4095
 91
        0
280
     0
281
     0
  0
CLASS
  1
EXACTERMXREFMAP
  2
ExAcTermXrefMap
  3
EXAC_SERVICE
 90
     1025
 91
        0
280
     0
281
     0
  0
CLASS
  1
NPOCOLLECTION
  2
AcDbImpNonPersistentObjectsCollection
  3
ObjectDBX Classes
 90
     1153
 91
        0
280
     0
281
     0
  0
CLASS
  1
EXACXREFPANELOBJECT
  2
ExAcXREFPanelObject
  3
EXAC_ESW
 90
     1025
 91
        0
280
     0
281
     0
  0
CLASS
  1
SORTENTSTABLE
  2
AcDbSortentsTable
  3
ObjectDBX Classes
 90
        0
 91
        0
280
     0
281
     0
  0
CLASS
  1
CELLSTYLEMAP
  2
AcDbCellStyleMap
  3
ObjectDBX Classes
 90
     1152
 91
        1
280
     0
281
     0
  0
CLASS
  1
ACDBSECTIONVIEWSTYLE
  2
AcDbSectionViewStyle
  3
ObjectDBX Classes
 90
     1025
 91
        0
280
     0
281
     0
  0
CLASS
  1
ACDBDETAILVIEWSTYLE
  2
AcDbDetailViewStyle
  3
ObjectDBX Classes
 90
     1025
 91
        0
280
     0
281
     0
  0
ENDSEC
  0
SECTION
  2
TABLES
  0
TABLE
  2
VPORT
  5
21
102
{ACAD_XDICTIONARY
360
26
102
}
330
0
100
AcDbSymbolTable
 70
     1
  0
VPORT
  5
22
330
21
100
AcDbSymbolTableRecord
100
AcDbViewportTableRecord
  2
*Active
 70
     0
 10
0.0
 20
0.0
 11
1.0
 21
1.0
 12
2299.823926560851
 22
1539.065130993842
 13
0.0
 23
0.0
 14
5.0
 24
5.0
 15
10.0
 25
10.0
 16
0.0
 26
0.0
 36
1.0
 17
0.0
 27
0.0
 37
0.0
 40
5469.224333752984
 41
1.607076350093109
 42
50.0
 43
0.0
 44
0.0
 50
0.0
 51
0.0
 71
     0
 72
   100
 73
     1
 74
     0
 75
     0
 76
     0
 77
     0
 78
     0
281
     0
 65
     1
110
0.0
120
0.0
130
0.0
111
1.0
121
0.0
131
0.0
112
0.0
122
1.0
132
0.0
 79
     0
146
0.0
348
23
 60
     3
 61
     5
292
     1
282
     1
141
0.0
142
0.0
 63
   250
421
  3355443
1001
ACAD_NAV_VCDISPLAY
1070
     3
  0
ENDTAB
  0
TABLE
  2
LTYPE
  5
1C
330
0
100
AcDbSymbolTable
 70
     2
  0
LTYPE
  5
1D
330
1C
100
AcDbSymbolTableRecord
100
AcDbLinetypeTableRecord
  2
BYBLOCK
 70
     0
  3

 72
    65
 73
     0
 40
0.0
  0
LTYPE
  5
1E
330
1C
100
AcDbSymbolTableRecord
100
AcDbLinetypeTableRecord
  2
BYLAYER
 70
     0
  3

 72
    65
 73
     0
 40
0.0
  0
LTYPE
  5
C
330
1C
100
AcDbSymbolTableRecord
100
AcDbLinetypeTableRecord
  2
CONTINUOUS
 70
     0
  3
Solid line
 72
    65
 73
     0
 40
0.0
  0
LTYPE
  5
72
330
1C
100
AcDbSymbolTableRecord
100
AcDbLinetypeTableRecord
  2
DASHED
 70
     0
  3
__ __ __ __ __ __ __ __ __ __ __ __ __ __ __
 72
    65
 73
     2
 40
0.75
 49
0.5
 74
     0
 49
-0.25
 74
     0
  0
ENDTAB
  0
TABLE
  2
LAYER
  5
16
102
{ACAD_XDICTIONARY
360
17
102
}
330
0
100
AcDbSymbolTable
 70
     2
  0
LAYER
  5
4
102
{ACAD_XDICTIONARY
360
5
102
}
330
16
100
AcDbSymbolTableRecord
100
AcDbLayerTableRecord
  2
0
 70
     1
 62
    -7
  6
CONTINUOUS
370
    -3
390
7
347
A
  0
LAYER
  5
34
102
{ACAD_XDICTIONARY
360
35
102
}
330
16
100
AcDbSymbolTableRecord
100
AcDbLayerTableRecord
  2
sapa_elevation
 70
     0
 62
     7
  6
CONTINUOUS
370
    -3
390
7
347
A
  0
ENDTAB
  0
TABLE
  2
STYLE
  5
19
330
0
100
AcDbSymbolTable
 70
     2
  0
STYLE
  5
1A
330
19
100
AcDbSymbolTableRecord
100
AcDbTextStyleTableRecord
  2
STANDARD
 70
     0
 40
0.0
 41
1.0
 50
0.0
 71
     0
 42
0.2
  3
txt
  4

  0
STYLE
  5
37
330
19
100
AcDbSymbolTableRecord
100
AcDbTextStyleTableRecord
  2
ISO
 70
     0
 40
0.0
 41
1.0
 50
0.0
 71
     0
 42
3.5
  3
isocp3.shx
  4

  0
ENDTAB
  0
TABLE
  2
VIEW
  5
1F
330
0
100
AcDbSymbolTable
 70
     0
  0
ENDTAB
  0
TABLE
  2
UCS
  5
20
330
0
100
AcDbSymbolTable
 70
     0
  0
ENDTAB
  0
TABLE
  2
APPID
  5
27
330
0
100
AcDbSymbolTable
 70
     3
  0
APPID
  5
28
330
27
100
AcDbSymbolTableRecord
100
AcDbRegAppTableRecord
  2
ACAD
 70
     0
  0
APPID
  5
10
330
27
100
AcDbSymbolTableRecord
100
AcDbRegAppTableRecord
  2
ACAD_PSEXT
 70
     0
  0
APPID
  5
25
330
27
100
AcDbSymbolTableRecord
100
AcDbRegAppTableRecord
  2
ACAD_NAV_VCDISPLAY
 70
     0
  0
ENDTAB
  0
TABLE
  2
DIMSTYLE
  5
29
330
0
100
AcDbSymbolTable
 70
     1
100
AcDbDimStyleTable
 71
     0
  0
DIMSTYLE
105
3D
330
29
100
AcDbSymbolTableRecord
100
AcDbDimStyleTableRecord
  2
MASKIN
 70
     0
 40
1.5
 41
3.5
 42
1.5
 43
10.0
 44
1.5
 73
     0
 74
     0
 77
     1
 78
     8
140
3.5
141
-5.0
171
     0
176
   256
177
   256
178
   256
271
     2
272
     2
274
     0
279
     2
284
     8
285
     8
286
     8
340
37
  0
ENDTAB
  0
TABLE
  2
BLOCK_RECORD
  5
1
330
0
100
AcDbSymbolTable
 70
     0
  0
BLOCK_RECORD
  5
2
330
1
100
AcDbSymbolTableRecord
100
AcDbBlockTableRecord
  2
*MODEL_SPACE
340
E
 70
     0
280
     1
281
     0
  0
BLOCK_RECORD
  5
11
330
1
100
AcDbSymbolTableRecord
100
AcDbBlockTableRecord
  2
*Paper_Space
340
14
 70
     0
280
     1
281
     0
  0
ENDTAB
  0
ENDSEC
  0
SECTION
  2
BLOCKS
  0
BLOCK
  5
3
330
2
100
AcDbEntity
  8
0
100
AcDbBlockBegin
  2
*MODEL_SPACE
 70
     0
 10
0.0
 20
0.0
 30
0.0
  3
*MODEL_SPACE
  1

  0
ENDBLK
  5
D
330
2
100
AcDbEntity
  8
0
100
AcDbBlockEnd
  0
BLOCK
  5
12
330
11
100
AcDbEntity
 67
     1
  8
0
100
AcDbBlockBegin
  2
*Paper_Space
 70
     0
 10
0.0
 20
0.0
 30
0.0
  3
*Paper_Space
  1

  0
ENDBLK
  5
13
330
11
100
AcDbEntity
 67
     1
  8
0
100
AcDbBlockEnd
  0
ENDSEC
  0
SECTION
  2
ENTITIES
  0
LINE
  5
71
330
2
100
AcDbEntity
  8
sapa_elevation
  6
DASHED
 48
5.0
100
AcDbLine
 10
75.00000291981996
 20
100.000003014059
 30
0.0
 11
985.0000029198199
 21
50.00000301405908
 31
0.0
  0
LINE
  5
73
330
2
100
AcDbEntity
  8
sapa_elevation
100
AcDbLine
 10
1925.00000291982
 20
100.000003014059
 30
0.0
 11
1015.00000291982
 21
0.0000030140590752
 31
0.0
  0
LINE
  5
74
330
2
100
AcDbEntity
  8
sapa_elevation
100
AcDbLine
 10
985.0000029198199
 20
150.000003014059
 30
0.0
 11
985.0000029198199
 21
100.000003014059
 31
0.0
  0
LINE
  5
75
330
2
100
AcDbEntity
  8
sapa_elevation
100
AcDbLine
 10
1015.00000291982
 20
150.000003014059
 30
0.0
 11
1015.00000291982
 21
100.000003014059
 31
0.0
  0
LINE
  5
76
330
2
100
AcDbEntity
  8
sapa_elevation
100
AcDbLine
 10
75.00000291981996
 20
150.000003014059
 30
0.0
 11
75.00000291981996
 21
100.000003014059
 31
0.0
  0
LINE
  5
77
330
2
100
AcDbEntity
  8
sapa_elevation
100
AcDbLine
 10
1925.00000291982
 20
150.000003014059
 30
0.0
 11
1925.00000291982
 21
100.000003014059
 31
0.0
  0
LINE
  5
78
330
2
100
AcDbEntity
  8
sapa_elevation
100
AcDbLine
 10
907.0000029198199
 20
150.000003014059
 30
0.0
 11
907.0000029198199
 21
100.000003014059
 31
0.0
  0
LINE
  5
79
330
2
100
AcDbEntity
  8
sapa_elevation
100
AcDbLine
 10
153.0000029198199
 20
150.000003014059
 30
0.0
 11
153.0000029198199
 21
100.000003014059
 31
0.0
  0
LINE
  5
7A
330
2
100
AcDbEntity
  8
sapa_elevation
100
AcDbLine
 10
1093.00000291982
 20
150.000003014059
 30
0.0
 11
1093.00000291982
 21
100.000003014059
 31
0.0
  0
LINE
  5
7B
330
2
100
AcDbEntity
  8
sapa_elevation
100
AcDbLine
 10
1847.00000291982
 20
150.000003014059
 30
0.0
 11
1847.00000291982
 21
100.000003014059
 31
0.0
  0
LINE
  5
7C
330
2
100
AcDbEntity
  8
sapa_elevation
100
AcDbLine
 10
2022.00000291982
 20
150.000003014059
 30
0.0
 11
2022.00000291982
 21
100.000003014059
 31
0.0
  0
LINE
  5
7D
330
2
100
AcDbEntity
  8
sapa_elevation
100
AcDbLine
 10
2433.00000291982
 20
150.000003014059
 30
0.0
 11
2433.00000291982
 21
100.000003014059
 31
0.0
  0
LINE
  5
7E
330
2
100
AcDbEntity
  8
sapa_elevation
100
AcDbLine
 10
0.0000029198199627
 20
150.000003014059
 30
0.0
 11
0.0000029198199627
 21
100.000003014059
 31
0.0
  0
LINE
  5
7F
330
2
100
AcDbEntity
  8
sapa_elevation
100
AcDbLine
 10
2500.00000291982
 20
150.000003014059
 30
0.0
 11
2500.00000291982
 21
100.000003014059
 31
0.0
  0
LINE
  5
80
330
2
100
AcDbEntity
  8
sapa_elevation
100
AcDbLine
 10
2500.00000291982
 20
100.000003014059
 30
0.0
 11
0.0000029198199627
 21
100.000003014059
 31
0.0
  0
LINE
  5
81
330
2
100
AcDbEntity
  8
sapa_elevation
100
AcDbLine
 10
2500.00000291982
 20
150.000003014059
 30
0.0
 11
0.0000029198199627
 21
150.000003014059
 31
0.0
  0
POLYLINE
  5
82
330
2
100
AcDbEntity
  8
sapa_elevation
100
AcDb2dPolyline
 66
     1
 10
0.0
 20
0.0
 30
0.0
  0
VERTEX
  5
83
330
82
100
AcDbEntity
  8
sapa_elevation
100
AcDbVertex
100
AcDb2dVertex
 10
153.0000029198199
 20
468.0000030140591
 30
0.0
  0
VERTEX
  5
84
330
82
100
AcDbEntity
  8
sapa_elevation
100
AcDbVertex
100
AcDb2dVertex
 10
907.0000029198199
 20
468.0000030140591
 30
0.0
  0
SEQEND
  5
85
330
82
100
AcDbEntity
  8
sapa_elevation
  0
POLYLINE
  5
86
330
2
100
AcDbEntity
  8
sapa_elevation
100
AcDb2dPolyline
 66
     1
 10
0.0
 20
0.0
 30
0.0
  0
VERTEX
  5
87
330
86
100
AcDbEntity
  8
sapa_elevation
100
AcDbVertex
100
AcDb2dVertex
 10
985.0000029198199
 20
390.0000030140591
 30
0.0
  0
VERTEX
  5
88
330
86
100
AcDbEntity
  8
sapa_elevation
100
AcDbVertex
100
AcDb2dVertex
 10
75.00000291981996
 20
390.0000030140591
 30
0.0
  0
SEQEND
  5
89
330
86
100
AcDbEntity
  8
sapa_elevation
  0
POLYLINE
  5
8A
330
2
100
AcDbEntity
  8
sapa_elevation
100
AcDb2dPolyline
 66
     1
 10
0.0
 20
0.0
 30
0.0
  0
VERTEX
  5
8B
330
8A
100
AcDbEntity
  8
sapa_elevation
100
AcDbVertex
100
AcDb2dVertex
 10
1093.00000291982
 20
468.0000030140591
 30
0.0
  0
VERTEX
  5
8C
330
8A
100
AcDbEntity
  8
sapa_elevation
100
AcDbVertex
100
AcDb2dVertex
 10
1847.00000291982
 20
468.0000030140591
 30
0.0
  0
SEQEND
  5
8D
330
8A
100
AcDbEntity
  8
sapa_elevation
  0
POLYLINE
  5
8E
330
2
100
AcDbEntity
  8
sapa_elevation
100
AcDb2dPolyline
 66
     1
 10
0.0
 20
0.0
 30
0.0
  0
VERTEX
  5
8F
330
8E
100
AcDbEntity
  8
sapa_elevation
100
AcDbVertex
100
AcDb2dVertex
 10
1925.00000291982
 20
390.0000030140591
 30
0.0
  0
VERTEX
  5
90
330
8E
100
AcDbEntity
  8
sapa_elevation
100
AcDbVertex
100
AcDb2dVertex
 10
1015.00000291982
 20
390.0000030140591
 30
0.0
  0
SEQEND
  5
91
330
8E
100
AcDbEntity
  8
sapa_elevation
  0
POLYLINE
  5
92
330
2
100
AcDbEntity
  8
sapa_elevation
100
AcDb2dPolyline
 66
     1
 10
0.0
 20
0.0
 30
0.0
  0
VERTEX
  5
93
330
92
100
AcDbEntity
  8
sapa_elevation
100
AcDbVertex
100
AcDb2dVertex
 10
907.0000029198199
 20
2297.000003014059
 30
0.0
  0
VERTEX
  5
94
330
92
100
AcDbEntity
  8
sapa_elevation
100
AcDbVertex
100
AcDb2dVertex
 10
153.0000029198199
 20
2297.000003014059
 30
0.0
  0
SEQEND
  5
95
330
92
100
AcDbEntity
  8
sapa_elevation
  0
POLYLINE
  5
96
330
2
100
AcDbEntity
  8
sapa_elevation
100
AcDb2dPolyline
 66
     1
 10
0.0
 20
0.0
 30
0.0
  0
VERTEX
  5
97
330
96
100
AcDbEntity
  8
sapa_elevation
100
AcDbVertex
100
AcDb2dVertex
 10
75.00000291981996
 20
2375.000003014059
 30
0.0
  0
VERTEX
  5
98
330
96
100
AcDbEntity
  8
sapa_elevation
100
AcDbVertex
100
AcDb2dVertex
 10
985.0000029198199
 20
2375.000003014059
 30
0.0
  0
SEQEND
  5
99
330
96
100
AcDbEntity
  8
sapa_elevation
  0
POLYLINE
  5
9A
330
2
100
AcDbEntity
  8
sapa_elevation
100
AcDb2dPolyline
 66
     1
 10
0.0
 20
0.0
 30
0.0
  0
VERTEX
  5
9B
330
9A
100
AcDbEntity
  8
sapa_elevation
100
AcDbVertex
100
AcDb2dVertex
 10
1847.00000291982
 20
2297.000003014059
 30
0.0
  0
VERTEX
  5
9C
330
9A
100
AcDbEntity
  8
sapa_elevation
100
AcDbVertex
100
AcDb2dVertex
 10
1093.00000291982
 20
2297.000003014059
 30
0.0
  0
SEQEND
  5
9D
330
9A
100
AcDbEntity
  8
sapa_elevation
  0
POLYLINE
  5
9E
330
2
100
AcDbEntity
  8
sapa_elevation
100
AcDb2dPolyline
 66
     1
 10
0.0
 20
0.0
 30
0.0
  0
VERTEX
  5
9F
330
9E
100
AcDbEntity
  8
sapa_elevation
100
AcDbVertex
100
AcDb2dVertex
 10
1015.00000291982
 20
2375.000003014059
 30
0.0
  0
VERTEX
  5
A0
330
9E
100
AcDbEntity
  8
sapa_elevation
100
AcDbVertex
100
AcDb2dVertex
 10
1925.00000291982
 20
2375.000003014059
 30
0.0
  0
SEQEND
  5
A1
330
9E
100
AcDbEntity
  8
sapa_elevation
  0
POLYLINE
  5
A2
330
2
100
AcDbEntity
  8
sapa_elevation
100
AcDb2dPolyline
 66
     1
 10
0.0
 20
0.0
 30
0.0
  0
VERTEX
  5
A3
330
A2
100
AcDbEntity
  8
sapa_elevation
100
AcDbVertex
100
AcDb2dVertex
 10
907.0000029198199
 20
468.0000030140591
 30
0.0
  0
VERTEX
  5
A4
330
A2
100
AcDbEntity
  8
sapa_elevation
100
AcDbVertex
100
AcDb2dVertex
 10
907.0000029198199
 20
2297.000003014059
 30
0.0
  0
SEQEND
  5
A5
330
A2
100
AcDbEntity
  8
sapa_elevation
  0
POLYLINE
  5
A6
330
2
100
AcDbEntity
  8
sapa_elevation
100
AcDb2dPolyline
 66
     1
 10
0.0
 20
0.0
 30
0.0
  0
VERTEX
  5
A7
330
A6
100
AcDbEntity
  8
sapa_elevation
100
AcDbVertex
100
AcDb2dVertex
 10
985.0000029198199
 20
2375.000003014059
 30
0.0
  0
VERTEX
  5
A8
330
A6
100
AcDbEntity
  8
sapa_elevation
100
AcDbVertex
100
AcDb2dVertex
 10
985.0000029198199
 20
390.0000030140591
 30
0.0
  0
SEQEND
  5
A9
330
A6
100
AcDbEntity
  8
sapa_elevation
  0
POLYLINE
  5
AA
330
2
100
AcDbEntity
  8
sapa_elevation
100
AcDb2dPolyline
 66
     1
 10
0.0
 20
0.0
 30
0.0
  0
VERTEX
  5
AB
330
AA
100
AcDbEntity
  8
sapa_elevation
100
AcDbVertex
100
AcDb2dVertex
 10
1093.00000291982
 20
2297.000003014059
 30
0.0
  0
VERTEX
  5
AC
330
AA
100
AcDbEntity
  8
sapa_elevation
100
AcDbVertex
100
AcDb2dVertex
 10
1093.00000291982
 20
468.0000030140591
 30
0.0
  0
SEQEND
  5
AD
330
AA
100
AcDbEntity
  8
sapa_elevation
  0
POLYLINE
  5
AE
330
2
100
AcDbEntity
  8
sapa_elevation
100
AcDb2dPolyline
 66
     1
 10
0.0
 20
0.0
 30
0.0
  0
VERTEX
  5
AF
330
AE
100
AcDbEntity
  8
sapa_elevation
100
AcDbVertex
100
AcDb2dVertex
 10
1015.00000291982
 20
390.0000030140591
 30
0.0
  0
VERTEX
  5
B0
330
AE
100
AcDbEntity
  8
sapa_elevation
100
AcDbVertex
100
AcDb2dVertex
 10
1015.00000291982
 20
2375.000003014059
 30
0.0
  0
SEQEND
  5
B1
330
AE
100
AcDbEntity
  8
sapa_elevation
  0
POLYLINE
  5
B2
330
2
100
AcDbEntity
  8
sapa_elevation
100
AcDb2dPolyline
 66
     1
 10
0.0
 20
0.0
 30
0.0
  0
VERTEX
  5
B3
330
B2
100
AcDbEntity
  8
sapa_elevation
100
AcDbVertex
100
AcDb2dVertex
 10
153.0000029198199
 20
2297.000003014059
 30
0.0
  0
VERTEX
  5
B4
330
B2
100
AcDbEntity
  8
sapa_elevation
100
AcDbVertex
100
AcDb2dVertex
 10
153.0000029198199
 20
468.0000030140591
 30
0.0
  0
SEQEND
  5
B5
330
B2
100
AcDbEntity
  8
sapa_elevation
  0
POLYLINE
  5
B6
330
2
100
AcDbEntity
  8
sapa_elevation
100
AcDb2dPolyline
 66
     1
 10
0.0
 20
0.0
 30
0.0
  0
VERTEX
  5
B7
330
B6
100
AcDbEntity
  8
sapa_elevation
100
AcDbVertex
100
AcDb2dVertex
 10
75.00000291981996
 20
390.0000030140591
 30
0.0
  0
VERTEX
  5
B8
330
B6
100
AcDbEntity
  8
sapa_elevation
100
AcDbVertex
100
AcDb2dVertex
 10
75.00000291981996
 20
2375.000003014059
 30
0.0
  0
SEQEND
  5
B9
330
B6
100
AcDbEntity
  8
sapa_elevation
  0
POLYLINE
  5
BA
330
2
100
AcDbEntity
  8
sapa_elevation
100
AcDb2dPolyline
 66
     1
 10
0.0
 20
0.0
 30
0.0
  0
VERTEX
  5
BB
330
BA
100
AcDbEntity
  8
sapa_elevation
100
AcDbVertex
100
AcDb2dVertex
 10
1847.00000291982
 20
468.0000030140591
 30
0.0
  0
VERTEX
  5
BC
330
BA
100
AcDbEntity
  8
sapa_elevation
100
AcDbVertex
100
AcDb2dVertex
 10
1847.00000291982
 20
2297.000003014059
 30
0.0
  0
SEQEND
  5
BD
330
BA
100
AcDbEntity
  8
sapa_elevation
  0
POLYLINE
  5
BE
330
2
100
AcDbEntity
  8
sapa_elevation
100
AcDb2dPolyline
 66
     1
 10
0.0
 20
0.0
 30
0.0
  0
VERTEX
  5
BF
330
BE
100
AcDbEntity
  8
sapa_elevation
100
AcDbVertex
100
AcDb2dVertex
 10
1925.00000291982
 20
2375.000003014059
 30
0.0
  0
VERTEX
  5
C0
330
BE
100
AcDbEntity
  8
sapa_elevation
100
AcDbVertex
100
AcDb2dVertex
 10
1925.00000291982
 20
390.0000030140591
 30
0.0
  0
SEQEND
  5
C1
330
BE
100
AcDbEntity
  8
sapa_elevation
  0
POLYLINE
  5
C2
330
2
100
AcDbEntity
  8
sapa_elevation
100
AcDb2dPolyline
 66
     1
 10
0.0
 20
0.0
 30
0.0
  0
VERTEX
  5
C3
330
C2
100
AcDbEntity
  8
sapa_elevation
100
AcDbVertex
100
AcDb2dVertex
 10
50.00000291981996
 20
2400.000003014059
 30
0.0
  0
VERTEX
  5
C4
330
C2
100
AcDbEntity
  8
sapa_elevation
100
AcDbVertex
100
AcDb2dVertex
 10
990.0000029198199
 20
2400.000003014059
 30
0.0
  0
VERTEX
  5
C5
330
C2
100
AcDbEntity
  8
sapa_elevation
100
AcDbVertex
100
AcDb2dVertex
 10
990.0000029198199
 20
2380.000003014059
 30
0.0
  0
SEQEND
  5
C6
330
C2
100
AcDbEntity
  8
sapa_elevation
  0
POLYLINE
  5
C7
330
2
100
AcDbEntity
  8
sapa_elevation
100
AcDb2dPolyline
 66
     1
 10
0.0
 20
0.0
 30
0.0
  0
VERTEX
  5
C8
330
C7
100
AcDbEntity
  8
sapa_elevation
100
AcDbVertex
100
AcDb2dVertex
 10
985.0000029198199
 20
2375.000003014059
 30
0.0
  0
VERTEX
  5
C9
330
C7
100
AcDbEntity
  8
sapa_elevation
100
AcDbVertex
100
AcDb2dVertex
 10
75.00000291981996
 20
2375.000003014059
 30
0.0
  0
SEQEND
  5
CA
330
C7
100
AcDbEntity
  8
sapa_elevation
  0
POLYLINE
  5
CB
330
2
100
AcDbEntity
  8
sapa_elevation
100
AcDb2dPolyline
 66
     1
 10
0.0
 20
0.0
 30
0.0
  0
VERTEX
  5
CC
330
CB
100
AcDbEntity
  8
sapa_elevation
100
AcDbVertex
100
AcDb2dVertex
 10
990.0000029198199
 20
2400.000003014059
 30
0.0
  0
VERTEX
  5
CD
330
CB
100
AcDbEntity
  8
sapa_elevation
100
AcDbVertex
100
AcDb2dVertex
 10
1950.00000291982
 20
2400.000003014059
 30
0.0
  0
SEQEND
  5
CE
330
CB
100
AcDbEntity
  8
sapa_elevation
  0
POLYLINE
  5
CF
330
2
100
AcDbEntity
  8
sapa_elevation
100
AcDb2dPolyline
 66
     1
 10
0.0
 20
0.0
 30
0.0
  0
VERTEX
  5
D0
330
CF
100
AcDbEntity
  8
sapa_elevation
100
AcDbVertex
100
AcDb2dVertex
 10
1925.00000291982
 20
2375.000003014059
 30
0.0
  0
VERTEX
  5
D1
330
CF
100
AcDbEntity
  8
sapa_elevation
100
AcDbVertex
100
AcDb2dVertex
 10
1015.00000291982
 20
2375.000003014059
 30
0.0
  0
SEQEND
  5
D2
330
CF
100
AcDbEntity
  8
sapa_elevation
  0
POLYLINE
  5
D3
330
2
100
AcDbEntity
  8
sapa_elevation
100
AcDb2dPolyline
 66
     1
 10
0.0
 20
0.0
 30
0.0
  0
VERTEX
  5
D4
330
D3
100
AcDbEntity
  8
sapa_elevation
100
AcDbVertex
100
AcDb2dVertex
 10
50.00000291981996
 20
365.0000030140591
 30
0.0
  0
VERTEX
  5
D5
330
D3
100
AcDbEntity
  8
sapa_elevation
100
AcDbVertex
100
AcDb2dVertex
 10
50.00000291981996
 20
2400.000003014059
 30
0.0
  0
SEQEND
  5
D6
330
D3
100
AcDbEntity
  8
sapa_elevation
  0
POLYLINE
  5
D7
330
2
100
AcDbEntity
  8
sapa_elevation
100
AcDb2dPolyline
 66
     1
 10
0.0
 20
0.0
 30
0.0
  0
VERTEX
  5
D8
330
D7
100
AcDbEntity
  8
sapa_elevation
100
AcDbVertex
100
AcDb2dVertex
 10
75.00000291981996
 20
2375.000003014059
 30
0.0
  0
VERTEX
  5
D9
330
D7
100
AcDbEntity
  8
sapa_elevation
100
AcDbVertex
100
AcDb2dVertex
 10
75.00000291981996
 20
390.0000030140591
 30
0.0
  0
SEQEND
  5
DA
330
D7
100
AcDbEntity
  8
sapa_elevation
  0
POLYLINE
  5
DB
330
2
100
AcDbEntity
  8
sapa_elevation
100
AcDb2dPolyline
 66
     1
 10
0.0
 20
0.0
 30
0.0
  0
VERTEX
  5
DC
330
DB
100
AcDbEntity
  8
sapa_elevation
100
AcDbVertex
100
AcDb2dVertex
 10
985.0000029198199
 20
390.0000030140591
 30
0.0
  0
VERTEX
  5
DD
330
DB
100
AcDbEntity
  8
sapa_elevation
100
AcDbVertex
100
AcDb2dVertex
 10
985.0000029198199
 20
2375.000003014059
 30
0.0
  0
SEQEND
  5
DE
330
DB
100
AcDbEntity
  8
sapa_elevation
  0
POLYLINE
  5
DF
330
2
100
AcDbEntity
  8
sapa_elevation
100
AcDb2dPolyline
 66
     1
 10
0.0
 20
0.0
 30
0.0
  0
VERTEX
  5
E0
330
DF
100
AcDbEntity
  8
sapa_elevation
100
AcDbVertex
100
AcDb2dVertex
 10
990.0000029198199
 20
365.0000030140591
 30
0.0
  0
VERTEX
  5
E1
330
DF
100
AcDbEntity
  8
sapa_elevation
100
AcDbVertex
100
AcDb2dVertex
 10
990.0000029198199
 20
2400.000003014059
 30
0.0
  0
SEQEND
  5
E2
330
DF
100
AcDbEntity
  8
sapa_elevation
  0
POLYLINE
  5
E3
330
2
100
AcDbEntity
  8
sapa_elevation
100
AcDb2dPolyline
 66
     1
 10
0.0
 20
0.0
 30
0.0
  0
VERTEX
  5
E4
330
E3
100
AcDbEntity
  8
sapa_elevation
100
AcDbVertex
100
AcDb2dVertex
 10
1015.00000291982
 20
2375.000003014059
 30
0.0
  0
VERTEX
  5
E5
330
E3
100
AcDbEntity
  8
sapa_elevation
100
AcDbVertex
100
AcDb2dVertex
 10
1015.00000291982
 20
390.0000030140591
 30
0.0
  0
SEQEND
  5
E6
330
E3
100
AcDbEntity
  8
sapa_elevation
  0
POLYLINE
  5
E7
330
2
100
AcDbEntity
  8
sapa_elevation
100
AcDb2dPolyline
 66
     1
 10
0.0
 20
0.0
 30
0.0
  0
VERTEX
  5
E8
330
E7
100
AcDbEntity
  8
sapa_elevation
100
AcDbVertex
100
AcDb2dVertex
 10
1950.00000291982
 20
2400.000003014059
 30
0.0
  0
VERTEX
  5
E9
330
E7
100
AcDbEntity
  8
sapa_elevation
100
AcDbVertex
100
AcDb2dVertex
 10
1950.00000291982
 20
365.0000030140591
 30
0.0
  0
SEQEND
  5
EA
330
E7
100
AcDbEntity
  8
sapa_elevation
  0
POLYLINE
  5
EB
330
2
100
AcDbEntity
  8
sapa_elevation
100
AcDb2dPolyline
 66
     1
 10
0.0
 20
0.0
 30
0.0
  0
VERTEX
  5
EC
330
EB
100
AcDbEntity
  8
sapa_elevation
100
AcDbVertex
100
AcDb2dVertex
 10
1925.00000291982
 20
390.0000030140591
 30
0.0
  0
VERTEX
  5
ED
330
EB
100
AcDbEntity
  8
sapa_elevation
100
AcDbVertex
100
AcDb2dVertex
 10
1925.00000291982
 20
2375.000003014059
 30
0.0
  0
SEQEND
  5
EE
330
EB
100
AcDbEntity
  8
sapa_elevation
  0
POLYLINE
  5
EF
330
2
100
AcDbEntity
  8
sapa_elevation
100
AcDb2dPolyline
 66
     1
 10
0.0
 20
0.0
 30
0.0
  0
VERTEX
  5
F0
330
EF
100
AcDbEntity
  8
sapa_elevation
100
AcDbVertex
100
AcDb2dVertex
 10
990.0000029198199
 20
365.0000030140591
 30
0.0
  0
VERTEX
  5
F1
330
EF
100
AcDbEntity
  8
sapa_elevation
100
AcDbVertex
100
AcDb2dVertex
 10
50.00000291981996
 20
365.0000030140591
 30
0.0
  0
SEQEND
  5
F2
330
EF
100
AcDbEntity
  8
sapa_elevation
  0
POLYLINE
  5
F3
330
2
100
AcDbEntity
  8
sapa_elevation
100
AcDb2dPolyline
 66
     1
 10
0.0
 20
0.0
 30
0.0
  0
VERTEX
  5
F4
330
F3
100
AcDbEntity
  8
sapa_elevation
100
AcDbVertex
100
AcDb2dVertex
 10
75.00000291981996
 20
390.0000030140591
 30
0.0
  0
VERTEX
  5
F5
330
F3
100
AcDbEntity
  8
sapa_elevation
100
AcDbVertex
100
AcDb2dVertex
 10
985.0000029198199
 20
390.0000030140591
 30
0.0
  0
SEQEND
  5
F6
330
F3
100
AcDbEntity
  8
sapa_elevation
  0
POLYLINE
  5
F7
330
2
100
AcDbEntity
  8
sapa_elevation
100
AcDb2dPolyline
 66
     1
 10
0.0
 20
0.0
 30
0.0
  0
VERTEX
  5
F8
330
F7
100
AcDbEntity
  8
sapa_elevation
100
AcDbVertex
100
AcDb2dVertex
 10
990.0000029198199
 20
385.0000030140591
 30
0.0
  0
VERTEX
  5
F9
330
F7
100
AcDbEntity
  8
sapa_elevation
100
AcDbVertex
100
AcDb2dVertex
 10
990.0000029198199
 20
365.0000030140591
 30
0.0
  0
SEQEND
  5
FA
330
F7
100
AcDbEntity
  8
sapa_elevation
  0
POLYLINE
  5
FB
330
2
100
AcDbEntity
  8
sapa_elevation
100
AcDb2dPolyline
 66
     1
 10
0.0
 20
0.0
 30
0.0
  0
VERTEX
  5
FC
330
FB
100
AcDbEntity
  8
sapa_elevation
100
AcDbVertex
100
AcDb2dVertex
 10
1950.00000291982
 20
365.0000030140591
 30
0.0
  0
VERTEX
  5
FD
330
FB
100
AcDbEntity
  8
sapa_elevation
100
AcDbVertex
100
AcDb2dVertex
 10
990.0000029198199
 20
365.0000030140591
 30
0.0
  0
SEQEND
  5
FE
330
FB
100
AcDbEntity
  8
sapa_elevation
  0
POLYLINE
  5
FF
330
2
100
AcDbEntity
  8
sapa_elevation
100
AcDb2dPolyline
 66
     1
 10
0.0
 20
0.0
 30
0.0
  0
VERTEX
  5
100
330
FF
100
AcDbEntity
  8
sapa_elevation
100
AcDbVertex
100
AcDb2dVertex
 10
1015.00000291982
 20
390.0000030140591
 30
0.0
  0
VERTEX
  5
101
330
FF
100
AcDbEntity
  8
sapa_elevation
100
AcDbVertex
100
AcDb2dVertex
 10
1925.00000291982
 20
390.0000030140591
 30
0.0
  0
SEQEND
  5
102
330
FF
100
AcDbEntity
  8
sapa_elevation
  0
POLYLINE
  5
103
330
2
100
AcDbEntity
  8
sapa_elevation
100
AcDb2dPolyline
 66
     1
 10
0.0
 20
0.0
 30
0.0
  0
VERTEX
  5
104
330
103
100
AcDbEntity
  8
sapa_elevation
100
AcDbVertex
100
AcDb2dVertex
 10
45.00000291981996
 20
2405.000003014059
 30
0.0
  0
VERTEX
  5
105
330
103
100
AcDbEntity
  8
sapa_elevation
100
AcDbVertex
100
AcDb2dVertex
 10
1955.00000291982
 20
2405.000003014059
 30
0.0
  0
SEQEND
  5
106
330
103
100
AcDbEntity
  8
sapa_elevation
  0
POLYLINE
  5
107
330
2
100
AcDbEntity
  8
sapa_elevation
100
AcDb2dPolyline
 66
     1
 10
0.0
 20
0.0
 30
0.0
  0
VERTEX
  5
108
330
107
100
AcDbEntity
  8
sapa_elevation
100
AcDbVertex
100
AcDb2dVertex
 10
45.00000291981996
 20
370.0000030140591
 30
0.0
  0
VERTEX
  5
109
330
107
100
AcDbEntity
  8
sapa_elevation
100
AcDbVertex
100
AcDb2dVertex
 10
45.00000291981996
 20
2405.000003014059
 30
0.0
  0
SEQEND
  5
10A
330
107
100
AcDbEntity
  8
sapa_elevation
  0
POLYLINE
  5
10B
330
2
100
AcDbEntity
  8
sapa_elevation
100
AcDb2dPolyline
 66
     1
 10
0.0
 20
0.0
 30
0.0
  0
VERTEX
  5
10C
330
10B
100
AcDbEntity
  8
sapa_elevation
100
AcDbVertex
100
AcDb2dVertex
 10
1955.00000291982
 20
2405.000003014059
 30
0.0
  0
VERTEX
  5
10D
330
10B
100
AcDbEntity
  8
sapa_elevation
100
AcDbVertex
100
AcDb2dVertex
 10
1955.00000291982
 20
370.0000030140591
 30
0.0
  0
SEQEND
  5
10E
330
10B
100
AcDbEntity
  8
sapa_elevation
  0
POLYLINE
  5
10F
330
2
100
AcDbEntity
  8
sapa_elevation
100
AcDb2dPolyline
 66
     1
 10
0.0
 20
0.0
 30
0.0
  0
VERTEX
  5
110
330
10F
100
AcDbEntity
  8
sapa_elevation
100
AcDbVertex
100
AcDb2dVertex
 10
1955.00000291982
 20
350.0000030140591
 30
0.0
  0
VERTEX
  5
111
330
10F
100
AcDbEntity
  8
sapa_elevation
100
AcDbVertex
100
AcDb2dVertex
 10
45.00000291981996
 20
350.0000030140591
 30
0.0
  0
SEQEND
  5
112
330
10F
100
AcDbEntity
  8
sapa_elevation
  0
POLYLINE
  5
113
330
2
100
AcDbEntity
  8
sapa_elevation
100
AcDb2dPolyline
 66
     1
 10
0.0
 20
0.0
 30
0.0
  0
VERTEX
  5
114
330
113
100
AcDbEntity
  8
sapa_elevation
100
AcDbVertex
100
AcDb2dVertex
 10
2022.00000291982
 20
417.000003014059
 30
0.0
  0
VERTEX
  5
115
330
113
100
AcDbEntity
  8
sapa_elevation
100
AcDbVertex
100
AcDb2dVertex
 10
2433.00000291982
 20
417.000003014059
 30
0.0
  0
SEQEND
  5
116
330
113
100
AcDbEntity
  8
sapa_elevation
  0
POLYLINE
  5
117
330
2
100
AcDbEntity
  8
sapa_elevation
100
AcDb2dPolyline
 66
     1
 10
0.0
 20
0.0
 30
0.0
  0
VERTEX
  5
118
330
117
100
AcDbEntity
  8
sapa_elevation
100
AcDbVertex
100
AcDb2dVertex
 10
2433.00000291982
 20
350.0000030140591
 30
0.0
  0
VERTEX
  5
119
330
117
100
AcDbEntity
  8
sapa_elevation
100
AcDbVertex
100
AcDb2dVertex
 10
2022.00000291982
 20
350.0000030140591
 30
0.0
  0
SEQEND
  5
11A
330
117
100
AcDbEntity
  8
sapa_elevation
  0
POLYLINE
  5
11B
330
2
100
AcDbEntity
  8
sapa_elevation
100
AcDb2dPolyline
 66
     1
 10
0.0
 20
0.0
 30
0.0
  0
VERTEX
  5
11C
330
11B
100
AcDbEntity
  8
sapa_elevation
100
AcDbVertex
100
AcDb2dVertex
 10
45.00000291981996
 20
350.0000030140591
 30
0.0
  0
VERTEX
  5
11D
330
11B
100
AcDbEntity
  8
sapa_elevation
100
AcDbVertex
100
AcDb2dVertex
 10
1955.00000291982
 20
350.0000030140591
 30
0.0
  0
SEQEND
  5
11E
330
11B
100
AcDbEntity
  8
sapa_elevation
  0
POLYLINE
  5
11F
330
2
100
AcDbEntity
  8
sapa_elevation
100
AcDb2dPolyline
 66
     1
 10
0.0
 20
0.0
 30
0.0
  0
VERTEX
  5
120
330
11F
100
AcDbEntity
  8
sapa_elevation
100
AcDbVertex
100
AcDb2dVertex
 10
2433.00000291982
 20
2383.000003014059
 30
0.0
  0
VERTEX
  5
121
330
11F
100
AcDbEntity
  8
sapa_elevation
100
AcDbVertex
100
AcDb2dVertex
 10
2022.00000291982
 20
2383.000003014059
 30
0.0
  0
SEQEND
  5
122
330
11F
100
AcDbEntity
  8
sapa_elevation
  0
POLYLINE
  5
123
330
2
100
AcDbEntity
  8
sapa_elevation
100
AcDb2dPolyline
 66
     1
 10
0.0
 20
0.0
 30
0.0
  0
VERTEX
  5
124
330
123
100
AcDbEntity
  8
sapa_elevation
100
AcDbVertex
100
AcDb2dVertex
 10
2022.00000291982
 20
2383.000003014059
 30
0.0
  0
VERTEX
  5
125
330
123
100
AcDbEntity
  8
sapa_elevation
100
AcDbVertex
100
AcDb2dVertex
 10
2022.00000291982
 20
417.000003014059
 30
0.0
  0
SEQEND
  5
126
330
123
100
AcDbEntity
  8
sapa_elevation
  0
POLYLINE
  5
127
330
2
100
AcDbEntity
  8
sapa_elevation
100
AcDb2dPolyline
 66
     1
 10
0.0
 20
0.0
 30
0.0
  0
VERTEX
  5
128
330
127
100
AcDbEntity
  8
sapa_elevation
100
AcDbVertex
100
AcDb2dVertex
 10
2022.00000291982
 20
350.0000030140591
 30
0.0
  0
VERTEX
  5
129
330
127
100
AcDbEntity
  8
sapa_elevation
100
AcDbVertex
100
AcDb2dVertex
 10
1955.00000291982
 20
350.0000030140591
 30
0.0
  0
VERTEX
  5
12A
330
127
100
AcDbEntity
  8
sapa_elevation
100
AcDbVertex
100
AcDb2dVertex
 10
1955.00000291982
 20
2405.000003014059
 30
0.0
  0
SEQEND
  5
12B
330
127
100
AcDbEntity
  8
sapa_elevation
  0
POLYLINE
  5
12C
330
2
100
AcDbEntity
  8
sapa_elevation
100
AcDb2dPolyline
 66
     1
 10
0.0
 20
0.0
 30
0.0
  0
VERTEX
  5
12D
330
12C
100
AcDbEntity
  8
sapa_elevation
100
AcDbVertex
100
AcDb2dVertex
 10
1955.00000291982
 20
2405.000003014059
 30
0.0
  0
VERTEX
  5
12E
330
12C
100
AcDbEntity
  8
sapa_elevation
100
AcDbVertex
100
AcDb2dVertex
 10
45.00000291981996
 20
2405.000003014059
 30
0.0
  0
SEQEND
  5
12F
330
12C
100
AcDbEntity
  8
sapa_elevation
  0
POLYLINE
  5
130
330
2
100
AcDbEntity
  8
sapa_elevation
100
AcDb2dPolyline
 66
     1
 10
0.0
 20
0.0
 30
0.0
  0
VERTEX
  5
131
330
130
100
AcDbEntity
  8
sapa_elevation
100
AcDbVertex
100
AcDb2dVertex
 10
45.00000291981996
 20
2450.000003014059
 30
0.0
  0
VERTEX
  5
132
330
130
100
AcDbEntity
  8
sapa_elevation
100
AcDbVertex
100
AcDb2dVertex
 10
2433.00000291982
 20
2450.000003014059
 30
0.0
  0
SEQEND
  5
133
330
130
100
AcDbEntity
  8
sapa_elevation
  0
POLYLINE
  5
134
330
2
100
AcDbEntity
  8
sapa_elevation
100
AcDb2dPolyline
 66
     1
 10
0.0
 20
0.0
 30
0.0
  0
VERTEX
  5
135
330
134
100
AcDbEntity
  8
sapa_elevation
100
AcDbVertex
100
AcDb2dVertex
 10
45.00000291981996
 20
2405.000003014059
 30
0.0
  0
VERTEX
  5
136
330
134
100
AcDbEntity
  8
sapa_elevation
100
AcDbVertex
100
AcDb2dVertex
 10
45.00000291981996
 20
350.0000030140591
 30
0.0
  0
VERTEX
  5
137
330
134
100
AcDbEntity
  8
sapa_elevation
100
AcDbVertex
100
AcDb2dVertex
 10
0.0000029198199627
 20
350.0000030140591
 30
0.0
  0
VERTEX
  5
138
330
134
100
AcDbEntity
  8
sapa_elevation
100
AcDbVertex
100
AcDb2dVertex
 10
0.0000029198199627
 20
2450.000003014059
 30
0.0
  0
VERTEX
  5
139
330
134
100
AcDbEntity
  8
sapa_elevation
100
AcDbVertex
100
AcDb2dVertex
 10
45.00000291981996
 20
2450.000003014059
 30
0.0
  0
SEQEND
  5
13A
330
134
100
AcDbEntity
  8
sapa_elevation
  0
POLYLINE
  5
13B
330
2
100
AcDbEntity
  8
sapa_elevation
100
AcDb2dPolyline
 66
     1
 10
0.0
 20
0.0
 30
0.0
  0
VERTEX
  5
13C
330
13B
100
AcDbEntity
  8
sapa_elevation
100
AcDbVertex
100
AcDb2dVertex
 10
2433.00000291982
 20
417.000003014059
 30
0.0
  0
VERTEX
  5
13D
330
13B
100
AcDbEntity
  8
sapa_elevation
100
AcDbVertex
100
AcDb2dVertex
 10
2433.00000291982
 20
2383.000003014059
 30
0.0
  0
SEQEND
  5
13E
330
13B
100
AcDbEntity
  8
sapa_elevation
  0
POLYLINE
  5
13F
330
2
100
AcDbEntity
  8
sapa_elevation
100
AcDb2dPolyline
 66
     1
 10
0.0
 20
0.0
 30
0.0
  0
VERTEX
  5
140
330
13F
100
AcDbEntity
  8
sapa_elevation
100
AcDbVertex
100
AcDb2dVertex
 10
2433.00000291982
 20
2450.000003014059
 30
0.0
  0
VERTEX
  5
141
330
13F
100
AcDbEntity
  8
sapa_elevation
100
AcDbVertex
100
AcDb2dVertex
 10
2500.00000291982
 20
2450.000003014059
 30
0.0
  0
VERTEX
  5
142
330
13F
100
AcDbEntity
  8
sapa_elevation
100
AcDbVertex
100
AcDb2dVertex
 10
2500.00000291982
 20
350.0000030140591
 30
0.0
  0
VERTEX
  5
143
330
13F
100
AcDbEntity
  8
sapa_elevation
100
AcDbVertex
100
AcDb2dVertex
 10
2433.00000291982
 20
350.0000030140591
 30
0.0
  0
SEQEND
  5
144
330
13F
100
AcDbEntity
  8
sapa_elevation
  0
ENDSEC
  0
SECTION
  2
OBJECTS
  0
DICTIONARY
  5
9
330
0
100
AcDbDictionary
281
     1
  3
ACAD_COLOR
350
30
  3
ACAD_GROUP
350
2B
  3
ACAD_LAYOUT
350
F
  3
ACAD_MATERIAL
350
B
  3
ACAD_MLEADERSTYLE
350
33
  3
ACAD_MLINESTYLE
350
2C
  3
ACAD_PLOTSETTINGS
350
2D
  3
ACAD_PLOTSTYLENAME
350
8
  3
ACAD_SCALELIST
350
31
  3
ACAD_TABLESTYLE
350
32
  3
ACAD_VISUALSTYLE
350
24
  3
ACDB_RECOMPOSE_DATA
350
150
  3
AcDbVariableDictionary
350
145
  3
AcDsDecomposeData
350
156
  0
DICTIONARY
  5
26
330
21
100
AcDbDictionary
280
     1
281
     1
  0
DICTIONARY
  5
17
330
16
100
AcDbDictionary
280
     1
281
     1
  3
ACAD_LAYERSTATES
360
18
  0
DICTIONARY
  5
5
330
4
100
AcDbDictionary
280
     1
281
     1
  3
ADSK_XREC_LAYER_RECONCILED
360
6
  0
DICTIONARY
  5
35
330
34
100
AcDbDictionary
280
     1
281
     1
  3
ADSK_XREC_LAYER_RECONCILED
360
36
  0
DICTIONARY
  5
30
102
{ACAD_REACTORS
330
9
102
}
330
9
100
AcDbDictionary
281
     1
  0
DICTIONARY
  5
2B
102
{ACAD_REACTORS
330
9
102
}
330
9
100
AcDbDictionary
281
     1
  0
DICTIONARY
  5
F
102
{ACAD_REACTORS
330
9
102
}
330
9
100
AcDbDictionary
281
     1
  3
Model
350
E
  3
Web
350
14
  0
DICTIONARY
  5
B
102
{ACAD_REACTORS
330
9
102
}
330
9
100
AcDbDictionary
281
     1
  3
ByBlock
350
2F
  3
ByLayer
350
2E
  3
Global
350
A
  0
DICTIONARY
  5
33
102
{ACAD_REACTORS
330
9
102
}
330
9
100
AcDbDictionary
281
     1
  0
DICTIONARY
  5
2C
102
{ACAD_REACTORS
330
9
102
}
330
9
100
AcDbDictionary
281
     1
  3
STANDARD
350
38
  0
DICTIONARY
  5
2D
102
{ACAD_REACTORS
330
9
102
}
330
9
100
AcDbDictionary
281
     1
  0
ACDBDICTIONARYWDFLT
  5
8
102
{ACAD_REACTORS
330
9
102
}
330
9
100
AcDbDictionary
281
     1
  3
Normal
350
7
100
AcDbDictionaryWithDefault
340
7
  0
DICTIONARY
  5
31
102
{ACAD_REACTORS
330
9
102
}
330
9
100
AcDbDictionary
281
     1
  3
*A1
350
3E
  3
*A10
350
3F
  3
*A11
350
40
  3
*A12
350
41
  3
*A13
350
42
  3
*A14
350
43
  3
*A15
350
44
  3
*A16
350
45
  3
*A17
350
46
  3
*A18
350
47
  3
*A2
350
48
  3
*A3
350
49
  3
*A4
350
4A
  3
*A5
350
4B
  3
*A6
350
4C
  3
*A7
350
4D
  3
*A8
350
4E
  3
*A9
350
4F
  3
A0
350
50
  3
A1
350
51
  3
A2
350
52
  3
A3
350
53
  3
A4
350
54
  3
A5
350
55
  3
A6
350
56
  3
A7
350
57
  3
A8
350
58
  3
A9
350
59
  3
B0
350
5A
  3
B1
350
5B
  3
B2
350
5C
  3
B3
350
5D
  3
B4
350
5E
  3
B5
350
5F
  3
B6
350
60
  3
B7
350
61
  3
B8
350
62
  3
B9
350
63
  3
C0
350
64
  3
C1
350
65
  3
C2
350
66
  3
C3
350
67
  3
C4
350
68
  3
C5
350
69
  3
C6
350
6A
  3
C7
350
6B
  3
C8
350
6C
  3
C9
350
6D
  3
D0
350
6E
  3
D1
350
6F
  3
D2
350
70
  0
DICTIONARY
  5
32
102
{ACAD_REACTORS
330
9
102
}
330
9
100
AcDbDictionary
281
     1
  3
Standard
350
39
  0
DICTIONARY
  5
24
102
{ACAD_REACTORS
330
9
102
}
330
9
100
AcDbDictionary
281
     1
  3
2dWireframe
350
23
  3
Realistic
350
3B
  3
Wireframe
350
3C
  0
XRECORD
  5
150
102
{ACAD_REACTORS
330
9
102
}
330
9
100
AcDbXrecord
280
     1
 90
        1
330
39
  0
DICTIONARY
  5
145
102
{ACAD_REACTORS
330
9
102
}
330
9
100
AcDbDictionary
281
     1
  3
CANNOSCALE
350
14B
  3
CMLEADERSTYLE
350
147
  3
CTABLESTYLE
350
146
  3
CVIEWDETAILSTYLE
350
148
  3
CVIEWSECTIONSTYLE
350
149
  3
LAYEREVAL
350
14D
  3
LAYERNOTIFY
350
14E
  3
LIGHTINGUNITS
350
14C
  3
MSLTSCALE
350
14A
  0
DICTIONARY
  5
156
102
{ACAD_REACTORS
330
9
102
}
330
9
100
AcDbDictionary
281
     1
  3
AcDsRecords
350
158
  3
AcDsSchemas
350
157
1001
ACAD
1070
     2
  0
DICTIONARY
  5
18
102
{ACAD_REACTORS
330
17
102
}
330
17
100
AcDbDictionary
281
     1
  0
XRECORD
  5
6
102
{ACAD_REACTORS
330
5
102
}
330
5
100
AcDbXrecord
280
     1
290
     1
  0
XRECORD
  5
36
102
{ACAD_REACTORS
330
35
102
}
330
35
100
AcDbXrecord
280
     1
290
     1
  0
LAYOUT
  5
E
102
{ACAD_REACTORS
330
F
102
}
330
F
100
AcDbPlotSettings
  1

  2
none_device
  4
Letter_(8.50_x_11.00_Inches)
  6

 40
6.349999904632568
 41
6.349999904632568
 42
6.350006103515625
 43
6.350006103515625
 44
215.8999938964844
 45
279.3999938964844
 46
0.0
 47
0.0
 48
0.0
 49
0.0
140
0.0
141
0.0
142
1.0
143
402.7510625322277
 70
 11952
 72
     0
 73
     1
 74
     0
  7
sapa1.ctb
 75
     0
147
0.0024829233068007
 76
     0
 77
     2
 78
   300
148
36453.46403155286
149
445.9289837759824
100
AcDbLayout
  1
Model
 70
     1
 71
     0
 10
0.0
 20
0.0
 11
12.0
 21
9.0
 12
0.0
 22
0.0
 32
0.0
 14
0.0
 24
0.0
 34
0.0
 15
0.0
 25
0.0
 35
0.0
146
0.0
 13
0.0
 23
0.0
 33
0.0
 16
1.0
 26
0.0
 36
0.0
 17
0.0
 27
1.0
 37
0.0
 76
     0
330
2
331
22
1001
ACAD_PSEXT
1000
None
1000
None
1000
Not applicable
1000
The layout will not be plotted unless a new plotter configuration name is selected.
1070
     0
  0
LAYOUT
  5
14
102
{ACAD_XDICTIONARY
360
15
102
}
102
{ACAD_REACTORS
330
F
102
}
330
F
100
AcDbPlotSettings
  1

  2
\\Spnves02\frontp04
  4
A4
  6

 40
6.805083274841308
 41
5.027085304260253
 42
6.805084228515625
 43
5.027069091796875
 44
209.9733276367187
 45
296.9683227539062
 46
12.0
 47
0.0
 48
0.0
 49
0.0
140
0.0
141
0.0
142
1.0
143
1.0
 70
   688
 72
     1
 73
     0
 74
     1
  7
sapa2.ctb
 75
    16
147
1.0
 76
     1
 77
     2
 78
   300
148
-1.82313184908321
149
0.0085797175912603
100
AcDbLayout
  1
Web
 70
     1
 71
     1
 10
-16.9819514257581
 20
-5.035665021851514
 11
192.9913762109606
 21
291.9326577320547
 12
0.0
 22
0.0
 32
0.0
 14
5.869999703752308
 24
-0.0000001723469722
 34
0.0
 15
185.8683605469043
 25
282.999999827653
 35
0.0
146
0.0
 13
0.0
 23
0.0
 33
0.0
 16
1.0
 26
0.0
 36
0.0
 17
0.0
 27
1.0
 37
0.0
 76
     0
330
11
1001
ACAD_PSEXT
1000
\\Spnves02\frontp04
1000
HP LaserJet 4000 Series PCL
1000
Division System
1000
HP Laserjet 4000, pcl 5
1070
     0
  0
MATERIAL
  5
2F
102
{ACAD_REACTORS
330
B
102
}
330
B
100
AcDbMaterial
  1
ByBlock
 73
     1
 78
     1
172
     1
176
     1
270
     1
274
     1
 94
       63
  0
MATERIAL
  5
2E
102
{ACAD_REACTORS
330
B
102
}
330
B
100
AcDbMaterial
  1
ByLayer
 73
     1
 78
     1
172
     1
176
     1
270
     1
274
     1
 94
       63
  0
MATERIAL
  5
A
102
{ACAD_REACTORS
330
B
102
}
330
B
100
AcDbMaterial
  1
Global
 73
     1
 78
     1
172
     1
176
     1
270
     1
274
     1
 94
       63
  0
MLINESTYLE
  5
38
102
{ACAD_REACTORS
330
2C
102
}
330
2C
100
AcDbMlineStyle
  2
STANDARD
 70
     0
  3

 62
   256
 51
90.0
 52
90.0
 71
     2
 49
0.5
 62
   256
  6
BYLAYER
 49
-0.5
 62
   256
  6
BYLAYER
  0
ACDBPLACEHOLDER
  5
7
102
{ACAD_REACTORS
330
8
102
}
330
8
  0
SCALE
  5
3E
102
{ACAD_REACTORS
330
31
102
}
330
31
100
AcDbScale
 70
     0
300
1/128" = 1'-0"_XREF
140
0.0078125
141
12.0
290
     0
  0
SCALE
  5
3F
102
{ACAD_REACTORS
330
31
102
}
330
31
100
AcDbScale
 70
     0
300
5:1_XREF
140
5.0
141
1.0
290
     0
  0
SCALE
  5
40
102
{ACAD_REACTORS
330
31
102
}
330
31
100
AcDbScale
 70
     0
300
1'-0" = 1'-0"_XREF
140
12.0
141
12.0
290
     0
  0
SCALE
  5
41
102
{ACAD_REACTORS
330
31
102
}
330
31
100
AcDbScale
 70
     0
300
1/64" = 1'-0"_XREF
140
0.015625
141
12.0
290
     0
  0
SCALE
  5
42
102
{ACAD_REACTORS
330
31
102
}
330
31
100
AcDbScale
 70
     0
300
1/32" = 1'-0"_XREF
140
0.03125
141
12.0
290
     0
  0
SCALE
  5
43
102
{ACAD_REACTORS
330
31
102
}
330
31
100
AcDbScale
 70
     0
300
1/16" = 1'-0"_XREF
140
0.0625
141
12.0
290
     0
  0
SCALE
  5
44
102
{ACAD_REACTORS
330
31
102
}
330
31
100
AcDbScale
 70
     0
300
3/32" = 1'-0"_XREF
140
0.09375
141
12.0
290
     0
  0
SCALE
  5
45
102
{ACAD_REACTORS
330
31
102
}
330
31
100
AcDbScale
 70
     0
300
1/8" = 1'-0"_XREF
140
0.125
141
12.0
290
     0
  0
SCALE
  5
46
102
{ACAD_REACTORS
330
31
102
}
330
31
100
AcDbScale
 70
     0
300
3/16" = 1'-0"_XREF
140
0.1875
141
12.0
290
     0
  0
SCALE
  5
47
102
{ACAD_REACTORS
330
31
102
}
330
31
100
AcDbScale
 70
     0
300
1/4" = 1'-0"_XREF
140
0.25
141
12.0
290
     0
  0
SCALE
  5
48
102
{ACAD_REACTORS
330
31
102
}
330
31
100
AcDbScale
 70
     0
300
3/8" = 1'-0"_XREF
140
0.375
141
12.0
290
     0
  0
SCALE
  5
49
102
{ACAD_REACTORS
330
31
102
}
330
31
100
AcDbScale
 70
     0
300
1/2" = 1'-0"_XREF
140
0.5
141
12.0
290
     0
  0
SCALE
  5
4A
102
{ACAD_REACTORS
330
31
102
}
330
31
100
AcDbScale
 70
     0
300
3/4" = 1'-0"_XREF
140
0.75
141
12.0
290
     0
  0
SCALE
  5
4B
102
{ACAD_REACTORS
330
31
102
}
330
31
100
AcDbScale
 70
     0
300
1" = 1'-0"_XREF
140
1.0
141
12.0
290
     0
  0
SCALE
  5
4C
102
{ACAD_REACTORS
330
31
102
}
330
31
100
AcDbScale
 70
     0
300
1-1/2" = 1'-0"_XREF
140
1.5
141
12.0
290
     0
  0
SCALE
  5
4D
102
{ACAD_REACTORS
330
31
102
}
330
31
100
AcDbScale
 70
     0
300
3" = 1'-0"_XREF
140
3.0
141
12.0
290
     0
  0
SCALE
  5
4E
102
{ACAD_REACTORS
330
31
102
}
330
31
100
AcDbScale
 70
     0
300
6" = 1'-0"_XREF
140
6.0
141
12.0
290
     0
  0
SCALE
  5
4F
102
{ACAD_REACTORS
330
31
102
}
330
31
100
AcDbScale
 70
     0
300
1:2.5_XREF
140
1.0
141
2.5
290
     0
  0
SCALE
  5
50
102
{ACAD_REACTORS
330
31
102
}
330
31
100
AcDbScale
 70
     0
300
1:1
140
1.0
141
1.0
290
     1
  0
SCALE
  5
51
102
{ACAD_REACTORS
330
31
102
}
330
31
100
AcDbScale
 70
     0
300
1:2
140
1.0
141
2.0
290
     0
  0
SCALE
  5
52
102
{ACAD_REACTORS
330
31
102
}
330
31
100
AcDbScale
 70
     0
300
1:4
140
1.0
141
4.0
290
     0
  0
SCALE
  5
53
102
{ACAD_REACTORS
330
31
102
}
330
31
100
AcDbScale
 70
     0
300
1:5
140
1.0
141
5.0
290
     0
  0
SCALE
  5
54
102
{ACAD_REACTORS
330
31
102
}
330
31
100
AcDbScale
 70
     0
300
1:8
140
1.0
141
8.0
290
     0
  0
SCALE
  5
55
102
{ACAD_REACTORS
330
31
102
}
330
31
100
AcDbScale
 70
     0
300
1:10
140
1.0
141
10.0
290
     0
  0
SCALE
  5
56
102
{ACAD_REACTORS
330
31
102
}
330
31
100
AcDbScale
 70
     0
300
1:16
140
1.0
141
16.0
290
     0
  0
SCALE
  5
57
102
{ACAD_REACTORS
330
31
102
}
330
31
100
AcDbScale
 70
     0
300
1:20
140
1.0
141
20.0
290
     0
  0
SCALE
  5
58
102
{ACAD_REACTORS
330
31
102
}
330
31
100
AcDbScale
 70
     0
300
1:30
140
1.0
141
30.0
290
     0
  0
SCALE
  5
59
102
{ACAD_REACTORS
330
31
102
}
330
31
100
AcDbScale
 70
     0
300
1:40
140
1.0
141
40.0
290
     0
  0
SCALE
  5
5A
102
{ACAD_REACTORS
330
31
102
}
330
31
100
AcDbScale
 70
     0
300
1:50
140
1.0
141
50.0
290
     0
  0
SCALE
  5
5B
102
{ACAD_REACTORS
330
31
102
}
330
31
100
AcDbScale
 70
     0
300
1:100
140
1.0
141
100.0
290
     0
  0
SCALE
  5
5C
102
{ACAD_REACTORS
330
31
102
}
330
31
100
AcDbScale
 70
     0
300
2:1
140
2.0
141
1.0
290
     0
  0
SCALE
  5
5D
102
{ACAD_REACTORS
330
31
102
}
330
31
100
AcDbScale
 70
     0
300
4:1
140
4.0
141
1.0
290
     0
  0
SCALE
  5
5E
102
{ACAD_REACTORS
330
31
102
}
330
31
100
AcDbScale
 70
     0
300
8:1
140
8.0
141
1.0
290
     0
  0
SCALE
  5
5F
102
{ACAD_REACTORS
330
31
102
}
330
31
100
AcDbScale
 70
     0
300
10:1
140
10.0
141
1.0
290
     0
  0
SCALE
  5
60
102
{ACAD_REACTORS
330
31
102
}
330
31
100
AcDbScale
 70
     0
300
100:1
140
100.0
141
1.0
290
     0
  0
SCALE
  5
61
102
{ACAD_REACTORS
330
31
102
}
330
31
100
AcDbScale
 70
     0
300
1/128" = 1'-0"
140
0.0078125
141
12.0
290
     0
  0
SCALE
  5
62
102
{ACAD_REACTORS
330
31
102
}
330
31
100
AcDbScale
 70
     0
300
1/64" = 1'-0"
140
0.015625
141
12.0
290
     0
  0
SCALE
  5
63
102
{ACAD_REACTORS
330
31
102
}
330
31
100
AcDbScale
 70
     0
300
1/32" = 1'-0"
140
0.03125
141
12.0
290
     0
  0
SCALE
  5
64
102
{ACAD_REACTORS
330
31
102
}
330
31
100
AcDbScale
 70
     0
300
1/16" = 1'-0"
140
0.0625
141
12.0
290
     0
  0
SCALE
  5
65
102
{ACAD_REACTORS
330
31
102
}
330
31
100
AcDbScale
 70
     0
300
3/32" = 1'-0"
140
0.09375
141
12.0
290
     0
  0
SCALE
  5
66
102
{ACAD_REACTORS
330
31
102
}
330
31
100
AcDbScale
 70
     0
300
1/8" = 1'-0"
140
0.125
141
12.0
290
     0
  0
SCALE
  5
67
102
{ACAD_REACTORS
330
31
102
}
330
31
100
AcDbScale
 70
     0
300
3/16" = 1'-0"
140
0.1875
141
12.0
290
     0
  0
SCALE
  5
68
102
{ACAD_REACTORS
330
31
102
}
330
31
100
AcDbScale
 70
     0
300
1/4" = 1'-0"
140
0.25
141
12.0
290
     0
  0
SCALE
  5
69
102
{ACAD_REACTORS
330
31
102
}
330
31
100
AcDbScale
 70
     0
300
3/8" = 1'-0"
140
0.375
141
12.0
290
     0
  0
SCALE
  5
6A
102
{ACAD_REACTORS
330
31
102
}
330
31
100
AcDbScale
 70
     0
300
1/2" = 1'-0"
140
0.5
141
12.0
290
     0
  0
SCALE
  5
6B
102
{ACAD_REACTORS
330
31
102
}
330
31
100
AcDbScale
 70
     0
300
3/4" = 1'-0"
140
0.75
141
12.0
290
     0
  0
SCALE
  5
6C
102
{ACAD_REACTORS
330
31
102
}
330
31
100
AcDbScale
 70
     0
300
1" = 1'-0"
140
1.0
141
12.0
290
     0
  0
SCALE
  5
6D
102
{ACAD_REACTORS
330
31
102
}
330
31
100
AcDbScale
 70
     0
300
1-1/2" = 1'-0"
140
1.5
141
12.0
290
     0
  0
SCALE
  5
6E
102
{ACAD_REACTORS
330
31
102
}
330
31
100
AcDbScale
 70
     0
300
3" = 1'-0"
140
3.0
141
12.0
290
     0
  0
SCALE
  5
6F
102
{ACAD_REACTORS
330
31
102
}
330
31
100
AcDbScale
 70
     0
300
6" = 1'-0"
140
6.0
141
12.0
290
     0
  0
SCALE
  5
70
102
{ACAD_REACTORS
330
31
102
}
330
31
100
AcDbScale
 70
     0
300
1'-0" = 1'-0"
140
12.0
141
12.0
290
     0
  0
TABLESTYLE
  5
39
102
{ACAD_XDICTIONARY
360
3A
102
}
102
{ACAD_REACTORS
330
32
102
}
330
32
100
AcDbTableStyle
  3
Standard
 70
     0
 71
     0
 40
0.06
 41
0.06
280
     0
281
     0
  7
STANDARD
140
0.18
170
     2
 62
     0
 63
     7
283
     0
 90
        4
 91
        0
  1

274
    -2
284
     1
 64
     0
275
    -2
285
     1
 65
     0
276
    -2
286
     1
 66
     0
277
    -2
287
     1
 67
     0
278
    -2
288
     1
 68
     0
279
    -2
289
     1
 69
     0
  7
STANDARD
140
0.25
170
     5
 62
     0
 63
     7
283
     0
 90
        4
 91
        0
  1

274
    -2
284
     1
 64
     0
275
    -2
285
     1
 65
     0
276
    -2
286
     1
 66
     0
277
    -2
287
     1
 67
     0
278
    -2
288
     1
 68
     0
279
    -2
289
     1
 69
     0
  7
STANDARD
140
0.18
170
     5
 62
     0
 63
     7
283
     0
 90
        4
 91
        0
  1

274
    -2
284
     1
 64
     0
275
    -2
285
     1
 65
     0
276
    -2
286
     1
 66
     0
277
    -2
287
     1
 67
     0
278
    -2
288
     1
 68
     0
279
    -2
289
     1
 69
     0
  0
VISUALSTYLE
  5
23
102
{ACAD_XDICTIONARY
360
159
102
}
102
{ACAD_REACTORS
330
24
102
}
330
24
100
AcDbVisualStyle
  2
2dWireframe
 70
     4
 71
     0
 72
     2
 73
     0
 90
        0
 40
-0.6
 41
-30.0
 62
     5
 63
     7
421
 16777215
 74
     1
 91
        4
 64
     7
 65
   257
 75
     1
175
     1
 42
1.0
 92
        0
 66
   257
 43
1.0
 76
     1
 77
     6
 78
     2
 67
     7
 79
     5
170
     0
171
     0
290
     0
174
     0
 93
        1
 44
0.0
173
     0
291
     0
 45
0.0
1001
ACAD
1000
AcDbSavedByObjectVersion
1070
     0
  0
VISUALSTYLE
  5
3B
102
{ACAD_XDICTIONARY
360
15B
102
}
102
{ACAD_REACTORS
330
24
102
}
330
24
100
AcDbVisualStyle
  2
Realistic
 70
     8
 71
     2
 72
     2
 73
     0
 90
        0
 40
-0.6
 41
-30.0
 62
     5
 63
     7
421
 16777215
 74
     1
 91
        0
 64
     7
 65
   257
 75
     1
175
     1
 42
1.0
 92
        8
 66
     8
424
  7895160
 43
1.0
 76
     1
 77
     6
 78
     2
 67
     7
 79
     5
170
     0
171
     0
290
     0
174
     0
 93
       13
 44
0.0
173
     0
291
     0
 45
0.0
1001
ACAD
1000
AcDbSavedByObjectVersion
1070
     0
  0
VISUALSTYLE
  5
3C
102
{ACAD_XDICTIONARY
360
15D
102
}
102
{ACAD_REACTORS
330
24
102
}
330
24
100
AcDbVisualStyle
  2
Wireframe
 70
     5
 71
     0
 72
     2
 73
     0
 90
        0
 40
-0.6
 41
-30.0
 62
     5
 63
     7
421
 16777215
 74
     1
 91
        4
 64
     7
 65
   257
 75
     1
175
     1
 42
1.0
 92
        0
 66
   257
 43
1.0
 76
     1
 77
     6
 78
     2
 67
     7
 79
     3
170
     0
171
     0
290
     0
174
     0
 93
        1
 44
0.0
173
     0
291
     0
 45
0.0
1001
ACAD
1000
AcDbSavedByObjectVersion
1070
     0
  0
DICTIONARYVAR
  5
14B
102
{ACAD_REACTORS
330
145
102
}
330
145
100
DictionaryVariables
280
     0
  1
1:1
  0
DICTIONARYVAR
  5
147
102
{ACAD_REACTORS
330
145
102
}
330
145
100
DictionaryVariables
280
     0
  1
STANDARD
  0
DICTIONARYVAR
  5
146
102
{ACAD_REACTORS
330
145
102
}
330
145
100
DictionaryVariables
280
     0
  1
STANDARD
  0
DICTIONARYVAR
  5
148
102
{ACAD_REACTORS
330
145
102
}
330
145
100
DictionaryVariables
280
     0
  1

  0
DICTIONARYVAR
  5
149
102
{ACAD_REACTORS
330
145
102
}
330
145
100
DictionaryVariables
280
     0
  1

  0
DICTIONARYVAR
  5
14D
102
{ACAD_REACTORS
330
145
102
}
330
145
100
DictionaryVariables
280
     0
  1
1
  0
DICTIONARYVAR
  5
14E
102
{ACAD_REACTORS
330
145
102
}
330
145
100
DictionaryVariables
280
     0
  1
15
  0
DICTIONARYVAR
  5
14C
102
{ACAD_REACTORS
330
145
102
}
330
145
100
DictionaryVariables
280
     0
  1
0
  0
DICTIONARYVAR
  5
14A
102
{ACAD_REACTORS
330
145
102
}
330
145
100
DictionaryVariables
280
     0
  1
0
  0
DICTIONARY
  5
158
102
{ACAD_REACTORS
330
156
102
}
330
156
100
AcDbDictionary
281
     1
  0
DICTIONARY
  5
157
102
{ACAD_REACTORS
330
156
102
}
330
156
100
AcDbDictionary
281
     1
  3
2130585352
350
151
  3
2130585360
350
152
  3
2130585368
350
153
  3
2130585376
350
154
  3
2130585384
350
155
  0
DICTIONARY
  5
15
330
14
100
AcDbDictionary
280
     1
281
     1
  0
DICTIONARY
  5
3A
330
39
100
AcDbDictionary
280
     1
281
     1
  3
ACAD_ROUNDTRIP_2008_TABLESTYLE_CELLSTYLEMAP
360
14F
  0
DICTIONARY
  5
159
330
23
100
AcDbDictionary
280
     1
281
     1
  3
ACAD_XREC_ROUNDTRIP
360
15A
  0
DICTIONARY
  5
15B
330
3B
100
AcDbDictionary
280
     1
281
     1
  3
ACAD_XREC_ROUNDTRIP
360
15C
  0
DICTIONARY
  5
15D
330
3C
100
AcDbDictionary
280
     1
281
     1
  3
ACAD_XREC_ROUNDTRIP
360
15E
  0
XRECORD
  5
151
102
{ACAD_REACTORS
330
157
102
}
330
157
100
AcDbXrecord
280
     1
  1
AcDb_Thumbnail_Schema
102
{ATTRRECORD
341
152
  2
AcDbDs::TreatedAsObjectData
280
     1
291
     1
102
ATTRRECORD}
102
{ATTRRECORD
341
153
  2
AcDbDs::Legacy
280
     1
291
     1
102
ATTRRECORD}
  2
AcDbDs::ID
280
    10
 91
        8
102
{ATTRRECORD
341
154
  2
AcDs:Indexable
280
     1
291
     1
102
ATTRRECORD}
102
{ATTRRECORD
341
155
  2
AcDbDs::HandleAttribute
280
     7
282
     1
102
ATTRRECORD}
  2
Thumbnail_Data
280
    15
 91
        0
  0
XRECORD
  5
152
102
{ACAD_REACTORS
330
157
102
}
330
157
100
AcDbXrecord
280
     1
  1
AcDbDs::TreatedAsObjectDataSchema
  2
AcDbDs::TreatedAsObjectData
280
     1
 91
        0
  0
XRECORD
  5
153
102
{ACAD_REACTORS
330
157
102
}
330
157
100
AcDbXrecord
280
     1
  1
AcDbDs::LegacySchema
  2
AcDbDs::Legacy
280
     1
 91
        0
  0
XRECORD
  5
154
102
{ACAD_REACTORS
330
157
102
}
330
157
100
AcDbXrecord
280
     1
  1
AcDbDs::IndexedPropertySchema
  2
AcDs:Indexable
280
     1
 91
        0
  0
XRECORD
  5
155
102
{ACAD_REACTORS
330
157
102
}
330
157
100
AcDbXrecord
280
     1
  1
AcDbDs::HandleAttributeSchema
  2
AcDbDs::HandleAttribute
280
     7
 91
        1
284
     1
  0
CELLSTYLEMAP
  5
14F
102
{ACAD_REACTORS
330
3A
102
}
330
3A
100
AcDbCellStyleMap
 90
        3
300
CELLSTYLE
  1
TABLEFORMAT_BEGIN
 90
        5
170
     1
 91
        0
 92
    32768
 62
   257
 93
        1
300
CONTENTFORMAT
  1
CONTENTFORMAT_BEGIN
 90
        0
 91
        0
 92
        4
 93
        0
300

 40
0.0
140
1.0
 94
        5
 62
     0
340
1A
144
0.25
309
CONTENTFORMAT_END
171
     1
301
MARGIN
  1
CELLMARGIN_BEGIN
 40
0.06
 40
0.06
 40
0.06
 40
0.06
 40
0.18
 40
0.18
309
CELLMARGIN_END
 94
        6
 95
        1
302
GRIDFORMAT
  1
GRIDFORMAT_BEGIN
 90
        0
 91
        1
 62
     0
 92
       -2
340
0
 93
        0
 40
0.045
309
GRIDFORMAT_END
 95
        2
302
GRIDFORMAT
  1
GRIDFORMAT_BEGIN
 90
        0
 91
        1
 62
     0
 92
       -2
340
0
 93
        0
 40
0.045
309
GRIDFORMAT_END
 95
        4
302
GRIDFORMAT
  1
GRIDFORMAT_BEGIN
 90
        0
 91
        1
 62
     0
 92
       -2
340
0
 93
        0
 40
0.045
309
GRIDFORMAT_END
 95
        8
302
GRIDFORMAT
  1
GRIDFORMAT_BEGIN
 90
        0
 91
        1
 62
     0
 92
       -2
340
0
 93
        0
 40
0.045
309
GRIDFORMAT_END
 95
       16
302
GRIDFORMAT
  1
GRIDFORMAT_BEGIN
 90
        0
 91
        1
 62
     0
 92
       -2
340
0
 93
        0
 40
0.045
309
GRIDFORMAT_END
 95
       32
302
GRIDFORMAT
  1
GRIDFORMAT_BEGIN
 90
        0
 91
        1
 62
     0
 92
       -2
340
0
 93
        0
 40
0.045
309
GRIDFORMAT_END
309
TABLEFORMAT_END
  1
CELLSTYLE_BEGIN
 90
        1
 91
        1
300
_TITLE
309
CELLSTYLE_END
300
CELLSTYLE
  1
TABLEFORMAT_BEGIN
 90
        5
170
     1
 91
        0
 92
        0
 62
   257
 93
        1
300
CONTENTFORMAT
  1
CONTENTFORMAT_BEGIN
 90
        0
 91
        0
 92
        4
 93
        0
300

 40
0.0
140
1.0
 94
        5
 62
     0
340
1A
144
0.18
309
CONTENTFORMAT_END
171
     1
301
MARGIN
  1
CELLMARGIN_BEGIN
 40
0.06
 40
0.06
 40
0.06
 40
0.06
 40
0.18
 40
0.18
309
CELLMARGIN_END
 94
        6
 95
        1
302
GRIDFORMAT
  1
GRIDFORMAT_BEGIN
 90
        0
 91
        1
 62
     0
 92
       -2
340
0
 93
        0
 40
0.045
309
GRIDFORMAT_END
 95
        2
302
GRIDFORMAT
  1
GRIDFORMAT_BEGIN
 90
        0
 91
        1
 62
     0
 92
       -2
340
0
 93
        0
 40
0.045
309
GRIDFORMAT_END
 95
        4
302
GRIDFORMAT
  1
GRIDFORMAT_BEGIN
 90
        0
 91
        1
 62
     0
 92
       -2
340
0
 93
        0
 40
0.045
309
GRIDFORMAT_END
 95
        8
302
GRIDFORMAT
  1
GRIDFORMAT_BEGIN
 90
        0
 91
        1
 62
     0
 92
       -2
340
0
 93
        0
 40
0.045
309
GRIDFORMAT_END
 95
       16
302
GRIDFORMAT
  1
GRIDFORMAT_BEGIN
 90
        0
 91
        1
 62
     0
 92
       -2
340
0
 93
        0
 40
0.045
309
GRIDFORMAT_END
 95
       32
302
GRIDFORMAT
  1
GRIDFORMAT_BEGIN
 90
        0
 91
        1
 62
     0
 92
       -2
340
0
 93
        0
 40
0.045
309
GRIDFORMAT_END
309
TABLEFORMAT_END
  1
CELLSTYLE_BEGIN
 90
        2
 91
        1
300
_HEADER
309
CELLSTYLE_END
300
CELLSTYLE
  1
TABLEFORMAT_BEGIN
 90
        5
170
     1
 91
        0
 92
        0
 62
   257
 93
        1
300
CONTENTFORMAT
  1
CONTENTFORMAT_BEGIN
 90
        0
 91
        0
 92
        4
 93
        0
300

 40
0.0
140
1.0
 94
        2
 62
     0
340
1A
144
0.18
309
CONTENTFORMAT_END
171
     1
301
MARGIN
  1
CELLMARGIN_BEGIN
 40
0.06
 40
0.06
 40
0.06
 40
0.06
 40
0.18
 40
0.18
309
CELLMARGIN_END
 94
        6
 95
        1
302
GRIDFORMAT
  1
GRIDFORMAT_BEGIN
 90
        0
 91
        1
 62
     0
 92
       -2
340
0
 93
        0
 40
0.045
309
GRIDFORMAT_END
 95
        2
302
GRIDFORMAT
  1
GRIDFORMAT_BEGIN
 90
        0
 91
        1
 62
     0
 92
       -2
340
0
 93
        0
 40
0.045
309
GRIDFORMAT_END
 95
        4
302
GRIDFORMAT
  1
GRIDFORMAT_BEGIN
 90
        0
 91
        1
 62
     0
 92
       -2
340
0
 93
        0
 40
0.045
309
GRIDFORMAT_END
 95
        8
302
GRIDFORMAT
  1
GRIDFORMAT_BEGIN
 90
        0
 91
        1
 62
     0
 92
       -2
340
0
 93
        0
 40
0.045
309
GRIDFORMAT_END
 95
       16
302
GRIDFORMAT
  1
GRIDFORMAT_BEGIN
 90
        0
 91
        1
 62
     0
 92
       -2
340
0
 93
        0
 40
0.045
309
GRIDFORMAT_END
 95
       32
302
GRIDFORMAT
  1
GRIDFORMAT_BEGIN
 90
        0
 91
        1
 62
     0
 92
       -2
340
0
 93
        0
 40
0.045
309
GRIDFORMAT_END
309
TABLEFORMAT_END
  1
CELLSTYLE_BEGIN
 90
        3
 91
        2
300
_DATA
309
CELLSTYLE_END
  0
XRECORD
  5
15A
102
{ACAD_REACTORS
330
159
102
}
330
159
100
AcDbXrecord
280
     1
102
RTVSPost2010Prop28
280
     1
102
RTVSPost2010PropOp28
 70
     1
102
RTVSPost2010Prop29
280
     1
102
RTVSPost2010PropOp29
 70
     1
102
RTVSPost2010Prop30
280
     0
102
RTVSPost2010PropOp30
 70
     1
102
RTVSPost2010Prop31
280
     0
102
RTVSPost2010PropOp31
 70
     1
102
RTVSPost2010Prop32
280
     0
102
RTVSPost2010PropOp32
 70
     1
102
RTVSPost2010Prop33
280
     0
102
RTVSPost2010PropOp33
 70
     1
102
RTVSPost2010Prop34
280
     0
102
RTVSPost2010PropOp34
 70
     1
102
RTVSPost2010Prop35
280
     0
102
RTVSPost2010PropOp35
 70
     1
102
RTVSPost2010Prop36
280
     0
102
RTVSPost2010PropOp36
 70
     1
102
RTVSPost2010Prop37
 90
       50
102
RTVSPost2010PropOp37
 70
     1
102
RTVSPost2010Prop38
140
0.0
102
RTVSPost2010PropOp38
 70
     1
102
RTVSPost2010Prop39
140
1.0
102
RTVSPost2010PropOp39
 70
     1
102
RTVSPost2010Prop40
 90
        0
102
RTVSPost2010PropOp40
 70
     1
102
RTVSPost2010Prop41ColorIndex
 90
       18
102
RTVSPost2010Prop41ColorRGB
 90
        0
102
RTVSPost2010PropOp41
 70
     1
102
RTVSPost2010Prop42
 90
       50
102
RTVSPost2010PropOp42
 70
     1
102
RTVSPost2010Prop43
 90
        3
102
RTVSPost2010PropOp43
 70
     1
102
RTVSPost2010Prop44ColorIndex
 90
        5
102
RTVSPost2010Prop44ColorRGB
 90
      255
102
RTVSPost2010PropOp44
 70
     1
102
RTVSPost2010Prop45
280
     0
102
RTVSPost2010PropOp45
 70
     1
102
RTVSPost2010Prop46
 90
       50
102
RTVSPost2010PropOp46
 70
     1
102
RTVSPost2010Prop47
 90
       50
102
RTVSPost2010PropOp47
 70
     1
102
RTVSPost2010Prop48
 90
       50
102
RTVSPost2010PropOp48
 70
     1
102
RTVSPost2010Prop49
280
     0
102
RTVSPost2010PropOp49
 70
     1
102
RTVSPost2010Prop50
 90
       50
102
RTVSPost2010PropOp50
 70
     1
102
RTVSPost2010Prop51ColorIndex
 90
      256
102
RTVSPost2010Prop51ColorRGB
 90
-16777216
102
RTVSPost2010PropOp51
 70
     0
102
RTVSPost2010Prop52
140
1.0
102
RTVSPost2010PropOp52
 70
     0
102
RTVSPost2010Prop53
 90
        2
102
RTVSPost2010PropOp53
 70
     1
102
RTVSPost2010Prop54
  1
strokes_ogs.tif
102
RTVSPost2010PropOp54
 70
     1
102
RTVSPost2010Prop55
280
     0
102
RTVSPost2010PropOp55
 70
     1
102
RTVSPost2010Prop56
140
1.0
102
RTVSPost2010PropOp56
 70
     1
102
RTVSPost2010Prop57
140
1.0
102
RTVSPost2010PropOp57
 70
     1
102
RTVSPropertyOp0
 70
     1
102
RTVSPropertyOp1
 70
     1
102
RTVSPropertyOp2
 70
     1
102
RTVSPropertyOp3
 70
     1
102
RTVSPropertyOp4
 70
     1
102
RTVSPropertyOp5
 70
     1
102
RTVSPropertyOp6
 70
     1
102
RTVSPropertyOp7
 70
     1
102
RTVSPropertyOp8
 70
     1
102
RTVSPropertyOp9
 70
     1
102
RTVSPropertyOp10
 70
     1
102
RTVSPropertyOp11
 70
     1
102
RTVSPropertyOp12
 70
     1
102
RTVSPropertyOp13
 70
     1
102
RTVSPropertyOp14
 70
     1
102
RTVSPropertyOp15
 70
     1
102
RTVSPropertyOp16
 70
     1
102
RTVSPropertyOp17
 70
     1
102
RTVSPropertyOp18
 70
     1
102
RTVSPropertyOp19
 70
     1
102
RTVSPropertyOp20
 70
     1
102
RTVSPropertyOp21
 70
     1
102
RTVSPropertyOp22
 70
     1
102
RTVSPropertyOp23
 70
     1
102
RTVSPropertyOp24
 70
     1
102
RTVSPropertyOp25
 70
     1
102
RTVSPropertyOp26
 70
     1
102
RTVSPropertyOp27
 70
     1
102
RTVSPropertyOp28
 70
     1
102
RTVSPropertyOp29
 70
     1
102
RTVSPropertyOp30
 70
     1
102
RTVSPropertyOp31
 70
     1
102
RTVSPropertyOp32
 70
     1
102
RTVSPropertyOp33
 70
     1
102
RTVSPropertyOp34
 70
     1
102
RTVSPropertyOp35
 70
     1
102
RTVSPropertyOp36
 70
     1
102
RTVSPropertyOp37
 70
     1
102
RTVSPropertyOp38
 70
     1
102
RTVSPropertyOp39
 70
     1
102
RTVSPropertyOp40
 70
     1
102
RTVSPropertyOp41
 70
     1
102
RTVSPropertyOp42
 70
     1
102
RTVSPropertyOp43
 70
     1
102
RTVSPropertyOp44
 70
     1
102
RTVSPropertyOp45
 70
     1
102
RTVSPropertyOp46
 70
     1
102
RTVSPropertyOp47
 70
     1
102
RTVSPropertyOp48
 70
     1
102
RTVSPropertyOp49
 70
     1
102
RTVSPropertyOp50
 70
     1
102
RTVSPropertyOp51
 70
     0
102
RTVSPropertyOp52
 70
     0
102
RTVSPropertyOp53
 70
     1
102
RTVSPropertyOp54
 70
     1
102
RTVSPropertyOp55
 70
     1
102
RTVSPropertyOp56
 70
     1
102
RTVSPropertyOp57
 70
     1
102
RTVSPropertyOp58
 70
     1
102
RTVSPropertyOp59
 70
     1
102
RTVSPropertyOp60
 70
     1
102
RTVSPropertyOp61
 70
     1
102
RTVSPropertyOp62
 70
     1
  0
XRECORD
  5
15C
102
{ACAD_REACTORS
330
15B
102
}
330
15B
100
AcDbXrecord
280
     1
102
RTVSPost2010Prop28
280
     0
102
RTVSPost2010PropOp28
 70
     1
102
RTVSPost2010Prop29
280
     1
102
RTVSPost2010PropOp29
 70
     1
102
RTVSPost2010Prop30
280
     1
102
RTVSPost2010PropOp30
 70
     1
102
RTVSPost2010Prop31
280
     0
102
RTVSPost2010PropOp31
 70
     1
102
RTVSPost2010Prop32
280
     0
102
RTVSPost2010PropOp32
 70
     1
102
RTVSPost2010Prop33
280
     0
102
RTVSPost2010PropOp33
 70
     1
102
RTVSPost2010Prop34
280
     0
102
RTVSPost2010PropOp34
 70
     1
102
RTVSPost2010Prop35
280
     0
102
RTVSPost2010PropOp35
 70
     1
102
RTVSPost2010Prop36
280
     0
102
RTVSPost2010PropOp36
 70
     1
102
RTVSPost2010Prop37
 90
       50
102
RTVSPost2010PropOp37
 70
     1
102
RTVSPost2010Prop38
140
0.0
102
RTVSPost2010PropOp38
 70
     1
102
RTVSPost2010Prop39
140
1.0
102
RTVSPost2010PropOp39
 70
     1
102
RTVSPost2010Prop40
 90
        0
102
RTVSPost2010PropOp40
 70
     1
102
RTVSPost2010Prop41ColorIndex
 90
       18
102
RTVSPost2010Prop41ColorRGB
 90
        0
102
RTVSPost2010PropOp41
 70
     1
102
RTVSPost2010Prop42
 90
       50
102
RTVSPost2010PropOp42
 70
     1
102
RTVSPost2010Prop43
 90
        3
102
RTVSPost2010PropOp43
 70
     1
102
RTVSPost2010Prop44ColorIndex
 90
        5
102
RTVSPost2010Prop44ColorRGB
 90
      255
102
RTVSPost2010PropOp44
 70
     1
102
RTVSPost2010Prop45
280
     0
102
RTVSPost2010PropOp45
 70
     1
102
RTVSPost2010Prop46
 90
       50
102
RTVSPost2010PropOp46
 70
     1
102
RTVSPost2010Prop47
 90
       50
102
RTVSPost2010PropOp47
 70
     1
102
RTVSPost2010Prop48
 90
       50
102
RTVSPost2010PropOp48
 70
     1
102
RTVSPost2010Prop49
280
     0
102
RTVSPost2010PropOp49
 70
     1
102
RTVSPost2010Prop50
 90
       50
102
RTVSPost2010PropOp50
 70
     1
102
RTVSPost2010Prop51ColorIndex
 90
      256
102
RTVSPost2010Prop51ColorRGB
 90
-16777216
102
RTVSPost2010PropOp51
 70
     0
102
RTVSPost2010Prop52
140
1.0
102
RTVSPost2010PropOp52
 70
     0
102
RTVSPost2010Prop53
 90
        2
102
RTVSPost2010PropOp53
 70
     1
102
RTVSPost2010Prop54
  1
strokes_ogs.tif
102
RTVSPost2010PropOp54
 70
     1
102
RTVSPost2010Prop55
280
     0
102
RTVSPost2010PropOp55
 70
     1
102
RTVSPost2010Prop56
140
1.0
102
RTVSPost2010PropOp56
 70
     1
102
RTVSPost2010Prop57
140
1.0
102
RTVSPost2010PropOp57
 70
     1
102
RTVSPropertyOp0
 70
     1
102
RTVSPropertyOp1
 70
     1
102
RTVSPropertyOp2
 70
     1
102
RTVSPropertyOp3
 70
     1
102
RTVSPropertyOp4
 70
     1
102
RTVSPropertyOp5
 70
     1
102
RTVSPropertyOp6
 70
     1
102
RTVSPropertyOp7
 70
     1
102
RTVSPropertyOp8
 70
     1
102
RTVSPropertyOp9
 70
     1
102
RTVSPropertyOp10
 70
     1
102
RTVSPropertyOp11
 70
     1
102
RTVSPropertyOp12
 70
     1
102
RTVSPropertyOp13
 70
     1
102
RTVSPropertyOp14
 70
     1
102
RTVSPropertyOp15
 70
     1
102
RTVSPropertyOp16
 70
     1
102
RTVSPropertyOp17
 70
     1
102
RTVSPropertyOp18
 70
     1
102
RTVSPropertyOp19
 70
     1
102
RTVSPropertyOp20
 70
     1
102
RTVSPropertyOp21
 70
     1
102
RTVSPropertyOp22
 70
     1
102
RTVSPropertyOp23
 70
     1
102
RTVSPropertyOp24
 70
     1
102
RTVSPropertyOp25
 70
     1
102
RTVSPropertyOp26
 70
     1
102
RTVSPropertyOp27
 70
     1
102
RTVSPropertyOp28
 70
     1
102
RTVSPropertyOp29
 70
     1
102
RTVSPropertyOp30
 70
     1
102
RTVSPropertyOp31
 70
     1
102
RTVSPropertyOp32
 70
     1
102
RTVSPropertyOp33
 70
     1
102
RTVSPropertyOp34
 70
     1
102
RTVSPropertyOp35
 70
     1
102
RTVSPropertyOp36
 70
     1
102
RTVSPropertyOp37
 70
     1
102
RTVSPropertyOp38
 70
     1
102
RTVSPropertyOp39
 70
     1
102
RTVSPropertyOp40
 70
     1
102
RTVSPropertyOp41
 70
     1
102
RTVSPropertyOp42
 70
     1
102
RTVSPropertyOp43
 70
     1
102
RTVSPropertyOp44
 70
     1
102
RTVSPropertyOp45
 70
     1
102
RTVSPropertyOp46
 70
     1
102
RTVSPropertyOp47
 70
     1
102
RTVSPropertyOp48
 70
     1
102
RTVSPropertyOp49
 70
     1
102
RTVSPropertyOp50
 70
     1
102
RTVSPropertyOp51
 70
     0
102
RTVSPropertyOp52
 70
     0
102
RTVSPropertyOp53
 70
     1
102
RTVSPropertyOp54
 70
     1
102
RTVSPropertyOp55
 70
     1
102
RTVSPropertyOp56
 70
     1
102
RTVSPropertyOp57
 70
     1
102
RTVSPropertyOp58
 70
     1
102
RTVSPropertyOp59
 70
     1
102
RTVSPropertyOp60
 70
     1
102
RTVSPropertyOp61
 70
     1
102
RTVSPropertyOp62
 70
     1
  0
XRECORD
  5
15E
102
{ACAD_REACTORS
330
15D
102
}
330
15D
100
AcDbXrecord
280
     1
102
RTVSPost2010Prop28
280
     0
102
RTVSPost2010PropOp28
 70
     1
102
RTVSPost2010Prop29
280
     1
102
RTVSPost2010PropOp29
 70
     1
102
RTVSPost2010Prop30
280
     1
102
RTVSPost2010PropOp30
 70
     1
102
RTVSPost2010Prop31
280
     0
102
RTVSPost2010PropOp31
 70
     1
102
RTVSPost2010Prop32
280
     0
102
RTVSPost2010PropOp32
 70
     1
102
RTVSPost2010Prop33
280
     0
102
RTVSPost2010PropOp33
 70
     1
102
RTVSPost2010Prop34
280
     0
102
RTVSPost2010PropOp34
 70
     1
102
RTVSPost2010Prop35
280
     0
102
RTVSPost2010PropOp35
 70
     1
102
RTVSPost2010Prop36
280
     0
102
RTVSPost2010PropOp36
 70
     1
102
RTVSPost2010Prop37
 90
       50
102
RTVSPost2010PropOp37
 70
     1
102
RTVSPost2010Prop38
140
0.0
102
RTVSPost2010PropOp38
 70
     1
102
RTVSPost2010Prop39
140
1.0
102
RTVSPost2010PropOp39
 70
     1
102
RTVSPost2010Prop40
 90
        0
102
RTVSPost2010PropOp40
 70
     1
102
RTVSPost2010Prop41ColorIndex
 90
       18
102
RTVSPost2010Prop41ColorRGB
 90
        0
102
RTVSPost2010PropOp41
 70
     1
102
RTVSPost2010Prop42
 90
       50
102
RTVSPost2010PropOp42
 70
     1
102
RTVSPost2010Prop43
 90
        3
102
RTVSPost2010PropOp43
 70
     1
102
RTVSPost2010Prop44ColorIndex
 90
        5
102
RTVSPost2010Prop44ColorRGB
 90
      255
102
RTVSPost2010PropOp44
 70
     1
102
RTVSPost2010Prop45
280
     0
102
RTVSPost2010PropOp45
 70
     1
102
RTVSPost2010Prop46
 90
       50
102
RTVSPost2010PropOp46
 70
     1
102
RTVSPost2010Prop47
 90
       50
102
RTVSPost2010PropOp47
 70
     1
102
RTVSPost2010Prop48
 90
       50
102
RTVSPost2010PropOp48
 70
     1
102
RTVSPost2010Prop49
280
     0
102
RTVSPost2010PropOp49
 70
     1
102
RTVSPost2010Prop50
 90
       50
102
RTVSPost2010PropOp50
 70
     1
102
RTVSPost2010Prop51ColorIndex
 90
      256
102
RTVSPost2010Prop51ColorRGB
 90
-16777216
102
RTVSPost2010PropOp51
 70
     0
102
RTVSPost2010Prop52
140
1.0
102
RTVSPost2010PropOp52
 70
     0
102
RTVSPost2010Prop53
 90
        2
102
RTVSPost2010PropOp53
 70
     1
102
RTVSPost2010Prop54
  1
strokes_ogs.tif
102
RTVSPost2010PropOp54
 70
     1
102
RTVSPost2010Prop55
280
     0
102
RTVSPost2010PropOp55
 70
     1
102
RTVSPost2010Prop56
140
1.0
102
RTVSPost2010PropOp56
 70
     1
102
RTVSPost2010Prop57
140
1.0
102
RTVSPost2010PropOp57
 70
     1
102
RTVSPropertyOp0
 70
     1
102
RTVSPropertyOp1
 70
     1
102
RTVSPropertyOp2
 70
     1
102
RTVSPropertyOp3
 70
     1
102
RTVSPropertyOp4
 70
     1
102
RTVSPropertyOp5
 70
     1
102
RTVSPropertyOp6
 70
     1
102
RTVSPropertyOp7
 70
     1
102
RTVSPropertyOp8
 70
     1
102
RTVSPropertyOp9
 70
     1
102
RTVSPropertyOp10
 70
     1
102
RTVSPropertyOp11
 70
     1
102
RTVSPropertyOp12
 70
     1
102
RTVSPropertyOp13
 70
     1
102
RTVSPropertyOp14
 70
     1
102
RTVSPropertyOp15
 70
     1
102
RTVSPropertyOp16
 70
     1
102
RTVSPropertyOp17
 70
     1
102
RTVSPropertyOp18
 70
     1
102
RTVSPropertyOp19
 70
     1
102
RTVSPropertyOp20
 70
     1
102
RTVSPropertyOp21
 70
     1
102
RTVSPropertyOp22
 70
     1
102
RTVSPropertyOp23
 70
     1
102
RTVSPropertyOp24
 70
     1
102
RTVSPropertyOp25
 70
     1
102
RTVSPropertyOp26
 70
     1
102
RTVSPropertyOp27
 70
     1
102
RTVSPropertyOp28
 70
     1
102
RTVSPropertyOp29
 70
     1
102
RTVSPropertyOp30
 70
     1
102
RTVSPropertyOp31
 70
     1
102
RTVSPropertyOp32
 70
     1
102
RTVSPropertyOp33
 70
     1
102
RTVSPropertyOp34
 70
     1
102
RTVSPropertyOp35
 70
     1
102
RTVSPropertyOp36
 70
     1
102
RTVSPropertyOp37
 70
     1
102
RTVSPropertyOp38
 70
     1
102
RTVSPropertyOp39
 70
     1
102
RTVSPropertyOp40
 70
     1
102
RTVSPropertyOp41
 70
     1
102
RTVSPropertyOp42
 70
     1
102
RTVSPropertyOp43
 70
     1
102
RTVSPropertyOp44
 70
     1
102
RTVSPropertyOp45
 70
     1
102
RTVSPropertyOp46
 70
     1
102
RTVSPropertyOp47
 70
     1
102
RTVSPropertyOp48
 70
     1
102
RTVSPropertyOp49
 70
     1
102
RTVSPropertyOp50
 70
     1
102
RTVSPropertyOp51
 70
     0
102
RTVSPropertyOp52
 70
     0
102
RTVSPropertyOp53
 70
     1
102
RTVSPropertyOp54
 70
     1
102
RTVSPropertyOp55
 70
     1
102
RTVSPropertyOp56
 70
     1
102
RTVSPropertyOp57
 70
     1
102
RTVSPropertyOp58
 70
     1
102
RTVSPropertyOp59
 70
     1
102
RTVSPropertyOp60
 70
     1
102
RTVSPropertyOp61
 70
     1
102
RTVSPropertyOp62
 70
     1
  0
ENDSEC
  0
EOF
