  0
SECTION
  2
HEADER
  9
$ACADVER
  1
AC1009
  9
$INSBASE
 10
120.2578405227143
 20
378.4930879043871
 30
0.0
  9
$EXTMIN
 10
-18.647640089236781
 20
12.68712054396388
 30
0.0
  9
$EXTMAX
 10
71.079418158686593
 20
133.47629082644929
 30
0.0
  9
$LIMMIN
 10
0.0
 20
0.0
  9
$LIMMAX
 10
420.0
 20
297.0
  9
$ORTHOMODE
 70
     0
  9
$REGENMODE
 70
     1
  9
$FILLMODE
 70
     1
  9
$QTEXTMODE
 70
     0
  9
$MIRRTEXT
 70
     1
  9
$DRAGMODE
 70
     2
  9
$LTSCALE
 40
7.0
  9
$OSMODE
 70
   167
  9
$ATTMODE
 70
     1
  9
$TEXTSIZE
 40
5.25
  9
$TRACEWID
 40
0.05
  9
$TEXTSTYLE
  7
ISO
  9
$CLAYER
  8
0
  9
$CELTYPE
  6
BYLAYER
  9
$CECOLOR
 62
   256
  9
$DIMSCALE
 40
0.0
  9
$DIMASZ
 40
3.0
  9
$DIMEXO
 40
1.5
  9
$DIMDLI
 40
10.0
  9
$DIMRND
 40
0.0
  9
$DIMDLE
 40
0.0
  9
$DIMEXE
 40
1.5
  9
$DIMTP
 40
0.0
  9
$DIMTM
 40
0.0
  9
$DIMTXT
 40
3.0
  9
$DIMCEN
 40
-5.0
  9
$DIMTSZ
 40
0.0
  9
$DIMTOL
 70
     0
  9
$DIMLIM
 70
     0
  9
$DIMTIH
 70
     0
  9
$DIMTOH
 70
     1
  9
$DIMSE1
 70
     0
  9
$DIMSE2
 70
     0
  9
$DIMTAD
 70
     1
  9
$DIMZIN
 70
     8
  9
$DIMBLK
  1

  9
$DIMASO
 70
     1
  9
$DIMSHO
 70
     1
  9
$DIMPOST
  1

  9
$DIMAPOST
  1

  9
$DIMALT
 70
     0
  9
$DIMALTD
 70
     0
  9
$DIMALTF
 40
25.399999999999999
  9
$DIMLFAC
 40
-1.0
  9
$DIMTOFL
 70
     1
  9
$DIMTVP
 40
0.0
  9
$DIMTIX
 70
     0
  9
$DIMSOXD
 70
     0
  9
$DIMSAH
 70
     0
  9
$DIMBLK1
  1

  9
$DIMBLK2
  1

  9
$DIMSTYLE
  2
MASKIN
  9
$DIMCLRD
 70
   256
  9
$DIMCLRE
 70
   256
  9
$DIMCLRT
 70
     2
  9
$DIMTFAC
 40
1.0
  9
$DIMGAP
 40
1.0
  9
$LUNITS
 70
     2
  9
$LUPREC
 70
     2
  9
$SKETCHINC
 40
0.1
  9
$FILLETRAD
 40
0.0
  9
$AUNITS
 70
     0
  9
$AUPREC
 70
     2
  9
$MENU
  1
ACAD
  9
$ELEVATION
 40
0.0
  9
$PELEVATION
 40
0.0
  9
$THICKNESS
 40
0.0
  9
$LIMCHECK
 70
     0
  9
$BLIPMODE
 70
     0
  9
$CHAMFERA
 40
0.0
  9
$CHAMFERB
 40
0.0
  9
$SKPOLY
 70
     0
  9
$TDCREATE
 40
2450345.5798625001
  9
$TDUPDATE
 40
2454887.3875615401
  9
$TDINDWG
 40
0.4714054861
  9
$TDUSRTIMER
 40
0.4714054861
  9
$USRTIMER
 70
     1
  9
$ANGBASE
 50
0.0
  9
$ANGDIR
 70
     0
  9
$PDMODE
 70
     3
  9
$PDSIZE
 40
0.0
  9
$PLINEWID
 40
0.0
  9
$COORDS
 70
     1
  9
$SPLFRAME
 70
     0
  9
$SPLINETYPE
 70
     6
  9
$SPLINESEGS
 70
     8
  9
$ATTDIA
 70
     0
  9
$ATTREQ
 70
     1
  9
$HANDLING
 70
     1
  9
$HANDSEED
  5
1487
  9
$SURFTAB1
 70
     6
  9
$SURFTAB2
 70
     6
  9
$SURFTYPE
 70
     6
  9
$SURFU
 70
     6
  9
$SURFV
 70
     6
  9
$UCSNAME
  2

  9
$UCSORG
 10
0.0
 20
0.0
 30
0.0
  9
$UCSXDIR
 10
1.0
 20
0.0
 30
0.0
  9
$UCSYDIR
 10
0.0
 20
1.0
 30
0.0
  9
$PUCSNAME
  2

  9
$PUCSORG
 10
0.0
 20
0.0
 30
0.0
  9
$PUCSXDIR
 10
1.0
 20
0.0
 30
0.0
  9
$PUCSYDIR
 10
0.0
 20
1.0
 30
0.0
  9
$USERI1
 70
     0
  9
$USERI2
 70
     0
  9
$USERI3
 70
     0
  9
$USERI4
 70
     0
  9
$USERI5
 70
     0
  9
$USERR1
 40
0.0
  9
$USERR2
 40
0.0
  9
$USERR3
 40
0.0
  9
$USERR4
 40
0.0
  9
$USERR5
 40
0.0
  9
$WORLDVIEW
 70
     1
  9
$SHADEDGE
 70
     1
  9
$SHADEDIF
 70
    70
  9
$TILEMODE
 70
     1
  9
$MAXACTVP
 70
    16
  9
$PLIMCHECK
 70
     0
  9
$PEXTMIN
 10
1.049636599258096
 20
0.7996597240971078
 30
-0.0000000000112498
  9
$PEXTMAX
 10
9.4503627310769716
 20
7.200340082697454
 30
0.0000000000002956
  9
$PLIMMIN
 10
-0.2500002402958907
 20
-0.2499999962453767
  9
$PLIMMAX
 10
10.74999951940822
 20
8.2499997634587334
  9
$UNITMODE
 70
     0
  9
$VISRETAIN
 70
     1
  9
$PLINEGEN
 70
     0
  9
$PSLTSCALE
 70
     1
  0
ENDSEC
  0
SECTION
  2
TABLES
  0
TABLE
  2
VPORT
 70
     1
  0
VPORT
  2
*ACTIVE
 70
     0
 10
0.0
 20
0.0
 11
1.0
 21
1.0
 12
52.251363149460232
 22
73.078514702825942
 13
0.0
 23
0.0
 14
5.0
 24
5.0
 15
0.0
 25
0.0
 16
0.0
 26
0.0
 36
1.0
 17
0.0
 27
0.0
 37
0.0
 40
121.79094929676479
 41
1.995238095238095
 42
50.0
 43
0.0
 44
0.0
 50
0.0
 51
0.0
 71
     0
 72
   100
 73
     1
 74
     0
 75
     0
 76
     0
 77
     0
 78
     0
  0
ENDTAB
  0
TABLE
  2
LTYPE
 70
     8
  0
LTYPE
  2
CONTINUOUS
 70
     0
  3
Solid line
 72
    65
 73
     0
 40
0.0
  0
LTYPE
  2
BYGG-022629$0$NEWDOT
 70
     0
  3
____ . ____ . ____ . ____ . ____ . ____ . ____
 72
    65
 73
     4
 40
2.0
 49
1.0
 49
-0.5
 49
0.0
 49
-0.5
  0
LTYPE
  2
BYGG-022629$0$DASHDOT
 70
     0
  3
__ . __ . __ . __ . __ . __ . __ . __ . __ . __
 72
    65
 73
     4
 40
1.0
 49
0.5
 49
-0.25
 49
0.0
 49
-0.25
  0
LTYPE
  2
BYGG-022629$0$DASHED
 70
     0
  3
__ __ __ __ __ __ __ __ __ __ __ __ __ __ __
 72
    65
 73
     2
 40
0.75
 49
0.5
 49
-0.25
  0
LTYPE
  2
BYGG-022629$0$PHANTOM
 70
     0
  3
Phantom ______  __  __  ______  __  __  ______
 72
    65
 73
     6
 40
63.5
 49
31.75
 49
-6.3499999999999988
 49
6.3499999999999988
 49
-6.3499999999999988
 49
6.3499999999999988
 49
-6.3499999999999988
  0
LTYPE
  2
BYGG-014203$0$DASHDOT
 70
     0
  3
__ . __ . __ . __ . __ . __ . __ . __ . __ . __
 72
    65
 73
     4
 40
1.0
 49
0.5
 49
-0.25
 49
0.0
 49
-0.25
  0
LTYPE
  2
BYGG-014568$0$NEWDOT
 70
     0
  3
____ . ____ . ____ . ____ . ____ . ____ . ____
 72
    65
 73
     4
 40
2.0
 49
1.0
 49
-0.5
 49
0.0
 49
-0.5
  0
LTYPE
  2
BYGG-014568$0$DOT_CENTER
 70
     0
  3
Dot_Center
 72
    65
 73
     4
 40
2.0
 49
1.25
 49
-0.25
 49
0.25
 49
-0.25
  0
ENDTAB
  0
TABLE
  2
LAYER
 70
    67
  0
LAYER
  2
0
 70
     0
 62
     7
  6
CONTINUOUS
  0
LAYER
  2
SAPA_ARTIKELNR
 70
     0
 62
     4
  6
CONTINUOUS
  0
LAYER
  2
SAPA_LIGHT
 70
     1
 62
     1
  6
CONTINUOUS
  0
LAYER
  2
MATT
 70
     0
 62
     1
  6
CONTINUOUS
  0
LAYER
  2
SAPA_GLAS
 70
     0
 62
     4
  6
CONTINUOUS
  0
LAYER
  2
SAPA_ANSLUTNING
 70
     0
 62
     6
  6
CONTINUOUS
  0
LAYER
  2
SAPA_MATT
 70
     0
 62
     1
  6
CONTINUOUS
  0
LAYER
  2
SAPA_FOGBAND
 70
     0
 62
     2
  6
CONTINUOUS
  0
LAYER
  2
SAPA_PROFIL
 70
     0
 62
     7
  6
CONTINUOUS
  0
ENDTAB
  0
TABLE
  2
STYLE
 70
    10
  0
STYLE
  2
STANDARD
 70
     0
 40
0.0
 41
1.0
 50
0.0
 71
     0
 42
0.2
  3
txt
  4

  0
STYLE
  2
ISO
 70
     0
 40
0.0
 41
1.0
 50
0.0
 71
     0
 42
5.25
  3
isocp3.shx
  4

  0
STYLE
  2
BYGG-022629$0$STANDARD
 70
     0
 40
0.0
 41
1.0
 50
0.0
 71
     0
 42
0.2
  3
txt
  4

  0
STYLE
  2
BYGG-022629$0$ISO
 70
     0
 40
0.0
 41
1.0
 50
0.0
 71
     0
 42
3.5
  3
txt
  4

  0
STYLE
  2
BYGG-014203$0$STANDARD
 70
     0
 40
0.0
 41
1.0
 50
0.0
 71
     0
 42
0.2
  3
txt
  4

  0
STYLE
  2
BYGG-014203$0$ISO
 70
     0
 40
0.0
 41
1.0
 50
0.0
 71
     0
 42
3.5
  3
isocp3.shx
  4

  0
STYLE
  2
BYGG-022913$0$STANDARD
 70
     0
 40
0.0
 41
1.0
 50
0.0
 71
     0
 42
0.2
  3
txt
  4

  0
STYLE
  2
BYGG-022913$0$ISO
 70
     0
 40
0.0
 41
1.0
 50
0.0
 71
     0
 42
3.5
  3
iso
  4

  0
STYLE
  2
BYGG-014568$0$STANDARD
 70
     0
 40
0.0
 41
1.0
 50
0.0
 71
     0
 42
0.2
  3
txt
  4

  0
STYLE
  2
BYGG-014568$0$ISO
 70
     0
 40
0.0
 41
1.0
 50
0.0
 71
     0
 42
3.5
  3
isocp3.shx
  4

  0
ENDTAB
  0
TABLE
  2
VIEW
 70
     0
  0
ENDTAB
  0
TABLE
  2
UCS
 70
     0
  0
ENDTAB
  0
TABLE
  2
APPID
 70
    17
  0
APPID
  2
ACAD
 70
     0
  0
APPID
  2
ACAECLAYERSTANDARD
 70
     0
  0
APPID
  2
ACAD_MLEADERVER
 70
     0
  0
APPID
  2
ACAD_DSTYLE_DIMTEXT_FILL
 70
     0
  0
APPID
  2
ACAD_DSTYLE_DIMEXT_LENGTH
 70
     0
  0
APPID
  2
ACAD_DSTYLE_DIMEXT_ENABLED
 70
     0
  0
APPID
  2
ACAD_DSTYLE_DIM_LINETYPE
 70
     0
  0
APPID
  2
ACAD_DSTYLE_DIM_EXT1_LINETYPE
 70
     0
  0
APPID
  2
ACAD_DSTYLE_DIM_EXT2_LINETYPE
 70
     0
  0
APPID
  2
ACAD_DSTYLE_DIMJOGGED_JOGA
 70
     0
  0
APPID
  2
ACAD_DSTYLE_DIMARC_LENGTH_
 70
     0
  0
APPID
  2
ACAD_PSEXT
 70
     0
  0
APPID
  2
AMG_ARCHIVE11
 70
     0
  0
APPID
  2
ACAD_EXEMPT_FROM_CAD_STANDARDS
 70
     0
  0
APPID
  2
ACAD_DSTYLE_DIMJAG
 70
     0
  0
APPID
  2
ACAD_DSTYLE_DIMTALN
 70
     0
  0
APPID
  2
ACADANNOTATIVE
 70
     0
  0
ENDTAB
  0
TABLE
  2
DIMSTYLE
 70
     8
  0
DIMSTYLE
  2
MASKIN
 70
     0
  3

  4

  5

  6

  7

 40
0.0
 41
3.0
 42
1.5
 43
10.0
 44
1.5
 45
0.0
 46
0.0
 47
0.0
 48
0.0
140
3.0
141
-5.0
142
0.0
143
25.399999999999999
144
-1.0
145
0.0
146
1.0
147
1.0
 71
     0
 72
     0
 73
     0
 74
     1
 75
     0
 76
     0
 77
     1
 78
     8
170
     0
171
     0
172
     1
173
     0
174
     0
175
     0
176
   256
177
   256
178
     2
  0
DIMSTYLE
  2
BYGG-022629$0$STANDARD
 70
     0
  3

  4

  5

  6

  7

 40
1.0
 41
0.18
 42
0.0625
 43
0.38
 44
0.18
 45
0.0
 46
0.0
 47
0.0
 48
0.0
140
0.18
141
0.09
142
0.0
143
25.399999999999999
144
1.0
145
0.0
146
1.0
147
0.09
 71
     0
 72
     0
 73
     1
 74
     1
 75
     0
 76
     0
 77
     0
 78
     0
170
     0
171
     2
172
     0
173
     0
174
     0
175
     0
176
     0
177
     0
178
     0
  0
DIMSTYLE
  2
BYGG-022629$0$MASKIN
 70
     0
  3

  4

  5

  6

  7

 40
0.0
 41
3.0
 42
1.5
 43
10.0
 44
1.5
 45
0.0
 46
0.0
 47
0.0
 48
0.0
140
3.0
141
-5.0
142
0.0
143
25.399999999999999
144
-1.0
145
0.0
146
1.0
147
1.0
 71
     0
 72
     0
 73
     0
 74
     0
 75
     0
 76
     0
 77
     1
 78
     8
170
     0
171
     0
172
     1
173
     0
174
     0
175
     0
176
   256
177
   256
178
     2
  0
DIMSTYLE
  2
BYGG-014203$0$STANDARD
 70
     0
  3

  4

  5

  6

  7

 40
1.0
 41
0.18
 42
0.0625
 43
0.38
 44
0.18
 45
0.0
 46
0.0
 47
0.0
 48
0.0
140
0.18
141
0.09
142
0.0
143
25.399999999999999
144
1.0
145
0.0
146
1.0
147
0.09
 71
     0
 72
     0
 73
     1
 74
     1
 75
     0
 76
     0
 77
     0
 78
     0
170
     0
171
     2
172
     0
173
     0
174
     0
175
     0
176
     0
177
     0
178
     0
  0
DIMSTYLE
  2
BYGG-014203$0$MASKIN
 70
     0
  3

  4

  5

  6

  7

 40
0.0
 41
3.0
 42
1.5
 43
10.0
 44
1.5
 45
0.0
 46
0.0
 47
0.0
 48
0.0
140
3.0
141
-5.0
142
0.0
143
25.399999999999999
144
-1.0
145
0.0
146
1.0
147
1.0
 71
     0
 72
     0
 73
     0
 74
     0
 75
     0
 76
     0
 77
     1
 78
     8
170
     0
171
     0
172
     1
173
     0
174
     0
175
     0
176
   256
177
   256
178
   256
  0
DIMSTYLE
  2
BYGG-022913$0$STANDARD
 70
     0
  3

  4

  5

  6

  7

 40
1.0
 41
0.18
 42
0.0625
 43
0.38
 44
0.18
 45
0.0
 46
0.0
 47
0.0
 48
0.0
140
0.18
141
0.09
142
0.0
143
25.399999999999999
144
1.0
145
0.0
146
1.0
147
0.09
 71
     0
 72
     0
 73
     1
 74
     1
 75
     0
 76
     0
 77
     0
 78
     0
170
     0
171
     2
172
     0
173
     0
174
     0
175
     0
176
     0
177
     0
178
     0
  0
DIMSTYLE
  2
BYGG-014568$0$STANDARD
 70
     0
  3

  4

  5

  6

  7

 40
1.0
 41
0.18
 42
0.0625
 43
0.38
 44
0.18
 45
0.0
 46
0.0
 47
0.0
 48
0.0
140
0.18
141
0.09
142
0.0
143
25.399999999999999
144
1.0
145
0.0
146
1.0
147
0.09
 71
     0
 72
     0
 73
     1
 74
     1
 75
     0
 76
     0
 77
     0
 78
     0
170
     0
171
     2
172
     0
173
     0
174
     0
175
     0
176
     0
177
     0
178
     0
  0
DIMSTYLE
  2
BYGG-014568$0$MASKIN
 70
     0
  3

  4

  5

  6

  7

 40
0.0
 41
3.0
 42
1.5
 43
10.0
 44
1.5
 45
0.0
 46
0.0
 47
0.0
 48
0.0
140
3.0
141
-5.0
142
0.0
143
25.399999999999999
144
-1.0
145
0.0
146
1.0
147
1.0
 71
     0
 72
     0
 73
     0
 74
     0
 75
     0
 76
     0
 77
     1
 78
     8
170
     0
171
     0
172
     1
173
     0
174
     0
175
     0
176
   256
177
   256
178
     2
  0
ENDTAB
  0
ENDSEC
  0
SECTION
  2
BLOCKS
  0
BLOCK
  8
0
  2
$MODEL_SPACE
 70
     0
 10
0.0
 20
0.0
 30
0.0
  3
$MODEL_SPACE
  1

  0
ENDBLK
  5
D
  8
0
  0
BLOCK
 67
     1
  8
0
  2
$PAPER_SPACE
 70
     0
 10
0.0
 20
0.0
 30
0.0
  3
$PAPER_SPACE
  1

  0
ENDBLK
  5
12
 67
     1
  8
0
  0
BLOCK
  8
0
  2
BYGG-022629$0$18049
 70
     0
 10
0.0
 20
0.0
 30
0.0
  3
BYGG-022629$0$18049
  1

  0
LINE
  5
903
  8
0
 10
1.257104106126135
 20
1.175882970362522
 30
0.0
 11
0.4756705193898512
 21
3.7049892555045281
 31
0.0
  0
LINE
  5
904
  8
0
 10
4.2044423602476391
 20
-3.6036842434053251
 30
0.0
 11
1.257104106126135
 21
1.175882970362522
 31
0.0
  0
LINE
  5
905
  8
0
 10
1.8046723971954881
 20
-1.3930204203302869
 30
0.0
 11
3.8614632483672291
 21
-4.0897212559317486
 31
0.0
  0
LINE
  5
906
  8
0
 10
1.5165716772223581
 20
-5.4492779234504951
 30
0.0
 11
1.365416573142894
 21
-1.670607021296405
 31
0.0
  0
LINE
  5
907
  8
0
 10
-1.360859991273756
 20
-1.626983735284284
 30
0.0
 11
-2.700553210624562
 21
-2.0440140738289752
 31
0.0
  0
LINE
  5
908
  8
0
 10
4.2213954165827374
 20
-11.20389088691797
 30
0.0
 11
1.8374940511294251
 21
-6.144112628652123
 31
0.0
  0
ARC
  5
909
  8
0
 10
-15.61932099734079
 20
-27.035324816149512
 30
0.0
 40
24.584181139217058
 50
49.137781603725038
 51
55.430876072989847
  0
ARC
  5
90A
  8
0
 10
0.6928349840118671
 20
-8.6374822721460305
 30
0.0
 40
0.3000000000000043
 50
139.5071087518125
 51
319.08060320227031
  0
ARC
  5
90B
  8
0
 10
2.5157725486285609
 20
-5.4093077022735647
 30
0.0
 40
0.9999999999999417
 50
182.29073520949271
 51
227.290735209491
  0
ARC
  5
90C
  8
0
 10
-1.547436887770814
 20
-6.4109931887336984
 30
0.0
 40
0.3999999999999566
 50
92.290735209487536
 51
252.11880956275439
  0
LINE
  5
90D
  8
0
 10
-0.264463843413381
 20
-5.9593515526413512
 30
0.0
 11
-1.5634249762415491
 21
-6.0113128401712279
 31
0.0
  0
ARC
  5
90E
  8
0
 10
-0.2764549097664855
 20
-5.6595912912194422
 30
0.0
 40
0.3000000000000553
 50
272.2907352094972
 51
2.2907352094997808
  0
LINE
  5
90F
  8
0
 10
-0.0606321128159806
 20
-3.5492783949131872
 30
0.0
 11
0.023305351655452
 21
-5.6476002248663226
 31
0.0
  0
ARC
  5
910
  8
0
 10
-0.3603923742378612
 20
-3.561269461266249
 30
0.0
 40
0.3000000000000252
 50
2.2907352094893678
 51
92.290735209491856
  0
LINE
  5
911
  8
0
 10
-1.271664224856621
 20
-3.2974823989035249
 30
0.0
 11
-0.3723834405909372
 21
-3.26150919984434
 31
0.0
  0
LINE
  5
912
  8
0
 10
-1.2576746474447731
 20
-3.6472027038957431
 30
0.0
 11
-1.271664224856621
 21
-3.2974823989035249
 31
0.0
  0
ARC
  5
913
  8
0
 10
-1.557434908866596
 20
-3.6591937702488049
 30
0.0
 40
0.2999999999999189
 50
227.29073520948009
 51
2.2907352094898008
  0
LINE
  5
914
  8
0
 10
-2.6479064675971951
 20
-3.060880674298005
 30
0.0
 11
-1.760918458116336
 21
-3.8796352481622871
 31
0.0
  0
ARC
  5
915
  8
0
 10
-2.1052836695978661
 20
-2.4730367331951579
 30
0.0
 40
0.7999999999999711
 50
182.29073520948941
 51
227.2907352094899
  0
LINE
  5
916
  8
0
 10
-2.911147326750366
 20
-2.3424478020412489
 30
0.0
 11
-2.9046443667228621
 21
-2.5050129101366561
 31
0.0
  0
ARC
  5
917
  8
0
 10
-2.6113870653285431
 20
-2.3304567356881871
 30
0.0
 40
0.2999999999999028
 50
107.2907352094865
 51
182.29073520948981
  0
ARC
  5
918
  8
0
 10
1.665176834564803
 20
-1.658615954943286
 30
0.0
 40
0.3000000000000269
 50
62.29073520950076
 51
182.29073520950001
  0
ARC
  5
919
  8
0
 10
-1.45002613656969
 20
-1.340541073425072
 30
0.0
 40
0.2999999999999088
 50
287.29073520947099
 51
2.2907352094791711
  0
LINE
  5
91A
  8
0
 10
-1.2531886636523799
 20
1.24437896187652
 30
0.0
 11
-1.150265875147894
 21
-1.3285500070720671
 31
0.0
  0
ARC
  5
91B
  8
0
 10
-1.552948925074346
 20
1.2323878955234591
 30
0.0
 40
0.3000000000000847
 50
2.2907352094887168
 51
77.290735209486655
  0
LINE
  5
91C
  8
0
 10
-2.8556712716364099
 20
1.8337253324163489
 30
0.0
 11
-1.4869477411285881
 21
1.5250375900693589
 31
0.0
  0
ARC
  5
91D
  8
0
 10
-2.7896700876906229
 20
2.1263750269621928
 30
0.0
 40
0.3000000000000366
 50
182.29073520947821
 51
257.29073520947901
  0
LINE
  5
91E
  8
0
 10
-3.0959333091400651
 20
2.276949068704595
 30
0.0
 11
-3.0894303491125461
 21
2.1143839606091879
 31
0.0
  0
ARC
  5
91F
  8
0
 10
-2.296572612015197
 20
2.3089252456460372
 30
0.0
 40
0.7999999999998441
 50
137.29073520948589
 51
182.29073520948569
  0
LINE
  5
920
  8
0
 10
-2.0656619792536191
 20
3.7385360531263241
 30
0.0
 11
-2.8844165531179149
 21
2.8515480436453231
 31
0.0
  0
ARC
  5
921
  8
0
 10
-1.8452205013400651
 20
3.5350525038765559
 30
0.0
 40
0.3000000000000082
 50
2.2907352094784108
 51
137.29073520948529
  0
LINE
  5
922
  8
0
 10
-1.5434617288593271
 20
3.497083526659253
 30
0.0
 11
-1.5454602399181701
 21
3.5470435702295608
 31
0.0
  0
ARC
  5
923
  8
0
 10
-1.2437014674374249
 20
3.5090745930123139
 30
0.0
 40
0.3000000000000243
 50
182.29073520948921
 51
272.29073520948782
  0
LINE
  5
924
  8
0
 10
-0.6321898782405812
 20
3.2332964642965289
 30
0.0
 11
-1.23171040108437
 21
3.2093143315904049
 31
0.0
  0
ARC
  5
925
  8
0
 10
-0.6441809445936002
 20
3.5330567257183811
 30
0.0
 40
0.2999999999999656
 50
272.2907352094814
 51
2.2907352094787372
  0
LINE
  5
926
  8
0
 10
-0.3464191942305916
 20
3.5950078356417521
 30
0.0
 11
-0.344420683171748
 21
3.5450477920713861
 31
0.0
  0
ARC
  5
927
  8
0
 10
-0.046658932808711
 20
3.606998901994813
 30
0.0
 40
0.2999999999999673
 50
92.290735209486854
 51
182.2907352094893
  0
LINE
  5
928
  8
0
 10
0.177049383927411
 20
3.9161876544667962
 30
0.0
 11
-0.0586499991617586
 21
3.9067591634166661
 31
0.0
  0
ARC
  5
929
  8
0
 10
0.1890404502804017
 20
3.6164273930448871
 30
0.0
 40
0.3000000000000138
 50
17.169902926059759
 51
92.290735209475557
  0
CIRCLE
  5
92A
  8
0
 10
0.0
 20
0.0
 30
0.0
 40
0.2
  0
ARC
  5
92B
  8
0
 10
4.000958810997929
 20
-3.8241257213188642
 30
0.0
 40
0.2999999999999325
 50
242.29073520948819
 51
47.290735209489483
  0
ARC
  5
92C
  8
0
 10
4.017911867332927
 20
-11.42433236483151
 30
0.0
 40
0.2999999999999948
 50
222.87790223034321
 51
47.290735209474143
  0
ARC
  5
92D
  8
0
 10
-25.590924134226238
 20
-39.188544039530477
 30
0.0
 40
40.30140653252819
 50
43.041593976239149
 51
48.867350427507773
  0
ENDBLK
  5
92E
  8
0
  0
BLOCK
  8
0
  2
BYGG-022629$0$18058
 70
     0
 10
0.0
 20
0.0
 30
0.0
  3
BYGG-022629$0$18058
  1

  0
POLYLINE
  5
932
  8
0
 66
     1
 10
0.0
 20
0.0
 30
0.0
 70
     1
  0
VERTEX
  5
B86
  8
0
 10
4.8334507297417977
 20
-5.2617122271897747
 30
0.0
 42
0.6997223268137053
  0
VERTEX
  5
B87
  8
0
 10
4.575936757014289
 20
-4.5556296340060376
 30
0.0
  0
VERTEX
  5
B88
  8
0
 10
3.3759367570143008
 20
-4.5556296340060376
 30
0.0
 42
-0.4142135623730951
  0
VERTEX
  5
B89
  8
0
 10
3.1759367570143122
 20
-4.355629634006049
 30
0.0
  0
VERTEX
  5
B8A
  8
0
 10
3.1759367570142838
 20
-1.555629634006038
 30
0.0
 42
-0.59729408155688
  0
VERTEX
  5
B8B
  8
0
 10
3.486028500133556
 20
-1.38865715694186
 30
0.0
  0
VERTEX
  5
B8C
  8
0
 10
3.778230334995953
 20
-1.5813177074005571
 30
0.0
 42
0.7267081950900313
  0
VERTEX
  5
B8D
  8
0
 10
4.447090661358259
 20
-1.0471071155557179
 30
0.0
  0
VERTEX
  5
B8E
  8
0
 10
0.5873176626473935
 20
5.5050401533857212
 30
0.0
 42
0.7363258036229955
  0
VERTEX
  5
B8F
  8
0
 10
-0.7166888610518641
 20
5.2103713392397699
 30
0.0
  0
VERTEX
  5
B90
  8
0
 10
-1.3240632429856301
 20
1.765780049277339
 30
0.0
  0
VERTEX
  5
B91
  8
0
 10
-2.7574321456306592
 20
-2.6694904128274279
 30
0.0
 42
0.885993824690421
  0
VERTEX
  5
B92
  8
0
 10
-2.3382360028933951
 20
-3.0926345791103809
 30
0.0
  0
VERTEX
  5
B93
  8
0
 10
-1.624063242985442
 20
-0.9471580705006203
 30
0.0
 42
-0.5773502691892892
  0
VERTEX
  5
B94
  8
0
 10
-1.3240632429856301
 20
-1.120363151257606
 30
0.0
  0
VERTEX
  5
B95
  8
0
 10
-1.3240632429856869
 20
-5.6510692487698293
 30
0.0
 42
-0.1989123673796363
  0
VERTEX
  5
B96
  8
0
 10
-1.3826418867483881
 20
-5.7924906050071172
 30
0.0
  0
VERTEX
  5
B97
  8
0
 10
-2.7562272241133172
 20
-10.167977501831951
 30
0.0
 42
0.7660459440748996
  0
VERTEX
  5
B98
  8
0
 10
-2.4141837562942068
 20
-10.635523841217941
 30
0.0
  0
VERTEX
  5
B99
  8
0
 10
1.832706186540491
 20
-6.8303485721410757
 30
0.0
 42
-0.3419987131192184
  0
VERTEX
  5
B9A
  8
0
 10
1.953259031429212
 20
-6.851959023057872
 30
0.0
 42
0.7745966692401299
  0
VERTEX
  5
B9B
  8
0
 10
2.4681048871406972
 20
-6.5828238435410071
 30
0.0
 42
-0.3419987131192394
  0
VERTEX
  5
B9C
  8
0
 10
2.519167327488105
 20
-6.4715016661200471
 30
0.0
  0
SEQEND
  5
B9D
  8
0
  0
CIRCLE
  5
933
  8
0
 10
0.0
 20
0.0
 30
0.0
 40
0.2
  0
ENDBLK
  5
934
  8
0
  0
BLOCK
  8
0
  2
*U37
 70
     1
 10
0.0
 20
0.0
 30
0.0
  3
*U37
  1

  0
TEXT
  5
B53
  8
SAPA_ARTIKELNR
 10
66.758918848382081
 20
65.593541810570088
 30
0.0
 40
3.5
  1
68059
 50
90.0
  7
ISO
  0
ENDBLK
  5
B55
  8
0
  0
BLOCK
  8
0
  2
*U38
 70
     1
 10
0.0
 20
0.0
 30
0.0
  3
*U38
  1

  0
TEXT
  5
B62
  8
MATT
 62
     2
 10
-14.68371487308441
 20
76.609972931217797
 30
0.0
 40
3.0
  1
78
 50
90.0
  7
ISO
  0
ENDBLK
  5
B64
  8
0
  0
BLOCK
  8
0
  2
*U39
 70
     1
 10
0.0
 20
0.0
 30
0.0
  3
*U39
  1

  0
TEXT
  5
B66
  8
MATT
 62
     2
 10
-14.632447090313009
 20
30.36335378238493
 30
0.0
 40
3.0
  1
10-15
 50
90.0
  7
ISO
  0
ENDBLK
  5
B68
  8
0
  0
BLOCK
  8
0
  2
*U40
 70
     1
 10
0.0
 20
0.0
 30
0.0
  3
*U40
  1

  0
TEXT
  5
D51
  8
0
 10
269.13695666615928
 20
387.12121780868893
 30
0.0
 40
3.0
  1
22
 50
90.0
  7
BYGG-014203$0$ISO
  0
ENDBLK
  5
D53
  8
0
  0
BLOCK
  8
0
  2
*U41
 70
     1
 10
0.0
 20
0.0
 30
0.0
  3
*U41
  1

  0
TEXT
  5
D55
  8
0
 10
243.50583563664401
 20
406.8346351471406
 30
0.0
 40
3.0
  1
29
  7
BYGG-014203$0$ISO
  0
ENDBLK
  5
D57
  8
0
  0
BLOCK
  8
0
  2
*U42
 70
     1
 10
0.0
 20
0.0
 30
0.0
  3
*U42
  1

  0
TEXT
  5
D5A
  8
0
 10
89.477352001818133
 20
536.91038923748056
 30
0.0
 40
3.0
  1
29.00259511
  7
BYGG-014203$0$ISO
  0
ENDBLK
  5
D5C
  8
0
  0
BLOCK
  8
0
  2
*U43
 70
     1
 10
0.0
 20
0.0
 30
0.0
  3
*U43
  1

  0
TEXT
  5
D5E
  8
0
 10
139.81857160131429
 20
500.42082458589999
 30
0.0
 40
3.0
  1
21.99913956
 50
90.0
  7
BYGG-014203$0$ISO
  0
ENDBLK
  5
D60
  8
0
  0
BLOCK
  8
0
  2
*U44
 70
     1
 10
0.0
 20
0.0
 30
0.0
  3
*U44
  1

  0
TEXT
  5
E2D
  8
0
 62
     2
 10
245.33733479012039
 20
615.75612140097405
 30
0.0
 40
3.0
  1
78
  7
BYGG-014568$0$ISO
  0
ENDBLK
  5
E2F
  8
0
  0
BLOCK
  8
0
  2
*U45
 70
     1
 10
0.0
 20
0.0
 30
0.0
  3
*U45
  1

  0
TEXT
  5
E31
  8
0
 62
     2
 10
311.00996416506302
 20
659.27176232606303
 30
0.0
 40
3.0
  1
60
 50
90.0
  7
BYGG-014568$0$ISO
  0
ENDBLK
  5
E33
  8
0
  0
BLOCK
  8
0
  2
*X46
 70
     1
 10
0.0
 20
0.0
 30
0.0
  3
*X46
  1

  0
LINE
  5
E37
  8
0
 62
     0
 10
30.46314946764392
 20
15.267299174800311
 30
0.0
 11
31.539347526310969
 21
16.34349723346736
 31
0.0
  0
LINE
  5
E38
  8
0
 62
     0
 10
30.239347526310951
 20
16.166029248601092
 30
0.0
 11
31.539347526310848
 21
17.466029248600989
 31
0.0
  0
LINE
  5
E39
  8
0
 62
     0
 10
29.218085437376661
 20
16.267299174800431
 30
0.0
 11
31.539347526310909
 21
18.588561263734672
 31
0.0
  0
LINE
  5
E3A
  8
0
 62
     0
 10
30.239347526310951
 20
18.41109327886835
 30
0.0
 11
31.539347526310969
 21
19.711093278868301
 31
0.0
  0
LINE
  5
E3B
  8
0
 62
     0
 10
29.039347526310909
 20
17.211093278868301
 30
0.0
 11
29.295553422242961
 21
17.46729917480036
 31
0.0
  0
LINE
  5
E3C
  8
0
 62
     0
 10
29.37302140710938
 20
18.667299174800402
 30
0.0
 11
30.573021407109369
 21
19.86729917480039
 31
0.0
  0
LINE
  5
E3D
  8
0
 62
     0
 10
28.250489391975691
 20
18.667299174800348
 30
0.0
 11
29.45048939197574
 21
19.86729917480039
 31
0.0
  0
LINE
  5
E3E
  8
0
 62
     0
 10
27.127957376842009
 20
18.667299174800291
 30
0.0
 11
28.327957376842111
 21
19.86729917480039
 31
0.0
  0
LINE
  5
E3F
  8
0
 62
     0
 10
26.00542536170844
 20
18.667299174800348
 30
0.0
 11
27.205425361708421
 21
19.86729917480033
 31
0.0
  0
LINE
  5
E40
  8
0
 62
     0
 10
24.88289334657469
 20
18.667299174800348
 30
0.0
 11
26.082893346574679
 21
19.86729917480033
 31
0.0
  0
LINE
  5
E41
  8
0
 62
     0
 10
23.760361331441121
 20
18.667299174800402
 30
0.0
 11
24.96036133144111
 21
19.86729917480039
 31
0.0
  0
LINE
  5
E42
  8
0
 62
     0
 10
22.637829316307428
 20
18.667299174800348
 30
0.0
 11
23.83782931630742
 21
19.86729917480033
 31
0.0
  0
LINE
  5
E43
  8
0
 62
     0
 10
21.515297301173799
 20
18.667299174800348
 30
0.0
 11
22.715297301173791
 21
19.86729917480033
 31
0.0
  0
LINE
  5
E44
  8
0
 62
     0
 10
16.715297301169642
 20
13.867299174796189
 30
0.0
 11
17.139347526310981
 21
14.291349399937531
 31
0.0
  0
LINE
  5
E45
  8
0
 62
     0
 10
20.39276528604017
 20
18.667299174800348
 30
0.0
 11
21.592765286040159
 21
19.86729917480033
 31
0.0
  0
LINE
  5
E46
  8
0
 62
     0
 10
15.63884197468729
 20
13.91337586344747
 30
0.0
 11
17.139347526310932
 21
15.413881415071099
 31
0.0
  0
LINE
  5
E47
  8
0
 62
     0
 10
19.270233270906541
 20
18.667299174800348
 30
0.0
 11
20.47023327090653
 21
19.86729917480033
 31
0.0
  0
LINE
  5
E48
  8
0
 62
     0
 10
15.414883634045051
 20
14.81194953793886
 30
0.0
 11
17.139347526310981
 21
16.536413430204789
 31
0.0
  0
LINE
  5
E49
  8
0
 62
     0
 10
18.147701255772908
 20
18.667299174800348
 30
0.0
 11
19.3477012557729
 21
19.86729917480033
 31
0.0
  0
LINE
  5
E4A
  8
0
 62
     0
 10
14.925353641239321
 20
15.444951560266761
 30
0.0
 11
16.94770125577292
 21
17.46729917480036
 31
0.0
  0
LINE
  5
E4B
  8
0
 62
     0
 10
17.025169240639279
 20
18.667299174800348
 30
0.0
 11
18.225169240639271
 21
19.86729917480033
 31
0.0
  0
LINE
  5
E4C
  8
0
 62
     0
 10
14.21388665681525
 20
15.85601659097631
 30
0.0
 11
15.825169240639299
 21
17.46729917480036
 31
0.0
  0
LINE
  5
E4D
  8
0
 62
     0
 10
13.16988031166812
 20
15.93454226096293
 30
0.0
 11
15.739347526310951
 21
18.504009475605748
 31
0.0
  0
LINE
  5
E4E
  8
0
 62
     0
 10
15.9026372255056
 20
18.667299174800402
 30
0.0
 11
17.102637225505589
 21
19.86729917480039
 31
0.0
  0
LINE
  5
E4F
  8
0
 62
     0
 10
11.102637225501381
 20
13.867299174796189
 30
0.0
 11
11.47210444014422
 21
14.236766389439021
 31
0.0
  0
LINE
  5
E50
  8
0
 62
     0
 10
9.9801052103676966
 20
13.867299174796131
 30
0.0
 11
15.98010521037196
 21
19.86729917480039
 31
0.0
  0
LINE
  5
E51
  8
0
 62
     0
 10
9.5393475263109053
 20
14.54907350587297
 30
0.0
 11
14.857573195238331
 21
19.86729917480039
 31
0.0
  0
LINE
  5
E52
  8
0
 62
     0
 10
9.5393475263109053
 20
15.67160552100659
 30
0.0
 11
13.7350411801047
 21
19.86729917480039
 31
0.0
  0
LINE
  5
E53
  8
0
 62
     0
 10
9.5393475263109053
 20
16.79413753614023
 30
0.0
 11
12.612509164971071
 21
19.86729917480039
 31
0.0
  0
LINE
  5
E54
  8
0
 62
     0
 10
9.5393475263109622
 20
17.916669551273909
 30
0.0
 11
11.489977149837379
 21
19.86729917480033
 31
0.0
  0
LINE
  5
E55
  8
0
 62
     0
 10
9.5393475263109622
 20
19.039201566407542
 30
0.0
 11
10.367445134703759
 21
19.86729917480033
 31
0.0
  0
ENDBLK
  5
E57
  8
0
  0
BLOCK
  8
0
  2
*X47
 70
     1
 10
0.0
 20
0.0
 30
0.0
  3
*X47
  1

  0
LINE
  5
E59
  8
0
 62
     0
 10
31.34061745251017
 20
15.267299174800311
 30
0.0
 11
31.539347526310969
 21
15.4660292486011
 31
0.0
  0
LINE
  5
E5A
  8
0
 62
     0
 10
30.239347526310951
 20
15.288561263734721
 30
0.0
 11
31.539347526310969
 21
16.588561263734729
 31
0.0
  0
LINE
  5
E5B
  8
0
 62
     0
 10
30.095553422243029
 20
16.267299174800431
 30
0.0
 11
31.539347526310969
 21
17.711093278868301
 31
0.0
  0
LINE
  5
E5C
  8
0
 62
     0
 10
30.239347526311011
 20
17.533625294002029
 30
0.0
 11
31.539347526310909
 21
18.83362529400193
 31
0.0
  0
LINE
  5
E5D
  8
0
 62
     0
 10
29.039347526310959
 20
16.33362529400199
 30
0.0
 11
30.173021407109331
 21
17.46729917480036
 31
0.0
  0
LINE
  5
E5E
  8
0
 62
     0
 10
30.239347526310951
 20
18.656157309135601
 30
0.0
 11
31.45048939197568
 21
19.86729917480033
 31
0.0
  0
LINE
  5
E5F
  8
0
 62
     0
 10
29.039347526311019
 20
17.456157309135669
 30
0.0
 11
29.050489391975759
 21
17.467299174800409
 31
0.0
  0
LINE
  5
E60
  8
0
 62
     0
 10
29.127957376842058
 20
18.667299174800348
 30
0.0
 11
30.327957376842001
 21
19.86729917480028
 31
0.0
  0
LINE
  5
E61
  8
0
 62
     0
 10
28.005425361708369
 20
18.667299174800291
 30
0.0
 11
29.205425361708372
 21
19.86729917480028
 31
0.0
  0
LINE
  5
E62
  8
0
 62
     0
 10
26.88289334657475
 20
18.667299174800402
 30
0.0
 11
28.082893346574679
 21
19.86729917480033
 31
0.0
  0
LINE
  5
E63
  8
0
 62
     0
 10
25.760361331441061
 20
18.667299174800348
 30
0.0
 11
26.96036133144105
 21
19.86729917480033
 31
0.0
  0
LINE
  5
E64
  8
0
 62
     0
 10
24.637829316307378
 20
18.667299174800291
 30
0.0
 11
25.83782931630742
 21
19.86729917480033
 31
0.0
  0
LINE
  5
E65
  8
0
 62
     0
 10
23.515297301173799
 20
18.667299174800348
 30
0.0
 11
24.715297301173791
 21
19.86729917480033
 31
0.0
  0
LINE
  5
E66
  8
0
 62
     0
 10
22.39276528604012
 20
18.667299174800291
 30
0.0
 11
23.592765286040219
 21
19.86729917480039
 31
0.0
  0
LINE
  5
E67
  8
0
 62
     0
 10
21.270233270906541
 20
18.667299174800348
 30
0.0
 11
22.47023327090653
 21
19.86729917480033
 31
0.0
  0
LINE
  5
E68
  8
0
 62
     0
 10
16.47023327090227
 20
13.86729917479607
 30
0.0
 11
17.139347526310981
 21
14.53641343020479
 31
0.0
  0
LINE
  5
E69
  8
0
 62
     0
 10
20.147701255772859
 20
18.667299174800291
 30
0.0
 11
21.347701255772851
 21
19.86729917480028
 31
0.0
  0
LINE
  5
E6A
  8
0
 62
     0
 10
15.621431092476371
 20
14.1410290115038
 30
0.0
 11
17.139347526311042
 21
15.658945445338469
 31
0.0
  0
LINE
  5
E6B
  8
0
 62
     0
 10
19.025169240639229
 20
18.667299174800291
 30
0.0
 11
20.225169240639278
 21
19.86729917480033
 31
0.0
  0
LINE
  5
E6C
  8
0
 62
     0
 10
15.327046307024601
 20
14.969176241185661
 30
0.0
 11
17.139347526310981
 21
16.78147746047204
 31
0.0
  0
LINE
  5
E6D
  8
0
 62
     0
 10
17.90263722550554
 20
18.667299174800348
 30
0.0
 11
19.102637225505529
 21
19.86729917480033
 31
0.0
  0
LINE
  5
E6E
  8
0
 62
     0
 10
14.789774534121481
 20
15.55443648341628
 30
0.0
 11
16.702637225505612
 21
17.467299174800409
 31
0.0
  0
LINE
  5
E6F
  8
0
 62
     0
 10
16.780105210371911
 20
18.667299174800348
 30
0.0
 11
17.980105210371839
 21
19.86729917480028
 31
0.0
  0
LINE
  5
E70
  8
0
 62
     0
 10
14.02352653056556
 20
15.91072049499399
 30
0.0
 11
15.739347526310951
 21
17.626541490739381
 31
0.0
  0
LINE
  5
E71
  8
0
 62
     0
 10
12.836442812956189
 20
15.846168792518251
 30
0.0
 11
16.85757319523827
 21
19.86729917480033
 31
0.0
  0
LINE
  5
E72
  8
0
 62
     0
 10
10.85757319523406
 20
13.867299174796131
 30
0.0
 11
11.56047790858889
 21
14.570203888150949
 31
0.0
  0
LINE
  5
E73
  8
0
 62
     0
 10
9.7350411801004384
 20
13.867299174796131
 30
0.0
 11
15.73504118010459
 21
19.86729917480028
 31
0.0
  0
LINE
  5
E74
  8
0
 62
     0
 10
9.5393475263109622
 20
14.79413753614028
 30
0.0
 11
14.612509164970961
 21
19.86729917480028
 31
0.0
  0
LINE
  5
E75
  8
0
 62
     0
 10
9.5393475263109622
 20
15.916669551273911
 30
0.0
 11
13.48997714983733
 21
19.86729917480028
 31
0.0
  0
LINE
  5
E76
  8
0
 62
     0
 10
9.539347526311019
 20
17.039201566407598
 30
0.0
 11
12.367445134703701
 21
19.86729917480028
 31
0.0
  0
LINE
  5
E77
  8
0
 62
     0
 10
9.5393475263109053
 20
18.161733581541231
 30
0.0
 11
11.244913119570009
 21
19.86729917480033
 31
0.0
  0
LINE
  5
E78
  8
0
 62
     0
 10
9.5393475263109622
 20
19.28426559667491
 30
0.0
 11
10.12238110443638
 21
19.86729917480033
 31
0.0
  0
ENDBLK
  5
E7A
  8
0
  0
BLOCK
  8
0
  2
*X48
 70
     1
 10
0.0
 20
0.0
 30
0.0
  3
*X48
  1

  0
LINE
  5
E7C
  8
0
 62
     0
 10
11.82870591777686
 20
10.86729917480034
 30
0.0
 11
12.20054096277374
 21
11.239134219797281
 31
0.0
  0
LINE
  5
E7D
  8
0
 62
     0
 10
10.706173902643171
 20
10.86729917480039
 30
0.0
 11
12.140181124694379
 21
12.301306396851601
 31
0.0
  0
LINE
  5
E7E
  8
0
 62
     0
 10
9.5836418875096001
 20
10.86729917480039
 30
0.0
 11
11.655558476851811
 21
12.939215764142601
 31
0.0
  0
LINE
  5
E7F
  8
0
 62
     0
 10
9.5393475263109622
 20
11.94553682873544
 30
0.0
 11
11.439459137449029
 21
13.845648439873511
 31
0.0
  0
LINE
  5
E80
  8
0
 62
     0
 10
9.5393475263109053
 20
13.06806884386901
 30
0.0
 11
10.33857785723808
 21
13.867299174796189
 31
0.0
  0
ENDBLK
  5
E82
  8
0
  0
BLOCK
  8
0
  2
*X49
 70
     1
 10
0.0
 20
0.0
 30
0.0
  3
*X49
  1

  0
LINE
  5
E98
  8
0
 62
     0
 10
26.805401704212731
 20
3.1241353929318052
 30
0.0
 11
28.412804365297688
 21
3.6181771818301618
 31
0.0
  0
LINE
  5
E99
  8
0
 62
     0
 10
27.591479636338988
 20
4.196135155225277
 30
0.0
 11
28.990891623689041
 21
4.6262501589976059
 31
0.0
  0
LINE
  5
E9A
  8
0
 62
     0
 10
26.318014727850262
 20
3.8047305017923909
 30
0.0
 11
27.171386469274189
 21
4.0670178003861386
 31
0.0
  0
LINE
  5
E9B
  8
0
 62
     0
 10
28.093595739565451
 20
5.1808580868124059
 30
0.0
 11
29.56897888208022
 21
5.6343231361650217
 31
0.0
  0
LINE
  5
E9C
  8
0
 62
     0
 10
27.920008715991401
 20
5.9579008959195221
 30
0.0
 11
29.342976889457589
 21
6.3952559899381924
 31
0.0
  0
LINE
  5
E9D
  8
0
 62
     0
 10
22.275747065518491
 20
4.223113968960063
 30
0.0
 11
22.73018260751644
 21
4.3627865933391661
 31
0.0
  0
LINE
  5
E9E
  8
0
 62
     0
 10
27.09146912713334
 20
6.5336413525855903
 30
0.0
 11
28.40021539082591
 21
6.9358898749889866
 31
0.0
  0
LINE
  5
E9F
  8
0
 62
     0
 10
21.332985566886801
 20
4.763747854010858
 30
0.0
 11
24.329080554437208
 21
5.6846099150203306
 31
0.0
  0
LINE
  5
EA0
  8
0
 62
     0
 10
22.486945136948862
 20
5.948817543901697
 30
0.0
 11
23.886357124298801
 21
6.3789325476739966
 31
0.0
  0
LINE
  5
EA1
  8
0
 62
     0
 10
26.148707628501828
 20
7.0742752376363853
 30
0.0
 11
27.45745389219422
 21
7.4765237600397541
 31
0.0
  0
LINE
  5
EA2
  8
0
 62
     0
 10
20.39022406825524
 20
5.3043817390616823
 30
0.0
 11
22.092301012345441
 21
5.8275220564563019
 31
0.0
  0
LINE
  5
EA3
  8
0
 62
     0
 10
23.06503239533993
 20
6.9568905210690266
 30
0.0
 11
26.514692393562601
 21
8.0171576450905206
 31
0.0
  0
LINE
  5
EA4
  8
0
 62
     0
 10
19.447462569623671
 20
5.8450156241124773
 30
0.0
 11
21.148832712423829
 21
6.3679387032368311
 31
0.0
  0
LINE
  5
EA5
  8
0
 62
     0
 10
23.789303702900501
 20
8.0098937642541141
 30
0.0
 11
25.373825171422819
 21
8.4969029249383539
 31
0.0
  0
LINE
  5
EA6
  8
0
 62
     0
 10
18.504701070992041
 20
6.385649509163243
 30
0.0
 11
20.20607121379226
 21
6.9085725882876261
 31
0.0
  0
LINE
  5
EA7
  8
0
 62
     0
 10
17.561939572360469
 20
6.9262833942140674
 30
0.0
 11
19.263309715160631
 21
7.4492064733384487
 31
0.0
  0
LINE
  5
EA8
  8
0
 62
     0
 10
16.61917807372885
 20
7.4669172792648624
 30
0.0
 11
18.320548216529058
 21
7.9898403583892437
 31
0.0
  0
LINE
  5
EA9
  8
0
 62
     0
 10
15.67641657509728
 20
8.0075511643156858
 30
0.0
 11
17.377786717897489
 21
8.5304742434400662
 31
0.0
  0
LINE
  5
EAA
  8
0
 62
     0
 10
14.743047425669261
 20
8.5510718263482772
 30
0.0
 11
16.43502521926581
 21
9.0711081284908346
 31
0.0
  0
LINE
  5
EAB
  8
0
 62
     0
 10
14.20141474921706
 20
9.2149942971940391
 30
0.0
 11
15.49396195329598
 21
9.6122639723031398
 31
0.0
  0
LINE
  5
EAC
  8
0
 62
     0
 10
14.015950432905919
 20
9.9883865717505387
 30
0.0
 11
15.26707371750655
 21
10.372924435610511
 31
0.0
  0
LINE
  5
EAD
  8
0
 62
     0
 10
13.87160986021922
 20
10.774418397278421
 30
0.0
 11
15.122733144819851
 21
11.15895626113843
 31
0.0
  0
LINE
  5
EAE
  8
0
 62
     0
 10
13.72726928753246
 20
11.560450222806359
 30
0.0
 11
14.978392572133091
 21
11.94498808666637
 31
0.0
  0
LINE
  5
EAF
  8
0
 62
     0
 10
12.64213611849061
 20
12.057325592059721
 30
0.0
 11
15.27155160694673
 21
12.865487207766559
 31
0.0
  0
LINE
  5
EB0
  8
0
 62
     0
 10
13.094460073237091
 20
13.02674470295289
 30
0.0
 11
14.352835222709301
 21
13.413511457171721
 31
0.0
  0
ENDBLK
  5
EB2
  8
0
  0
BLOCK
  8
0
  2
*X50
 70
     1
 10
0.0
 20
0.0
 30
0.0
  3
*X50
  1

  0
LINE
  5
EB4
  8
0
 62
     0
 10
12.460110577014801
 20
13.44128561140837
 30
0.0
 11
13.59382410564012
 21
13.91923472109314
 31
0.0
  0
LINE
  5
EB5
  8
0
 62
     0
 10
12.05332768289685
 20
14.131197578428839
 30
0.0
 11
13.76714503728993
 21
14.85370591762779
 31
0.0
  0
LINE
  5
EB6
  8
0
 62
     0
 10
11.95175335990257
 20
14.94977887959192
 30
0.0
 11
12.72738771691229
 21
15.276769553173461
 31
0.0
  0
ENDBLK
  5
EB8
  8
0
  0
BLOCK
  8
0
  2
*X51
 70
     1
 10
0.0
 20
0.0
 30
0.0
  3
*X51
  1

  0
LINE
  5
EBA
  8
0
 62
     0
 10
13.76714503728993
 20
14.85370591762779
 30
0.0
 11
14.016887741185821
 21
14.95899204147074
 31
0.0
  0
LINE
  5
EBB
  8
0
 62
     0
 10
12.727387716912229
 20
15.276769553173439
 30
0.0
 11
14.43995137673158
 21
15.998749361848439
 31
0.0
  0
LINE
  5
EBC
  8
0
 62
     0
 10
12.339586550947841
 20
15.974683806346601
 30
0.0
 11
14.21105885786409
 21
16.763656064598528
 31
0.0
  0
ENDBLK
  5
EBE
  8
0
  0
BLOCK
  8
0
  2
*X52
 70
     1
 10
0.0
 20
0.0
 30
0.0
  3
*X52
  1

  0
LINE
  5
EC0
  8
0
 62
     0
 10
14.401590432816191
 20
13.516463829276971
 30
0.0
 11
15.53530396144134
 21
13.994412938961659
 31
0.0
  0
LINE
  5
EC1
  8
0
 62
     0
 10
13.61157581633438
 20
14.04481358866559
 30
0.0
 11
15.325393170727351
 21
14.76732192786451
 31
0.0
  0
LINE
  5
EC2
  8
0
 62
     0
 10
14.03463945188008
 20
15.08457090904326
 30
0.0
 11
14.8102738088898
 21
15.411561582624779
 31
0.0
  0
ENDBLK
  5
EC4
  8
0
  0
BLOCK
  8
0
  2
*U53
 70
     1
 10
0.0
 20
0.0
 30
0.0
  3
*U53
  1

  0
SOLID
  5
EC6
  8
0
  6
CONTINUOUS
 62
     6
 10
25.513535907996179
 20
6.8245139192506841
 30
0.0
 11
25.294758529669561
 21
6.7609595904732203
 31
0.0
 12
25.759480359191802
 22
6.7609595904732203
 32
0.0
 13
25.759480359191802
 23
6.7609595904732203
 33
0.0
210
0.0
220
0.0
230
1.0
  0
SOLID
  5
EC7
  8
0
  6
CONTINUOUS
 62
     6
 10
25.294758529669561
 20
6.7609595904732203
 30
0.0
 11
25.269597053719341
 21
6.7536502391714626
 31
0.0
 12
25.772226461827639
 22
6.7536502391714626
 32
0.0
 13
25.772226461827639
 23
6.7536502391714626
 33
0.0
210
0.0
220
0.0
230
1.0
  0
SOLID
  5
EC8
  8
0
  6
CONTINUOUS
 62
     6
 10
-25.294758529669561
 20
6.7609595904732203
 30
0.0
 11
-25.759480359191802
 21
6.7609595904732203
 31
0.0
 12
-25.772226461827639
 22
6.7536502391714626
 32
0.0
 13
-25.772226461827639
 23
6.7536502391714626
 33
0.0
210
0.0
220
0.0
230
-1.0
  0
SOLID
  5
EC9
  8
0
  6
CONTINUOUS
 62
     6
 10
25.269597053719341
 20
6.7536502391714626
 30
0.0
 11
24.26632601837543
 21
6.1378305579319203
 31
0.0
 12
26.846097526194349
 22
6.1378305579319203
 32
0.0
 13
26.846097526194349
 23
6.1378305579319203
 33
0.0
  0
SOLID
  5
ECA
  8
0
  6
CONTINUOUS
 62
     6
 10
-25.269597053719341
 20
6.7536502391714626
 30
0.0
 11
-25.772226461827639
 21
6.7536502391714626
 31
0.0
 12
-26.846097526194349
 22
6.1378305579319203
 32
0.0
 13
-26.846097526194349
 23
6.1378305579319203
 33
0.0
210
0.0
220
0.0
230
-1.0
  0
SOLID
  5
ECB
  8
0
  6
CONTINUOUS
 62
     6
 10
24.26632601837543
 20
6.1378305579319203
 30
0.0
 11
24.198666897984161
 21
6.0533388730210111
 31
0.0
 12
26.993434771770492
 22
6.0533388730210111
 32
0.0
 13
26.993434771770492
 23
6.0533388730210111
 33
0.0
  0
SOLID
  5
ECC
  8
0
  6
CONTINUOUS
 62
     6
 10
-24.26632601837543
 20
6.1378305579319203
 30
0.0
 11
-26.846097526194349
 21
6.1378305579319203
 31
0.0
 12
-26.993434771770492
 22
6.0533388730210111
 32
0.0
 13
-26.993434771770492
 23
6.0533388730210111
 33
0.0
210
0.0
220
0.0
230
-1.0
  0
SOLID
  5
ECD
  8
0
  6
CONTINUOUS
 62
     6
 10
24.198666897984161
 20
6.0533388730210111
 30
0.0
 11
24.198725014405468
 21
6.0494438263333441
 31
0.0
 12
27.00022698393855
 22
6.0494438263333441
 32
0.0
 13
27.00022698393855
 23
6.0494438263333441
 33
0.0
210
0.0
220
0.0
230
1.0
  0
SOLID
  5
ECE
  8
0
  6
CONTINUOUS
 62
     6
 10
-24.198666897984161
 20
6.0533388730210111
 30
0.0
 11
-26.993434771770492
 21
6.0533388730210111
 31
0.0
 12
-27.00022698393855
 22
6.0494438263333441
 32
0.0
 13
-27.00022698393855
 23
6.0494438263333441
 33
0.0
210
0.0
220
0.0
230
-1.0
  0
SOLID
  5
ECF
  8
0
  6
CONTINUOUS
 62
     6
 10
24.198725014405468
 20
6.0494438263333441
 30
0.0
 11
24.200281772148809
 21
5.9451076687745612
 31
0.0
 12
27.103923796632781
 22
5.9451076687745612
 32
0.0
 13
27.103923796632781
 23
5.9451076687745612
 33
0.0
210
0.0
220
0.0
230
1.0
  0
SOLID
  5
ED0
  8
0
  6
CONTINUOUS
 62
     6
 10
-24.198725014405468
 20
6.0494438263333441
 30
0.0
 11
-27.00022698393855
 21
6.0494438263333441
 31
0.0
 12
-27.103923796632781
 22
5.9451076687745612
 32
0.0
 13
-27.103923796632781
 23
5.9451076687745612
 33
0.0
210
0.0
220
0.0
230
-1.0
  0
SOLID
  5
ED1
  8
0
  6
CONTINUOUS
 62
     6
 10
24.200281772148809
 20
5.9451076687745612
 30
0.0
 11
24.26481611579748
 21
5.8692710661945702
 31
0.0
 12
27.179295692216279
 22
5.8692710661945702
 32
0.0
 13
27.179295692216279
 23
5.8692710661945702
 33
0.0
210
0.0
220
0.0
230
1.0
  0
SOLID
  5
ED2
  8
0
  6
CONTINUOUS
 62
     6
 10
-24.200281772148809
 20
5.9451076687745612
 30
0.0
 11
-27.103923796632781
 21
5.9451076687745612
 31
0.0
 12
-27.179295692216279
 22
5.8692710661945702
 32
0.0
 13
-27.179295692216279
 23
5.8692710661945702
 33
0.0
210
0.0
220
0.0
230
-1.0
  0
SOLID
  5
ED3
  8
0
  6
CONTINUOUS
 62
     6
 10
24.26481611579748
 20
5.8692710661945702
 30
0.0
 11
24.270431545678608
 21
5.8626721748115642
 31
0.0
 12
27.180957706192249
 22
5.8626721748115642
 32
0.0
 13
27.180957706192249
 23
5.8626721748115642
 33
0.0
210
0.0
220
0.0
230
1.0
  0
SOLID
  5
ED4
  8
0
  6
CONTINUOUS
 62
     6
 10
-24.26481611579748
 20
5.8692710661945702
 30
0.0
 11
-27.179295692216279
 21
5.8692710661945702
 31
0.0
 12
-27.180957706192249
 22
5.8626721748115642
 32
0.0
 13
-27.180957706192249
 23
5.8626721748115642
 33
0.0
210
0.0
220
0.0
230
-1.0
  0
SOLID
  5
ED5
  8
0
  6
CONTINUOUS
 62
     6
 10
24.270431545678608
 20
5.8626721748115642
 30
0.0
 11
24.548026379233018
 21
5.7034832669565656
 31
0.0
 12
27.221051439263078
 22
5.7034832669565656
 32
0.0
 13
27.221051439263078
 23
5.7034832669565656
 33
0.0
210
0.0
220
0.0
230
1.0
  0
SOLID
  5
ED6
  8
0
  6
CONTINUOUS
 62
     6
 10
-24.270431545678608
 20
5.8626721748115642
 30
0.0
 11
-27.180957706192249
 21
5.8626721748115642
 31
0.0
 12
-27.221051439263078
 22
5.7034832669565656
 32
0.0
 13
-27.221051439263078
 23
5.7034832669565656
 33
0.0
210
0.0
220
0.0
230
-1.0
  0
SOLID
  5
ED7
  8
0
  6
CONTINUOUS
 62
     6
 10
24.548026379233018
 20
5.7034832669565656
 30
0.0
 11
24.501838576251561
 21
5.6229406232907593
 31
0.0
 12
27.241337119336318
 22
5.6229406232907593
 32
0.0
 13
27.241337119336318
 23
5.6229406232907593
 33
0.0
  0
SOLID
  5
ED8
  8
0
  6
CONTINUOUS
 62
     6
 10
-24.548026379233018
 20
5.7034832669565656
 30
0.0
 11
-27.221051439263078
 21
5.7034832669565656
 31
0.0
 12
-27.241337119336318
 22
5.6229406232907593
 32
0.0
 13
-27.241337119336318
 23
5.6229406232907593
 33
0.0
210
0.0
220
0.0
230
-1.0
  0
SOLID
  5
ED9
  8
0
  6
CONTINUOUS
 62
     6
 10
24.501838576251561
 20
5.6229406232907593
 30
0.0
 11
24.416242655506711
 21
5.4736778028321531
 31
0.0
 12
27.238192277141088
 22
5.4736778028321531
 32
0.0
 13
27.238192277141088
 23
5.4736778028321531
 33
0.0
  0
SOLID
  5
EDA
  8
0
  6
CONTINUOUS
 62
     6
 10
-24.501838576251561
 20
5.6229406232907593
 30
0.0
 11
-27.241337119336318
 21
5.6229406232907593
 31
0.0
 12
-27.238192277141088
 22
5.4736778028321531
 32
0.0
 13
-27.238192277141088
 23
5.4736778028321531
 33
0.0
210
0.0
220
0.0
230
-1.0
  0
SOLID
  5
EDB
  8
0
  6
CONTINUOUS
 62
     6
 10
24.416242655506711
 20
5.4736778028321531
 30
0.0
 11
24.40619726567629
 21
5.3962015536401813
 31
0.0
 12
27.23655991767717
 22
5.3962015536401813
 32
0.0
 13
27.23655991767717
 23
5.3962015536401813
 33
0.0
  0
SOLID
  5
EDC
  8
0
  6
CONTINUOUS
 62
     6
 10
-24.416242655506711
 20
5.4736778028321531
 30
0.0
 11
-27.238192277141088
 21
5.4736778028321531
 31
0.0
 12
-27.23655991767717
 22
5.3962015536401813
 32
0.0
 13
-27.23655991767717
 23
5.3962015536401813
 33
0.0
210
0.0
220
0.0
230
-1.0
  0
SOLID
  5
EDD
  8
0
  6
CONTINUOUS
 62
     6
 10
24.40619726567629
 20
5.3962015536401813
 30
0.0
 11
24.376488215580199
 21
5.3239460944132873
 31
0.0
 12
27.235037555870559
 22
5.3239460944132873
 32
0.0
 13
27.235037555870559
 23
5.3239460944132873
 33
0.0
210
0.0
220
0.0
230
1.0
  0
SOLID
  5
EDE
  8
0
  6
CONTINUOUS
 62
     6
 10
-24.40619726567629
 20
5.3962015536401813
 30
0.0
 11
-27.23655991767717
 21
5.3962015536401813
 31
0.0
 12
-27.235037555870559
 22
5.3239460944132873
 32
0.0
 13
-27.235037555870559
 23
5.3239460944132873
 33
0.0
210
0.0
220
0.0
230
-1.0
  0
SOLID
  5
EDF
  8
0
  6
CONTINUOUS
 62
     6
 10
24.376488215580199
 20
5.3239460944132873
 30
0.0
 11
24.228251377695479
 21
5.0654495641348101
 31
0.0
 12
27.229591251203111
 22
5.0654495641348101
 32
0.0
 13
27.229591251203111
 23
5.0654495641348101
 33
0.0
210
0.0
220
0.0
230
1.0
  0
SOLID
  5
EE0
  8
0
  6
CONTINUOUS
 62
     6
 10
-24.376488215580199
 20
5.3239460944132873
 30
0.0
 11
-27.235037555870559
 21
5.3239460944132873
 31
0.0
 12
-27.229591251203111
 22
5.0654495641348101
 32
0.0
 13
-27.229591251203111
 23
5.0654495641348101
 33
0.0
210
0.0
220
0.0
230
-1.0
  0
SOLID
  5
EE1
  8
0
  6
CONTINUOUS
 62
     6
 10
23.248406052343629
 20
5.0654495641348101
 30
0.0
 11
23.197656755410101
 21
4.9769525524703218
 31
0.0
 12
23.402727817309191
 22
4.9769525524703218
 32
0.0
 13
23.402727817309191
 23
4.9769525524703218
 33
0.0
210
0.0
220
0.0
230
1.0
  0
SOLID
  5
EE2
  8
0
  6
CONTINUOUS
 62
     6
 10
24.228251377695479
 20
5.0654495641348101
 30
0.0
 11
24.17750208076194
 21
4.9769525524703218
 31
0.0
 12
27.2277266935351
 22
4.9769525524703218
 32
0.0
 13
27.2277266935351
 23
4.9769525524703218
 33
0.0
  0
SOLID
  5
EE3
  8
0
  6
CONTINUOUS
 62
     6
 10
-24.228251377695479
 20
5.0654495641348101
 30
0.0
 11
-27.229591251203111
 21
5.0654495641348101
 31
0.0
 12
-27.2277266935351
 22
4.9769525524703218
 32
0.0
 13
-27.2277266935351
 23
4.9769525524703218
 33
0.0
210
0.0
220
0.0
230
-1.0
  0
SOLID
  5
EE4
  8
0
  6
CONTINUOUS
 62
     6
 10
23.197656755410101
 20
4.9769525524703218
 30
0.0
 11
23.162025209645918
 21
4.914817990778805
 31
0.0
 12
23.511078540630219
 22
4.914817990778805
 32
0.0
 13
23.511078540630219
 23
4.914817990778805
 33
0.0
  0
SOLID
  5
EE5
  8
0
  6
CONTINUOUS
 62
     6
 10
-23.197656755410101
 20
4.9769525524703218
 30
0.0
 11
-23.402727817309191
 21
4.9769525524703218
 31
0.0
 12
-23.511078540630219
 22
4.914817990778805
 32
0.0
 13
-23.511078540630219
 23
4.914817990778805
 33
0.0
210
0.0
220
0.0
230
-1.0
  0
SOLID
  5
EE6
  8
0
  6
CONTINUOUS
 62
     6
 10
24.17750208076194
 20
4.9769525524703218
 30
0.0
 11
24.130144132230409
 21
4.914817990778805
 31
0.0
 12
27.226417570534551
 22
4.914817990778805
 32
0.0
 13
27.226417570534551
 23
4.914817990778805
 33
0.0
210
0.0
220
0.0
230
1.0
  0
SOLID
  5
EE7
  8
0
  6
CONTINUOUS
 62
     6
 10
-24.17750208076194
 20
4.9769525524703218
 30
0.0
 11
-27.2277266935351
 21
4.9769525524703218
 31
0.0
 12
-27.226417570534551
 22
4.914817990778805
 32
0.0
 13
-27.226417570534551
 23
4.914817990778805
 33
0.0
210
0.0
220
0.0
230
-1.0
  0
SOLID
  5
EE8
  8
0
  6
CONTINUOUS
 62
     6
 10
23.162025209645918
 20
4.914817990778805
 30
0.0
 11
23.13461397534692
 21
4.86701807101492
 31
0.0
 12
23.5944324058561
 22
4.86701807101492
 32
0.0
 13
23.5944324058561
 23
4.86701807101492
 33
0.0
210
0.0
220
0.0
230
1.0
  0
SOLID
  5
EE9
  8
0
  6
CONTINUOUS
 62
     6
 10
-23.162025209645918
 20
4.914817990778805
 30
0.0
 11
-23.511078540630219
 21
4.914817990778805
 31
0.0
 12
-23.5944324058561
 22
4.86701807101492
 32
0.0
 13
-23.5944324058561
 23
4.86701807101492
 33
0.0
210
0.0
220
0.0
230
-1.0
  0
SOLID
  5
EEA
  8
0
  6
CONTINUOUS
 62
     6
 10
24.130144132230409
 20
4.914817990778805
 30
0.0
 11
24.068348932446959
 21
4.86701807101492
 31
0.0
 12
27.225410466393409
 22
4.86701807101492
 32
0.0
 13
27.225410466393409
 23
4.86701807101492
 33
0.0
210
0.0
220
0.0
230
1.0
  0
SOLID
  5
EEB
  8
0
  6
CONTINUOUS
 62
     6
 10
-24.130144132230409
 20
4.914817990778805
 30
0.0
 11
-27.226417570534551
 21
4.914817990778805
 31
0.0
 12
-27.225410466393409
 22
4.86701807101492
 32
0.0
 13
-27.225410466393409
 23
4.86701807101492
 33
0.0
210
0.0
220
0.0
230
-1.0
  0
SOLID
  5
EEC
  8
0
  6
CONTINUOUS
 62
     6
 10
23.13461397534692
 20
4.86701807101492
 30
0.0
 11
23.01733301767824
 21
4.662502641127813
 31
0.0
 12
23.951067974778191
 22
4.662502641127813
 32
0.0
 13
23.951067974778191
 23
4.662502641127813
 33
0.0
210
0.0
220
0.0
230
1.0
  0
SOLID
  5
EED
  8
0
  6
CONTINUOUS
 62
     6
 10
-23.13461397534692
 20
4.86701807101492
 30
0.0
 11
-23.5944324058561
 21
4.86701807101492
 31
0.0
 12
-23.951067974778191
 22
4.662502641127813
 32
0.0
 13
-23.951067974778191
 23
4.662502641127813
 33
0.0
210
0.0
220
0.0
230
-1.0
  0
SOLID
  5
EEE
  8
0
  6
CONTINUOUS
 62
     6
 10
24.068348932446959
 20
4.86701807101492
 30
0.0
 11
23.951067974778191
 21
4.662502641127813
 31
0.0
 12
27.221101498148609
 22
4.662502641127813
 32
0.0
 13
27.221101498148609
 23
4.662502641127813
 33
0.0
210
0.0
220
0.0
230
1.0
  0
SOLID
  5
EEF
  8
0
  6
CONTINUOUS
 62
     6
 10
-24.068348932446959
 20
4.86701807101492
 30
0.0
 11
-27.225410466393409
 21
4.86701807101492
 31
0.0
 12
-27.221101498148609
 22
4.662502641127813
 32
0.0
 13
-27.221101498148609
 23
4.662502641127813
 33
0.0
210
0.0
220
0.0
230
-1.0
  0
SOLID
  5
EF0
  8
0
  6
CONTINUOUS
 62
     6
 10
23.01733301767824
 20
4.662502641127813
 30
0.0
 11
22.906808550564961
 21
4.4697692310837738
 31
0.0
 12
27.217040767160981
 22
4.4697692310837738
 32
0.0
 13
27.217040767160981
 23
4.4697692310837738
 33
0.0
210
0.0
220
0.0
230
1.0
  0
SOLID
  5
EF1
  8
0
  6
CONTINUOUS
 62
     6
 10
-23.01733301767824
 20
4.662502641127813
 30
0.0
 11
-27.221101498148609
 21
4.662502641127813
 31
0.0
 12
-27.217040767160981
 22
4.4697692310837738
 32
0.0
 13
-27.217040767160981
 23
4.4697692310837738
 33
0.0
210
0.0
220
0.0
230
-1.0
  0
SOLID
  5
EF2
  8
0
  6
CONTINUOUS
 62
     6
 10
22.906808550564961
 20
4.4697692310837738
 30
0.0
 11
22.893182157310839
 21
4.4460074224357689
 31
0.0
 12
26.685759946024689
 22
4.4460074224357689
 32
0.0
 13
26.685759946024689
 23
4.4460074224357689
 33
0.0
210
0.0
220
0.0
230
1.0
  0
SOLID
  5
EF3
  8
0
  6
CONTINUOUS
 62
     6
 10
-22.906808550564961
 20
4.4697692310837738
 30
0.0
 11
-26.699386339278821
 21
4.4697692310837738
 31
0.0
 12
-26.685759946024689
 22
4.4460074224357689
 32
0.0
 13
-26.685759946024689
 23
4.4460074224357689
 33
0.0
210
0.0
220
0.0
230
-1.0
  0
SOLID
  5
EF4
  8
0
  6
CONTINUOUS
 62
     6
 10
26.699386339278821
 20
4.4697692310837738
 30
0.0
 11
26.74082236271477
 21
4.4460074224357689
 31
0.0
 12
27.216540125820821
 22
4.4460074224357689
 32
0.0
 13
27.216540125820821
 23
4.4460074224357689
 33
0.0
210
0.0
220
0.0
230
1.0
  0
SOLID
  5
EF5
  8
0
  6
CONTINUOUS
 62
     6
 10
-26.699386339278821
 20
4.4697692310837738
 30
0.0
 11
-27.217040767160981
 21
4.4697692310837738
 31
0.0
 12
-27.216540125820821
 22
4.4460074224357689
 32
0.0
 13
-27.216540125820821
 23
4.4460074224357689
 33
0.0
210
0.0
220
0.0
230
-1.0
  0
SOLID
  5
EF6
  8
0
  6
CONTINUOUS
 62
     6
 10
22.893182157310839
 20
4.4460074224357689
 30
0.0
 11
22.83522350975722
 21
4.3449386900880098
 31
0.0
 12
26.627801298471059
 22
4.3449386900880098
 32
0.0
 13
26.627801298471059
 23
4.3449386900880098
 33
0.0
210
0.0
220
0.0
230
1.0
  0
SOLID
  5
EF7
  8
0
  6
CONTINUOUS
 62
     6
 10
-22.893182157310839
 20
4.4460074224357689
 30
0.0
 11
-26.685759946024689
 21
4.4460074224357689
 31
0.0
 12
-26.627801298471059
 22
4.3449386900880098
 32
0.0
 13
-26.627801298471059
 23
4.3449386900880098
 33
0.0
210
0.0
220
0.0
230
-1.0
  0
SOLID
  5
EF8
  8
0
  6
CONTINUOUS
 62
     6
 10
26.74082236271477
 20
4.4460074224357689
 30
0.0
 11
26.917066790243009
 21
4.3449386900880098
 31
0.0
 12
27.177788187381491
 22
4.3449386900880098
 32
0.0
 13
27.177788187381491
 23
4.3449386900880098
 33
0.0
210
0.0
220
0.0
230
1.0
  0
SOLID
  5
EF9
  8
0
  6
CONTINUOUS
 62
     6
 10
-26.74082236271477
 20
4.4460074224357689
 30
0.0
 11
-27.216540125820821
 21
4.4460074224357689
 31
0.0
 12
-27.177788187381491
 22
4.3449386900880098
 32
0.0
 13
-27.177788187381491
 23
4.3449386900880098
 33
0.0
210
0.0
220
0.0
230
-1.0
  0
SOLID
  5
EFA
  8
0
  6
CONTINUOUS
 62
     6
 10
22.83522350975722
 20
4.3449386900880098
 30
0.0
 11
22.815520438104532
 21
4.3105803232290887
 31
0.0
 12
26.608098226818381
 22
4.3105803232290887
 32
0.0
 13
26.608098226818381
 23
4.3105803232290887
 33
0.0
210
0.0
220
0.0
230
1.0
  0
SOLID
  5
EFB
  8
0
  6
CONTINUOUS
 62
     6
 10
-22.83522350975722
 20
4.3449386900880098
 30
0.0
 11
-26.627801298471059
 21
4.3449386900880098
 31
0.0
 12
-26.608098226818381
 22
4.3105803232290887
 32
0.0
 13
-26.608098226818381
 23
4.3105803232290887
 33
0.0
210
0.0
220
0.0
230
-1.0
  0
SOLID
  5
EFC
  8
0
  6
CONTINUOUS
 62
     6
 10
26.917066790243009
 20
4.3449386900880098
 30
0.0
 11
26.97698117283386
 21
4.3105803232290887
 31
0.0
 12
27.117011175695641
 22
4.3105803232290887
 32
0.0
 13
27.117011175695641
 23
4.3105803232290887
 33
0.0
210
0.0
220
0.0
230
1.0
  0
SOLID
  5
EFD
  8
0
  6
CONTINUOUS
 62
     6
 10
-26.917066790243009
 20
4.3449386900880098
 30
0.0
 11
-27.177788187381491
 21
4.3449386900880098
 31
0.0
 12
-27.117011175695641
 22
4.3105803232290887
 32
0.0
 13
-27.117011175695641
 23
4.3105803232290887
 33
0.0
210
0.0
220
0.0
230
-1.0
  0
SOLID
  5
EFE
  8
0
  6
CONTINUOUS
 62
     6
 10
22.815520438104532
 20
4.3105803232290887
 30
0.0
 11
22.804675934581681
 21
4.2916695951452217
 31
0.0
 12
26.59725372329552
 22
4.2916695951452217
 32
0.0
 13
26.59725372329552
 23
4.2916695951452217
 33
0.0
  0
SOLID
  5
EFF
  8
0
  6
CONTINUOUS
 62
     6
 10
-22.815520438104532
 20
4.3105803232290887
 30
0.0
 11
-26.608098226818381
 21
4.3105803232290887
 31
0.0
 12
-26.59725372329552
 22
4.2916695951452217
 32
0.0
 13
-26.59725372329552
 23
4.2916695951452217
 33
0.0
210
0.0
220
0.0
230
-1.0
  0
SOLID
  5
F00
  8
0
  6
CONTINUOUS
 62
     6
 10
-26.97698117283386
 20
4.3105803232290887
 30
0.0
 11
-27.117011175695641
 21
4.3105803232290887
 31
0.0
 12
-27.083559715489152
 22
4.2916695951452217
 32
0.0
 13
-27.083559715489152
 23
4.2916695951452217
 33
0.0
210
0.0
220
0.0
230
-1.0
  0
SOLID
  5
F01
  8
0
  6
CONTINUOUS
 62
     6
 10
22.804675934581681
 20
4.2916695951452217
 30
0.0
 11
22.775024826838589
 21
4.2399637669592192
 31
0.0
 12
26.567602615552431
 22
4.2399637669592192
 32
0.0
 13
26.567602615552431
 23
4.2399637669592192
 33
0.0
210
0.0
220
0.0
230
1.0
  0
SOLID
  5
F02
  8
0
  6
CONTINUOUS
 62
     6
 10
-22.804675934581681
 20
4.2916695951452217
 30
0.0
 11
-26.59725372329552
 21
4.2916695951452217
 31
0.0
 12
-26.567602615552431
 22
4.2399637669592192
 32
0.0
 13
-26.567602615552431
 23
4.2399637669592192
 33
0.0
210
0.0
220
0.0
230
-1.0
  0
SOLID
  5
F03
  8
0
  6
CONTINUOUS
 62
     6
 10
22.775024826838589
 20
4.2399637669592192
 30
0.0
 11
22.75094071529816
 21
4.197965709277466
 31
0.0
 12
26.513307997951038
 22
4.197965709277466
 32
0.0
 13
26.513307997951038
 23
4.197965709277466
 33
0.0
210
0.0
220
0.0
230
1.0
  0
SOLID
  5
F04
  8
0
  6
CONTINUOUS
 62
     6
 10
-22.775024826838589
 20
4.2399637669592192
 30
0.0
 11
-26.567602615552431
 21
4.2399637669592192
 31
0.0
 12
-26.513307997951038
 22
4.197965709277466
 32
0.0
 13
-26.513307997951038
 23
4.197965709277466
 33
0.0
210
0.0
220
0.0
230
-1.0
  0
SOLID
  5
F05
  8
0
  6
CONTINUOUS
 62
     6
 10
22.75094071529816
 20
4.197965709277466
 30
0.0
 11
22.761058046717181
 21
4.1921638471953271
 31
0.0
 12
26.505807415769048
 22
4.1921638471953271
 32
0.0
 13
26.505807415769048
 23
4.1921638471953271
 33
0.0
210
0.0
220
0.0
230
1.0
  0
SOLID
  5
F06
  8
0
  6
CONTINUOUS
 62
     6
 10
-22.75094071529816
 20
4.197965709277466
 30
0.0
 11
-26.513307997951038
 21
4.197965709277466
 31
0.0
 12
-26.505807415769048
 22
4.1921638471953271
 32
0.0
 13
-26.505807415769048
 23
4.1921638471953271
 33
0.0
210
0.0
220
0.0
230
-1.0
  0
SOLID
  5
F07
  8
0
  6
CONTINUOUS
 62
     6
 10
22.761058046717181
 20
4.1921638471953271
 30
0.0
 11
22.869408770038159
 21
4.130029285503837
 31
0.0
 12
26.458449467237589
 22
4.130029285503837
 32
0.0
 13
26.458449467237589
 23
4.130029285503837
 33
0.0
210
0.0
220
0.0
230
1.0
  0
SOLID
  5
F08
  8
0
  6
CONTINUOUS
 62
     6
 10
-22.761058046717181
 20
4.1921638471953271
 30
0.0
 11
-26.505807415769048
 21
4.1921638471953271
 31
0.0
 12
-26.458449467237589
 22
4.130029285503837
 32
0.0
 13
-26.458449467237589
 23
4.130029285503837
 33
0.0
210
0.0
220
0.0
230
-1.0
  0
SOLID
  5
F09
  8
0
  6
CONTINUOUS
 62
     6
 10
22.869408770038159
 20
4.130029285503837
 30
0.0
 11
23.474498759148918
 21
3.7830357435601618
 31
0.0
 12
26.259463332418989
 22
3.7830357435601618
 32
0.0
 13
26.259463332418989
 23
3.7830357435601618
 33
0.0
210
0.0
220
0.0
230
1.0
  0
SOLID
  5
F0A
  8
0
  6
CONTINUOUS
 62
     6
 10
-22.869408770038159
 20
4.130029285503837
 30
0.0
 11
-26.458449467237589
 21
4.130029285503837
 31
0.0
 12
-26.259463332418989
 22
3.7830357435601618
 32
0.0
 13
-26.259463332418989
 23
3.7830357435601618
 33
0.0
210
0.0
220
0.0
230
-1.0
  0
SOLID
  5
F0B
  8
0
  6
CONTINUOUS
 62
     6
 10
23.474498759148918
 20
3.7830357435601618
 30
0.0
 11
23.600498380905321
 21
3.7107802843332358
 31
0.0
 12
26.229754282322851
 22
3.7107802843332358
 32
0.0
 13
26.229754282322851
 23
3.7107802843332358
 33
0.0
  0
SOLID
  5
F0C
  8
0
  6
CONTINUOUS
 62
     6
 10
-23.474498759148918
 20
3.7830357435601618
 30
0.0
 11
-26.259463332418989
 21
3.7830357435601618
 31
0.0
 12
-26.229754282322851
 22
3.7107802843332358
 32
0.0
 13
-26.229754282322851
 23
3.7107802843332358
 33
0.0
210
0.0
220
0.0
230
-1.0
  0
SOLID
  5
F0D
  8
0
  6
CONTINUOUS
 62
     6
 10
23.600498380905321
 20
3.7107802843332358
 30
0.0
 11
23.735602056084229
 21
3.6333040351412209
 31
0.0
 12
26.21970889249241
 22
3.6333040351412209
 32
0.0
 13
26.21970889249241
 23
3.6333040351412209
 33
0.0
210
0.0
220
0.0
230
1.0
  0
SOLID
  5
F0E
  8
0
  6
CONTINUOUS
 62
     6
 10
-23.600498380905321
 20
3.7107802843332358
 30
0.0
 11
-26.229754282322851
 21
3.7107802843332358
 31
0.0
 12
-26.21970889249241
 22
3.6333040351412209
 32
0.0
 13
-26.21970889249241
 23
3.6333040351412209
 33
0.0
210
0.0
220
0.0
230
-1.0
  0
SOLID
  5
F0F
  8
0
  6
CONTINUOUS
 62
     6
 10
23.735602056084229
 20
3.6333040351412209
 30
0.0
 11
24.092237625004991
 21
3.4287886052548791
 31
0.0
 12
26.102427934824171
 22
3.4287886052548791
 32
0.0
 13
26.102427934824171
 23
3.4287886052548791
 33
0.0
  0
SOLID
  5
F10
  8
0
  6
CONTINUOUS
 62
     6
 10
-23.735602056084229
 20
3.6333040351412209
 30
0.0
 11
-26.21970889249241
 21
3.6333040351412209
 31
0.0
 12
-26.102427934824171
 22
3.4287886052548791
 32
0.0
 13
-26.102427934824171
 23
3.4287886052548791
 33
0.0
210
0.0
220
0.0
230
-1.0
  0
SOLID
  5
F11
  8
0
  6
CONTINUOUS
 62
     6
 10
24.092237625004991
 20
3.4287886052548791
 30
0.0
 11
31.38777684435502
 21
-0.7548948792984325
 31
0.0
 12
33.39796715417453
 22
-0.7548948792984325
 32
0.0
 13
33.39796715417453
 23
-0.7548948792984325
 33
0.0
210
0.0
220
0.0
230
1.0
  0
SOLID
  5
F12
  8
0
  6
CONTINUOUS
 62
     6
 10
-24.092237625004991
 20
3.4287886052548791
 30
0.0
 11
-26.102427934824171
 21
3.4287886052548791
 31
0.0
 12
-33.39796715417453
 22
-0.7548948792984325
 32
0.0
 13
-33.39796715417453
 23
-0.7548948792984325
 33
0.0
210
0.0
220
0.0
230
-1.0
  0
SOLID
  5
F13
  8
0
  6
CONTINUOUS
 62
     6
 10
-31.38777684435502
 20
-0.7548948792984325
 30
0.0
 11
-33.39796715417453
 21
-0.7548948792984325
 31
0.0
 12
-32.900501817128891
 22
-1.622378734155874
 32
0.0
 13
-32.900501817128891
 23
-1.622378734155874
 33
0.0
210
0.0
220
0.0
230
-1.0
  0
LINE
  5
F14
  8
0
  6
CONTINUOUS
 62
     6
 10
25.513535907996179
 20
6.8245139192506841
 30
0.0
 11
25.294758529669561
 21
6.7609595904732203
 31
0.0
  0
LINE
  5
F15
  8
0
  6
CONTINUOUS
 62
     6
 10
25.759480359191802
 20
6.7609595904732203
 30
0.0
 11
25.513535907996179
 21
6.8245139192506841
 31
0.0
  0
LINE
  5
F16
  8
0
  6
CONTINUOUS
 62
     6
 10
25.294758529669561
 20
6.7609595904732203
 30
0.0
 11
25.269597053719341
 21
6.7536502391714626
 31
0.0
  0
LINE
  5
F17
  8
0
  6
CONTINUOUS
 62
     6
 10
25.759480359191802
 20
6.7609595904732203
 30
0.0
 11
25.772226461827639
 21
6.7536502391714626
 31
0.0
  0
LINE
  5
F18
  8
0
  6
CONTINUOUS
 62
     6
 10
25.269597053719341
 20
6.7536502391714626
 30
0.0
 11
24.26632601837543
 21
6.1378305579319203
 31
0.0
  0
LINE
  5
F19
  8
0
  6
CONTINUOUS
 62
     6
 10
25.772226461827639
 20
6.7536502391714626
 30
0.0
 11
26.846097526194349
 21
6.1378305579319203
 31
0.0
  0
LINE
  5
F1A
  8
0
  6
CONTINUOUS
 62
     6
 10
24.26632601837543
 20
6.1378305579319203
 30
0.0
 11
24.198666897984161
 21
6.0533388730210111
 31
0.0
  0
LINE
  5
F1B
  8
0
  6
CONTINUOUS
 62
     6
 10
26.846097526194349
 20
6.1378305579319203
 30
0.0
 11
26.993434771770492
 21
6.0533388730210111
 31
0.0
  0
LINE
  5
F1C
  8
0
  6
CONTINUOUS
 62
     6
 10
24.198666897984161
 20
6.0533388730210111
 30
0.0
 11
24.198725014405468
 21
6.0494438263333441
 31
0.0
  0
LINE
  5
F1D
  8
0
  6
CONTINUOUS
 62
     6
 10
26.993434771770492
 20
6.0533388730210111
 30
0.0
 11
27.00022698393855
 21
6.0494438263333441
 31
0.0
  0
LINE
  5
F1E
  8
0
  6
CONTINUOUS
 62
     6
 10
24.198725014405468
 20
6.0494438263333441
 30
0.0
 11
24.200281772148809
 21
5.9451076687745612
 31
0.0
  0
LINE
  5
F1F
  8
0
  6
CONTINUOUS
 62
     6
 10
27.00022698393855
 20
6.0494438263333441
 30
0.0
 11
27.103923796632781
 21
5.9451076687745612
 31
0.0
  0
LINE
  5
F20
  8
0
  6
CONTINUOUS
 62
     6
 10
24.200281772148809
 20
5.9451076687745612
 30
0.0
 11
24.26481611579748
 21
5.8692710661945702
 31
0.0
  0
LINE
  5
F21
  8
0
  6
CONTINUOUS
 62
     6
 10
27.103923796632781
 20
5.9451076687745612
 30
0.0
 11
27.179295692216279
 21
5.8692710661945702
 31
0.0
  0
LINE
  5
F22
  8
0
  6
CONTINUOUS
 62
     6
 10
24.26481611579748
 20
5.8692710661945702
 30
0.0
 11
24.270431545678608
 21
5.8626721748115642
 31
0.0
  0
LINE
  5
F23
  8
0
  6
CONTINUOUS
 62
     6
 10
27.179295692216279
 20
5.8692710661945702
 30
0.0
 11
27.180957706192249
 21
5.8626721748115642
 31
0.0
  0
LINE
  5
F24
  8
0
  6
CONTINUOUS
 62
     6
 10
24.270431545678608
 20
5.8626721748115642
 30
0.0
 11
24.548026379233018
 21
5.7034832669565656
 31
0.0
  0
LINE
  5
F25
  8
0
  6
CONTINUOUS
 62
     6
 10
27.180957706192249
 20
5.8626721748115642
 30
0.0
 11
27.221051439263078
 21
5.7034832669565656
 31
0.0
  0
LINE
  5
F26
  8
0
  6
CONTINUOUS
 62
     6
 10
24.548026379233018
 20
5.7034832669565656
 30
0.0
 11
24.501838576251561
 21
5.6229406232907593
 31
0.0
  0
LINE
  5
F27
  8
0
  6
CONTINUOUS
 62
     6
 10
27.221051439263078
 20
5.7034832669565656
 30
0.0
 11
27.241337119336318
 21
5.6229406232907593
 31
0.0
  0
LINE
  5
F28
  8
0
  6
CONTINUOUS
 62
     6
 10
24.501838576251561
 20
5.6229406232907593
 30
0.0
 11
24.416242655506711
 21
5.4736778028321531
 31
0.0
  0
LINE
  5
F29
  8
0
  6
CONTINUOUS
 62
     6
 10
27.241337119336318
 20
5.6229406232907593
 30
0.0
 11
27.238192277141088
 21
5.4736778028321531
 31
0.0
  0
LINE
  5
F2A
  8
0
  6
CONTINUOUS
 62
     6
 10
24.416242655506711
 20
5.4736778028321531
 30
0.0
 11
24.40619726567629
 21
5.3962015536401813
 31
0.0
  0
LINE
  5
F2B
  8
0
  6
CONTINUOUS
 62
     6
 10
27.238192277141088
 20
5.4736778028321531
 30
0.0
 11
27.23655991767717
 21
5.3962015536401813
 31
0.0
  0
LINE
  5
F2C
  8
0
  6
CONTINUOUS
 62
     6
 10
24.40619726567629
 20
5.3962015536401813
 30
0.0
 11
24.376488215580199
 21
5.3239460944132873
 31
0.0
  0
LINE
  5
F2D
  8
0
  6
CONTINUOUS
 62
     6
 10
27.23655991767717
 20
5.3962015536401813
 30
0.0
 11
27.235037555870559
 21
5.3239460944132873
 31
0.0
  0
LINE
  5
F2E
  8
0
  6
CONTINUOUS
 62
     6
 10
24.376488215580199
 20
5.3239460944132873
 30
0.0
 11
24.228251377695479
 21
5.0654495641348101
 31
0.0
  0
LINE
  5
F2F
  8
0
  6
CONTINUOUS
 62
     6
 10
27.235037555870559
 20
5.3239460944132873
 30
0.0
 11
27.229591251203111
 21
5.0654495641348101
 31
0.0
  0
LINE
  5
F30
  8
0
  6
CONTINUOUS
 62
     6
 10
23.248406052343629
 20
5.0654495641348101
 30
0.0
 11
23.197656755410101
 21
4.9769525524703218
 31
0.0
  0
LINE
  5
F31
  8
0
  6
CONTINUOUS
 62
     6
 10
23.402727817309191
 20
4.9769525524703218
 30
0.0
 11
23.248406052343629
 21
5.0654495641348101
 31
0.0
  0
LINE
  5
F32
  8
0
  6
CONTINUOUS
 62
     6
 10
24.228251377695479
 20
5.0654495641348101
 30
0.0
 11
24.17750208076194
 21
4.9769525524703218
 31
0.0
  0
LINE
  5
F33
  8
0
  6
CONTINUOUS
 62
     6
 10
27.229591251203111
 20
5.0654495641348101
 30
0.0
 11
27.2277266935351
 21
4.9769525524703218
 31
0.0
  0
LINE
  5
F34
  8
0
  6
CONTINUOUS
 62
     6
 10
23.197656755410101
 20
4.9769525524703218
 30
0.0
 11
23.162025209645918
 21
4.914817990778805
 31
0.0
  0
LINE
  5
F35
  8
0
  6
CONTINUOUS
 62
     6
 10
23.402727817309191
 20
4.9769525524703218
 30
0.0
 11
23.511078540630219
 21
4.914817990778805
 31
0.0
  0
LINE
  5
F36
  8
0
  6
CONTINUOUS
 62
     6
 10
24.17750208076194
 20
4.9769525524703218
 30
0.0
 11
24.130144132230409
 21
4.914817990778805
 31
0.0
  0
LINE
  5
F37
  8
0
  6
CONTINUOUS
 62
     6
 10
27.2277266935351
 20
4.9769525524703218
 30
0.0
 11
27.226417570534551
 21
4.914817990778805
 31
0.0
  0
LINE
  5
F38
  8
0
  6
CONTINUOUS
 62
     6
 10
23.162025209645918
 20
4.914817990778805
 30
0.0
 11
23.13461397534692
 21
4.86701807101492
 31
0.0
  0
LINE
  5
F39
  8
0
  6
CONTINUOUS
 62
     6
 10
23.511078540630219
 20
4.914817990778805
 30
0.0
 11
23.5944324058561
 21
4.86701807101492
 31
0.0
  0
LINE
  5
F3A
  8
0
  6
CONTINUOUS
 62
     6
 10
24.130144132230409
 20
4.914817990778805
 30
0.0
 11
24.068348932446959
 21
4.86701807101492
 31
0.0
  0
LINE
  5
F3B
  8
0
  6
CONTINUOUS
 62
     6
 10
27.226417570534551
 20
4.914817990778805
 30
0.0
 11
27.225410466393409
 21
4.86701807101492
 31
0.0
  0
LINE
  5
F3C
  8
0
  6
CONTINUOUS
 62
     6
 10
23.13461397534692
 20
4.86701807101492
 30
0.0
 11
23.01733301767824
 21
4.662502641127813
 31
0.0
  0
LINE
  5
F3D
  8
0
  6
CONTINUOUS
 62
     6
 10
27.225410466393409
 20
4.86701807101492
 30
0.0
 11
27.221101498148609
 21
4.662502641127813
 31
0.0
  0
LINE
  5
F3E
  8
0
  6
CONTINUOUS
 62
     6
 10
23.01733301767824
 20
4.662502641127813
 30
0.0
 11
22.906808550564961
 21
4.4697692310837738
 31
0.0
  0
LINE
  5
F3F
  8
0
  6
CONTINUOUS
 62
     6
 10
27.221101498148609
 20
4.662502641127813
 30
0.0
 11
27.217040767160981
 21
4.4697692310837738
 31
0.0
  0
LINE
  5
F40
  8
0
  6
CONTINUOUS
 62
     6
 10
22.906808550564961
 20
4.4697692310837738
 30
0.0
 11
22.893182157310839
 21
4.4460074224357689
 31
0.0
  0
LINE
  5
F41
  8
0
  6
CONTINUOUS
 62
     6
 10
27.217040767160981
 20
4.4697692310837738
 30
0.0
 11
27.216540125820821
 21
4.4460074224357689
 31
0.0
  0
LINE
  5
F42
  8
0
  6
CONTINUOUS
 62
     6
 10
22.893182157310839
 20
4.4460074224357689
 30
0.0
 11
22.83522350975722
 21
4.3449386900880098
 31
0.0
  0
LINE
  5
F43
  8
0
  6
CONTINUOUS
 62
     6
 10
26.685759946024689
 20
4.4460074224357689
 30
0.0
 11
26.627801298471059
 21
4.3449386900880098
 31
0.0
  0
LINE
  5
F44
  8
0
  6
CONTINUOUS
 62
     6
 10
26.74082236271477
 20
4.4460074224357689
 30
0.0
 11
26.917066790243009
 21
4.3449386900880098
 31
0.0
  0
LINE
  5
F45
  8
0
  6
CONTINUOUS
 62
     6
 10
27.216540125820821
 20
4.4460074224357689
 30
0.0
 11
27.177788187381491
 21
4.3449386900880098
 31
0.0
  0
LINE
  5
F46
  8
0
  6
CONTINUOUS
 62
     6
 10
22.83522350975722
 20
4.3449386900880098
 30
0.0
 11
22.815520438104532
 21
4.3105803232290887
 31
0.0
  0
LINE
  5
F47
  8
0
  6
CONTINUOUS
 62
     6
 10
26.627801298471059
 20
4.3449386900880098
 30
0.0
 11
26.608098226818381
 21
4.3105803232290887
 31
0.0
  0
LINE
  5
F48
  8
0
  6
CONTINUOUS
 62
     6
 10
26.917066790243009
 20
4.3449386900880098
 30
0.0
 11
26.97698117283386
 21
4.3105803232290887
 31
0.0
  0
LINE
  5
F49
  8
0
  6
CONTINUOUS
 62
     6
 10
27.177788187381491
 20
4.3449386900880098
 30
0.0
 11
27.117011175695641
 21
4.3105803232290887
 31
0.0
  0
LINE
  5
F4A
  8
0
  6
CONTINUOUS
 62
     6
 10
22.815520438104532
 20
4.3105803232290887
 30
0.0
 11
22.804675934581681
 21
4.2916695951452217
 31
0.0
  0
LINE
  5
F4B
  8
0
  6
CONTINUOUS
 62
     6
 10
26.608098226818381
 20
4.3105803232290887
 30
0.0
 11
26.59725372329552
 21
4.2916695951452217
 31
0.0
  0
LINE
  5
F4C
  8
0
  6
CONTINUOUS
 62
     6
 10
27.117011175695641
 20
4.3105803232290887
 30
0.0
 11
27.083559715489152
 21
4.2916695951452217
 31
0.0
  0
LINE
  5
F4D
  8
0
  6
CONTINUOUS
 62
     6
 10
27.083559715489152
 20
4.2916695951452217
 30
0.0
 11
26.97698117283386
 21
4.3105803232290887
 31
0.0
  0
LINE
  5
F4E
  8
0
  6
CONTINUOUS
 62
     6
 10
22.804675934581681
 20
4.2916695951452217
 30
0.0
 11
22.775024826838589
 21
4.2399637669592192
 31
0.0
  0
LINE
  5
F4F
  8
0
  6
CONTINUOUS
 62
     6
 10
26.59725372329552
 20
4.2916695951452217
 30
0.0
 11
26.567602615552431
 21
4.2399637669592192
 31
0.0
  0
LINE
  5
F50
  8
0
  6
CONTINUOUS
 62
     6
 10
22.775024826838589
 20
4.2399637669592192
 30
0.0
 11
22.75094071529816
 21
4.197965709277466
 31
0.0
  0
LINE
  5
F51
  8
0
  6
CONTINUOUS
 62
     6
 10
26.567602615552431
 20
4.2399637669592192
 30
0.0
 11
26.513307997951038
 21
4.197965709277466
 31
0.0
  0
LINE
  5
F52
  8
0
  6
CONTINUOUS
 62
     6
 10
22.75094071529816
 20
4.197965709277466
 30
0.0
 11
22.761058046717181
 21
4.1921638471953271
 31
0.0
  0
LINE
  5
F53
  8
0
  6
CONTINUOUS
 62
     6
 10
26.513307997951038
 20
4.197965709277466
 30
0.0
 11
26.505807415769048
 21
4.1921638471953271
 31
0.0
  0
LINE
  5
F54
  8
0
  6
CONTINUOUS
 62
     6
 10
22.761058046717181
 20
4.1921638471953271
 30
0.0
 11
22.869408770038159
 21
4.130029285503837
 31
0.0
  0
LINE
  5
F55
  8
0
  6
CONTINUOUS
 62
     6
 10
26.505807415769048
 20
4.1921638471953271
 30
0.0
 11
26.458449467237589
 21
4.130029285503837
 31
0.0
  0
LINE
  5
F56
  8
0
  6
CONTINUOUS
 62
     6
 10
22.869408770038159
 20
4.130029285503837
 30
0.0
 11
23.474498759148918
 21
3.7830357435601618
 31
0.0
  0
LINE
  5
F57
  8
0
  6
CONTINUOUS
 62
     6
 10
26.458449467237589
 20
4.130029285503837
 30
0.0
 11
26.259463332418989
 21
3.7830357435601618
 31
0.0
  0
LINE
  5
F58
  8
0
  6
CONTINUOUS
 62
     6
 10
23.474498759148918
 20
3.7830357435601618
 30
0.0
 11
23.600498380905321
 21
3.7107802843332358
 31
0.0
  0
LINE
  5
F59
  8
0
  6
CONTINUOUS
 62
     6
 10
26.259463332418989
 20
3.7830357435601618
 30
0.0
 11
26.229754282322851
 21
3.7107802843332358
 31
0.0
  0
LINE
  5
F5A
  8
0
  6
CONTINUOUS
 62
     6
 10
23.600498380905321
 20
3.7107802843332358
 30
0.0
 11
23.735602056084229
 21
3.6333040351412209
 31
0.0
  0
LINE
  5
F5B
  8
0
  6
CONTINUOUS
 62
     6
 10
26.229754282322851
 20
3.7107802843332358
 30
0.0
 11
26.21970889249241
 21
3.6333040351412209
 31
0.0
  0
LINE
  5
F5C
  8
0
  6
CONTINUOUS
 62
     6
 10
23.735602056084229
 20
3.6333040351412209
 30
0.0
 11
24.092237625004991
 21
3.4287886052548791
 31
0.0
  0
LINE
  5
F5D
  8
0
  6
CONTINUOUS
 62
     6
 10
26.21970889249241
 20
3.6333040351412209
 30
0.0
 11
26.102427934824171
 21
3.4287886052548791
 31
0.0
  0
LINE
  5
F5E
  8
0
  6
CONTINUOUS
 62
     6
 10
24.092237625004991
 20
3.4287886052548791
 30
0.0
 11
31.38777684435502
 21
-0.7548948792984325
 31
0.0
  0
LINE
  5
F5F
  8
0
  6
CONTINUOUS
 62
     6
 10
26.102427934824171
 20
3.4287886052548791
 30
0.0
 11
33.39796715417453
 21
-0.7548948792984325
 31
0.0
  0
LINE
  5
F60
  8
0
  6
CONTINUOUS
 62
     6
 10
33.39796715417453
 20
-0.7548948792984325
 30
0.0
 11
32.900501817128891
 21
-1.622378734155874
 31
0.0
  0
LINE
  5
F61
  8
0
  6
CONTINUOUS
 62
     6
 10
32.900501817128891
 20
-1.622378734155874
 30
0.0
 11
31.38777684435502
 21
-0.7548948792984325
 31
0.0
  0
ENDBLK
  5
F63
  8
0
  0
BLOCK
  8
0
  2
*U54
 70
     1
 10
0.0
 20
0.0
 30
0.0
  3
*U54
  1

  0
TEXT
  5
F9C
  8
0
 10
66.188644406388434
 20
104.9070629944322
 30
0.0
 40
3.0
  1
22
 50
90.0
  7
BYGG-014203$0$ISO
  0
ENDBLK
  5
F9E
  8
0
  0
BLOCK
  8
0
  2
*U55
 70
     1
 10
0.0
 20
0.0
 30
0.0
  3
*U55
  1

  0
TEXT
  5
FA0
  8
0
 10
40.557523376873263
 20
124.620480332884
 30
0.0
 40
3.0
  1
29
  7
BYGG-014203$0$ISO
  0
ENDBLK
  5
FA2
  8
0
  0
BLOCK
  8
0
  2
*U56
 70
     1
 10
0.0
 20
0.0
 30
0.0
  3
*U56
  1

  0
TEXT
  5
FA4
  8
0
 62
     2
 10
-15.797640089236779
 20
76.659749918906542
 30
0.0
 40
3.0
  1
78
 50
90.0
  7
BYGG-014568$0$ISO
  0
ENDBLK
  5
FA6
  8
0
  0
BLOCK
  8
0
  2
*U57
 70
     1
 10
0.0
 20
0.0
 30
0.0
  3
*U57
  1

  0
TEXT
  5
FA8
  8
0
 62
     2
 10
29.71800083585196
 20
15.18712054396388
 30
0.0
 40
3.0
  1
60
  7
BYGG-014568$0$ISO
  0
ENDBLK
  5
FAA
  8
0
  0
BLOCK
  8
0
  2
*U58
 70
     1
 10
0.0
 20
0.0
 30
0.0
  3
*U58
  1

  0
SOLID
  5
11F6
  8
SAPA_FOGBAND
  6
CONTINUOUS
 62
     6
 10
33.167853036364178
 20
35.620489490975991
 30
0.0
 11
32.949075658037557
 21
35.556935162198528
 31
0.0
 12
33.413797487559812
 22
35.556935162198528
 32
0.0
 13
33.413797487559812
 23
35.556935162198528
 33
0.0
210
0.0
220
0.0
230
1.0
  0
SOLID
  5
11F7
  8
SAPA_FOGBAND
  6
CONTINUOUS
 62
     6
 10
32.949075658037557
 20
35.556935162198528
 30
0.0
 11
32.923914182087351
 21
35.549625810896771
 31
0.0
 12
33.426543590195642
 22
35.549625810896771
 32
0.0
 13
33.426543590195642
 23
35.549625810896771
 33
0.0
210
0.0
220
0.0
230
1.0
  0
SOLID
  5
11F8
  8
SAPA_FOGBAND
  6
CONTINUOUS
 62
     6
 10
-32.949075658037557
 20
35.556935162198528
 30
0.0
 11
-33.413797487559812
 21
35.556935162198528
 31
0.0
 12
-33.426543590195642
 22
35.549625810896771
 32
0.0
 13
-33.426543590195642
 23
35.549625810896771
 33
0.0
210
0.0
220
0.0
230
-1.0
  0
SOLID
  5
11F9
  8
SAPA_FOGBAND
  6
CONTINUOUS
 62
     6
 10
32.923914182087351
 20
35.549625810896771
 30
0.0
 11
31.92064314674343
 21
34.933806129657228
 31
0.0
 12
34.500414654562363
 22
34.933806129657228
 32
0.0
 13
34.500414654562363
 23
34.933806129657228
 33
0.0
210
0.0
220
0.0
230
1.0
  0
SOLID
  5
11FA
  8
SAPA_FOGBAND
  6
CONTINUOUS
 62
     6
 10
-32.923914182087351
 20
35.549625810896771
 30
0.0
 11
-33.426543590195642
 21
35.549625810896771
 31
0.0
 12
-34.500414654562363
 22
34.933806129657228
 32
0.0
 13
-34.500414654562363
 23
34.933806129657228
 33
0.0
210
0.0
220
0.0
230
-1.0
  0
SOLID
  5
11FB
  8
SAPA_FOGBAND
  6
CONTINUOUS
 62
     6
 10
31.92064314674343
 20
34.933806129657228
 30
0.0
 11
31.852984026352161
 21
34.849314444746319
 31
0.0
 12
34.647751900138488
 22
34.849314444746319
 32
0.0
 13
34.647751900138488
 23
34.849314444746319
 33
0.0
210
0.0
220
0.0
230
1.0
  0
SOLID
  5
11FC
  8
SAPA_FOGBAND
  6
CONTINUOUS
 62
     6
 10
-31.92064314674343
 20
34.933806129657228
 30
0.0
 11
-34.500414654562363
 21
34.933806129657228
 31
0.0
 12
-34.647751900138488
 22
34.849314444746319
 32
0.0
 13
-34.647751900138488
 23
34.849314444746319
 33
0.0
210
0.0
220
0.0
230
-1.0
  0
SOLID
  5
11FD
  8
SAPA_FOGBAND
  6
CONTINUOUS
 62
     6
 10
31.852984026352161
 20
34.849314444746319
 30
0.0
 11
31.853042142773479
 21
34.845419398058652
 31
0.0
 12
34.65454411230656
 22
34.845419398058652
 32
0.0
 13
34.65454411230656
 23
34.845419398058652
 33
0.0
210
0.0
220
0.0
230
1.0
  0
SOLID
  5
11FE
  8
SAPA_FOGBAND
  6
CONTINUOUS
 62
     6
 10
-31.852984026352161
 20
34.849314444746319
 30
0.0
 11
-34.647751900138488
 21
34.849314444746319
 31
0.0
 12
-34.65454411230656
 22
34.845419398058652
 32
0.0
 13
-34.65454411230656
 23
34.845419398058652
 33
0.0
210
0.0
220
0.0
230
-1.0
  0
SOLID
  5
11FF
  8
SAPA_FOGBAND
  6
CONTINUOUS
 62
     6
 10
31.853042142773479
 20
34.845419398058652
 30
0.0
 11
31.85459890051682
 21
34.741083240499869
 31
0.0
 12
34.758240925000777
 22
34.741083240499869
 32
0.0
 13
34.758240925000777
 23
34.741083240499869
 33
0.0
210
0.0
220
0.0
230
1.0
  0
SOLID
  5
1200
  8
SAPA_FOGBAND
  6
CONTINUOUS
 62
     6
 10
-31.853042142773479
 20
34.845419398058652
 30
0.0
 11
-34.65454411230656
 21
34.845419398058652
 31
0.0
 12
-34.758240925000777
 22
34.741083240499869
 32
0.0
 13
-34.758240925000777
 23
34.741083240499869
 33
0.0
210
0.0
220
0.0
230
-1.0
  0
SOLID
  5
1201
  8
SAPA_FOGBAND
  6
CONTINUOUS
 62
     6
 10
31.85459890051682
 20
34.741083240499869
 30
0.0
 11
31.919133244165479
 21
34.665246637919878
 31
0.0
 12
34.833612820584278
 22
34.665246637919878
 32
0.0
 13
34.833612820584278
 23
34.665246637919878
 33
0.0
210
0.0
220
0.0
230
1.0
  0
SOLID
  5
1202
  8
SAPA_FOGBAND
  6
CONTINUOUS
 62
     6
 10
-31.85459890051682
 20
34.741083240499869
 30
0.0
 11
-34.758240925000777
 21
34.741083240499869
 31
0.0
 12
-34.833612820584278
 22
34.665246637919878
 32
0.0
 13
-34.833612820584278
 23
34.665246637919878
 33
0.0
210
0.0
220
0.0
230
-1.0
  0
SOLID
  5
1203
  8
SAPA_FOGBAND
  6
CONTINUOUS
 62
     6
 10
31.919133244165479
 20
34.665246637919878
 30
0.0
 11
31.924748674046612
 21
34.658647746536872
 31
0.0
 12
34.835274834560252
 22
34.658647746536872
 32
0.0
 13
34.835274834560252
 23
34.658647746536872
 33
0.0
  0
SOLID
  5
1204
  8
SAPA_FOGBAND
  6
CONTINUOUS
 62
     6
 10
-31.919133244165479
 20
34.665246637919878
 30
0.0
 11
-34.833612820584278
 21
34.665246637919878
 31
0.0
 12
-34.835274834560252
 22
34.658647746536872
 32
0.0
 13
-34.835274834560252
 23
34.658647746536872
 33
0.0
210
0.0
220
0.0
230
-1.0
  0
SOLID
  5
1205
  8
SAPA_FOGBAND
  6
CONTINUOUS
 62
     6
 10
31.924748674046612
 20
34.658647746536872
 30
0.0
 11
32.202343507601029
 21
34.499458838681882
 31
0.0
 12
34.875368567631092
 22
34.499458838681882
 32
0.0
 13
34.875368567631092
 23
34.499458838681882
 33
0.0
210
0.0
220
0.0
230
1.0
  0
SOLID
  5
1206
  8
SAPA_FOGBAND
  6
CONTINUOUS
 62
     6
 10
-31.924748674046612
 20
34.658647746536872
 30
0.0
 11
-34.835274834560252
 21
34.658647746536872
 31
0.0
 12
-34.875368567631092
 22
34.499458838681882
 32
0.0
 13
-34.875368567631092
 23
34.499458838681882
 33
0.0
210
0.0
220
0.0
230
-1.0
  0
SOLID
  5
1207
  8
SAPA_FOGBAND
  6
CONTINUOUS
 62
     6
 10
32.202343507601029
 20
34.499458838681882
 30
0.0
 11
32.156155704619557
 21
34.418916195016067
 31
0.0
 12
34.895654247704329
 22
34.418916195016067
 32
0.0
 13
34.895654247704329
 23
34.418916195016067
 33
0.0
  0
SOLID
  5
1208
  8
SAPA_FOGBAND
  6
CONTINUOUS
 62
     6
 10
-32.202343507601029
 20
34.499458838681882
 30
0.0
 11
-34.875368567631092
 21
34.499458838681882
 31
0.0
 12
-34.895654247704329
 22
34.418916195016067
 32
0.0
 13
-34.895654247704329
 23
34.418916195016067
 33
0.0
210
0.0
220
0.0
230
-1.0
  0
SOLID
  5
1209
  8
SAPA_FOGBAND
  6
CONTINUOUS
 62
     6
 10
32.156155704619557
 20
34.418916195016067
 30
0.0
 11
32.070559783874707
 21
34.269653374557457
 31
0.0
 12
34.892509405509102
 22
34.269653374557457
 32
0.0
 13
34.892509405509102
 23
34.269653374557457
 33
0.0
210
0.0
220
0.0
230
1.0
  0
SOLID
  5
120A
  8
SAPA_FOGBAND
  6
CONTINUOUS
 62
     6
 10
-32.156155704619557
 20
34.418916195016067
 30
0.0
 11
-34.895654247704329
 21
34.418916195016067
 31
0.0
 12
-34.892509405509102
 22
34.269653374557457
 32
0.0
 13
-34.892509405509102
 23
34.269653374557457
 33
0.0
210
0.0
220
0.0
230
-1.0
  0
SOLID
  5
120B
  8
SAPA_FOGBAND
  6
CONTINUOUS
 62
     6
 10
32.070559783874707
 20
34.269653374557457
 30
0.0
 11
32.060514394044297
 21
34.19217712536549
 31
0.0
 12
34.890877046045183
 22
34.19217712536549
 32
0.0
 13
34.890877046045183
 23
34.19217712536549
 33
0.0
210
0.0
220
0.0
230
1.0
  0
SOLID
  5
120C
  8
SAPA_FOGBAND
  6
CONTINUOUS
 62
     6
 10
-32.070559783874707
 20
34.269653374557457
 30
0.0
 11
-34.892509405509102
 21
34.269653374557457
 31
0.0
 12
-34.890877046045183
 22
34.19217712536549
 32
0.0
 13
-34.890877046045183
 23
34.19217712536549
 33
0.0
210
0.0
220
0.0
230
-1.0
  0
SOLID
  5
120D
  8
SAPA_FOGBAND
  6
CONTINUOUS
 62
     6
 10
32.060514394044297
 20
34.19217712536549
 30
0.0
 11
32.030805343948202
 21
34.119921666138602
 31
0.0
 12
34.889354684238569
 22
34.119921666138602
 32
0.0
 13
34.889354684238569
 23
34.119921666138602
 33
0.0
210
0.0
220
0.0
230
1.0
  0
SOLID
  5
120E
  8
SAPA_FOGBAND
  6
CONTINUOUS
 62
     6
 10
-32.060514394044297
 20
34.19217712536549
 30
0.0
 11
-34.890877046045183
 21
34.19217712536549
 31
0.0
 12
-34.889354684238569
 22
34.119921666138602
 32
0.0
 13
-34.889354684238569
 23
34.119921666138602
 33
0.0
210
0.0
220
0.0
230
-1.0
  0
SOLID
  5
120F
  8
SAPA_FOGBAND
  6
CONTINUOUS
 62
     6
 10
32.030805343948202
 20
34.119921666138602
 30
0.0
 11
31.882568506063478
 21
33.861425135860117
 31
0.0
 12
34.883908379571118
 22
33.861425135860117
 32
0.0
 13
34.883908379571118
 23
33.861425135860117
 33
0.0
210
0.0
220
0.0
230
1.0
  0
SOLID
  5
1210
  8
SAPA_FOGBAND
  6
CONTINUOUS
 62
     6
 10
-32.030805343948202
 20
34.119921666138602
 30
0.0
 11
-34.889354684238569
 21
34.119921666138602
 31
0.0
 12
-34.883908379571118
 22
33.861425135860117
 32
0.0
 13
-34.883908379571118
 23
33.861425135860117
 33
0.0
210
0.0
220
0.0
230
-1.0
  0
SOLID
  5
1211
  8
SAPA_FOGBAND
  6
CONTINUOUS
 62
     6
 10
30.902723180711629
 20
33.861425135860117
 30
0.0
 11
30.851973883778111
 21
33.77292812419563
 31
0.0
 12
31.057044945677202
 22
33.77292812419563
 32
0.0
 13
31.057044945677202
 23
33.77292812419563
 33
0.0
210
0.0
220
0.0
230
1.0
  0
SOLID
  5
1212
  8
SAPA_FOGBAND
  6
CONTINUOUS
 62
     6
 10
31.882568506063478
 20
33.861425135860117
 30
0.0
 11
31.83181920912995
 21
33.77292812419563
 31
0.0
 12
34.88204382190311
 22
33.77292812419563
 32
0.0
 13
34.88204382190311
 23
33.77292812419563
 33
0.0
210
0.0
220
0.0
230
1.0
  0
SOLID
  5
1213
  8
SAPA_FOGBAND
  6
CONTINUOUS
 62
     6
 10
-31.882568506063478
 20
33.861425135860117
 30
0.0
 11
-34.883908379571118
 21
33.861425135860117
 31
0.0
 12
-34.88204382190311
 22
33.77292812419563
 32
0.0
 13
-34.88204382190311
 23
33.77292812419563
 33
0.0
210
0.0
220
0.0
230
-1.0
  0
SOLID
  5
1214
  8
SAPA_FOGBAND
  6
CONTINUOUS
 62
     6
 10
30.851973883778111
 20
33.77292812419563
 30
0.0
 11
30.816342338013921
 21
33.710793562504108
 31
0.0
 12
31.165395668998229
 22
33.710793562504108
 32
0.0
 13
31.165395668998229
 23
33.710793562504108
 33
0.0
210
0.0
220
0.0
230
1.0
  0
SOLID
  5
1215
  8
SAPA_FOGBAND
  6
CONTINUOUS
 62
     6
 10
-30.851973883778111
 20
33.77292812419563
 30
0.0
 11
-31.057044945677202
 21
33.77292812419563
 31
0.0
 12
-31.165395668998229
 22
33.710793562504108
 32
0.0
 13
-31.165395668998229
 23
33.710793562504108
 33
0.0
210
0.0
220
0.0
230
-1.0
  0
SOLID
  5
1216
  8
SAPA_FOGBAND
  6
CONTINUOUS
 62
     6
 10
31.83181920912995
 20
33.77292812419563
 30
0.0
 11
31.78446126059843
 21
33.710793562504108
 31
0.0
 12
34.880734698902558
 22
33.710793562504108
 32
0.0
 13
34.880734698902558
 23
33.710793562504108
 33
0.0
210
0.0
220
0.0
230
1.0
  0
SOLID
  5
1217
  8
SAPA_FOGBAND
  6
CONTINUOUS
 62
     6
 10
-31.83181920912995
 20
33.77292812419563
 30
0.0
 11
-34.88204382190311
 21
33.77292812419563
 31
0.0
 12
-34.880734698902558
 22
33.710793562504108
 32
0.0
 13
-34.880734698902558
 23
33.710793562504108
 33
0.0
210
0.0
220
0.0
230
-1.0
  0
SOLID
  5
1218
  8
SAPA_FOGBAND
  6
CONTINUOUS
 62
     6
 10
30.816342338013921
 20
33.710793562504108
 30
0.0
 11
30.78893110371493
 21
33.662993642740233
 31
0.0
 12
31.24874953422411
 22
33.662993642740233
 32
0.0
 13
31.24874953422411
 23
33.662993642740233
 33
0.0
210
0.0
220
0.0
230
1.0
  0
SOLID
  5
1219
  8
SAPA_FOGBAND
  6
CONTINUOUS
 62
     6
 10
-30.816342338013921
 20
33.710793562504108
 30
0.0
 11
-31.165395668998229
 21
33.710793562504108
 31
0.0
 12
-31.24874953422411
 22
33.662993642740233
 32
0.0
 13
-31.24874953422411
 23
33.662993642740233
 33
0.0
210
0.0
220
0.0
230
-1.0
  0
SOLID
  5
121A
  8
SAPA_FOGBAND
  6
CONTINUOUS
 62
     6
 10
31.78446126059843
 20
33.710793562504108
 30
0.0
 11
31.722666060814969
 21
33.662993642740233
 31
0.0
 12
34.87972759476142
 22
33.662993642740233
 32
0.0
 13
34.87972759476142
 23
33.662993642740233
 33
0.0
210
0.0
220
0.0
230
1.0
  0
SOLID
  5
121B
  8
SAPA_FOGBAND
  6
CONTINUOUS
 62
     6
 10
-31.78446126059843
 20
33.710793562504108
 30
0.0
 11
-34.880734698902558
 21
33.710793562504108
 31
0.0
 12
-34.87972759476142
 22
33.662993642740233
 32
0.0
 13
-34.87972759476142
 23
33.662993642740233
 33
0.0
210
0.0
220
0.0
230
-1.0
  0
SOLID
  5
121C
  8
SAPA_FOGBAND
  6
CONTINUOUS
 62
     6
 10
30.78893110371493
 20
33.662993642740233
 30
0.0
 11
30.67165014604625
 21
33.45847821285313
 31
0.0
 12
31.605385103146201
 22
33.45847821285313
 32
0.0
 13
31.605385103146201
 23
33.45847821285313
 33
0.0
210
0.0
220
0.0
230
1.0
  0
SOLID
  5
121D
  8
SAPA_FOGBAND
  6
CONTINUOUS
 62
     6
 10
-30.78893110371493
 20
33.662993642740233
 30
0.0
 11
-31.24874953422411
 21
33.662993642740233
 31
0.0
 12
-31.605385103146201
 22
33.45847821285313
 32
0.0
 13
-31.605385103146201
 23
33.45847821285313
 33
0.0
210
0.0
220
0.0
230
-1.0
  0
SOLID
  5
121E
  8
SAPA_FOGBAND
  6
CONTINUOUS
 62
     6
 10
31.722666060814969
 20
33.662993642740233
 30
0.0
 11
31.605385103146201
 21
33.45847821285313
 31
0.0
 12
34.87541862651662
 22
33.45847821285313
 32
0.0
 13
34.87541862651662
 23
33.45847821285313
 33
0.0
  0
SOLID
  5
121F
  8
SAPA_FOGBAND
  6
CONTINUOUS
 62
     6
 10
-31.722666060814969
 20
33.662993642740233
 30
0.0
 11
-34.87972759476142
 21
33.662993642740233
 31
0.0
 12
-34.87541862651662
 22
33.45847821285313
 32
0.0
 13
-34.87541862651662
 23
33.45847821285313
 33
0.0
210
0.0
220
0.0
230
-1.0
  0
SOLID
  5
1220
  8
SAPA_FOGBAND
  6
CONTINUOUS
 62
     6
 10
30.67165014604625
 20
33.45847821285313
 30
0.0
 11
30.561125678932971
 21
33.265744802809081
 31
0.0
 12
34.871357895528988
 22
33.265744802809081
 32
0.0
 13
34.871357895528988
 23
33.265744802809081
 33
0.0
  0
SOLID
  5
1221
  8
SAPA_FOGBAND
  6
CONTINUOUS
 62
     6
 10
-30.67165014604625
 20
33.45847821285313
 30
0.0
 11
-34.87541862651662
 21
33.45847821285313
 31
0.0
 12
-34.871357895528988
 22
33.265744802809081
 32
0.0
 13
-34.871357895528988
 23
33.265744802809081
 33
0.0
210
0.0
220
0.0
230
-1.0
  0
SOLID
  5
1222
  8
SAPA_FOGBAND
  6
CONTINUOUS
 62
     6
 10
30.561125678932971
 20
33.265744802809081
 30
0.0
 11
30.54749928567885
 21
33.241982994161077
 31
0.0
 12
34.340077074392703
 22
33.241982994161077
 32
0.0
 13
34.340077074392703
 23
33.241982994161077
 33
0.0
210
0.0
220
0.0
230
1.0
  0
SOLID
  5
1223
  8
SAPA_FOGBAND
  6
CONTINUOUS
 62
     6
 10
-30.561125678932971
 20
33.265744802809081
 30
0.0
 11
-34.353703467646831
 21
33.265744802809081
 31
0.0
 12
-34.340077074392703
 22
33.241982994161077
 32
0.0
 13
-34.340077074392703
 23
33.241982994161077
 33
0.0
210
0.0
220
0.0
230
-1.0
  0
SOLID
  5
1224
  8
SAPA_FOGBAND
  6
CONTINUOUS
 62
     6
 10
34.353703467646831
 20
33.265744802809081
 30
0.0
 11
34.39513949108278
 21
33.241982994161077
 31
0.0
 12
34.87085725418882
 22
33.241982994161077
 32
0.0
 13
34.87085725418882
 23
33.241982994161077
 33
0.0
210
0.0
220
0.0
230
1.0
  0
SOLID
  5
1225
  8
SAPA_FOGBAND
  6
CONTINUOUS
 62
     6
 10
-34.353703467646831
 20
33.265744802809081
 30
0.0
 11
-34.871357895528988
 21
33.265744802809081
 31
0.0
 12
-34.87085725418882
 22
33.241982994161077
 32
0.0
 13
-34.87085725418882
 23
33.241982994161077
 33
0.0
210
0.0
220
0.0
230
-1.0
  0
SOLID
  5
1226
  8
SAPA_FOGBAND
  6
CONTINUOUS
 62
     6
 10
30.54749928567885
 20
33.241982994161077
 30
0.0
 11
30.48954063812522
 21
33.140914261813307
 31
0.0
 12
34.28211842683907
 22
33.140914261813307
 32
0.0
 13
34.28211842683907
 23
33.140914261813307
 33
0.0
  0
SOLID
  5
1227
  8
SAPA_FOGBAND
  6
CONTINUOUS
 62
     6
 10
-30.54749928567885
 20
33.241982994161077
 30
0.0
 11
-34.340077074392703
 21
33.241982994161077
 31
0.0
 12
-34.28211842683907
 22
33.140914261813307
 32
0.0
 13
-34.28211842683907
 23
33.140914261813307
 33
0.0
210
0.0
220
0.0
230
-1.0
  0
SOLID
  5
1228
  8
SAPA_FOGBAND
  6
CONTINUOUS
 62
     6
 10
34.39513949108278
 20
33.241982994161077
 30
0.0
 11
34.571383918611019
 21
33.140914261813307
 31
0.0
 12
34.832105315749487
 22
33.140914261813307
 32
0.0
 13
34.832105315749487
 23
33.140914261813307
 33
0.0
210
0.0
220
0.0
230
1.0
  0
SOLID
  5
1229
  8
SAPA_FOGBAND
  6
CONTINUOUS
 62
     6
 10
-34.39513949108278
 20
33.241982994161077
 30
0.0
 11
-34.87085725418882
 21
33.241982994161077
 31
0.0
 12
-34.832105315749487
 22
33.140914261813307
 32
0.0
 13
-34.832105315749487
 23
33.140914261813307
 33
0.0
210
0.0
220
0.0
230
-1.0
  0
SOLID
  5
122A
  8
SAPA_FOGBAND
  6
CONTINUOUS
 62
     6
 10
30.48954063812522
 20
33.140914261813307
 30
0.0
 11
30.469837566472538
 21
33.106555894954397
 31
0.0
 12
34.262415355186377
 22
33.106555894954397
 32
0.0
 13
34.262415355186377
 23
33.106555894954397
 33
0.0
210
0.0
220
0.0
230
1.0
  0
SOLID
  5
122B
  8
SAPA_FOGBAND
  6
CONTINUOUS
 62
     6
 10
-30.48954063812522
 20
33.140914261813307
 30
0.0
 11
-34.28211842683907
 21
33.140914261813307
 31
0.0
 12
-34.262415355186377
 22
33.106555894954397
 32
0.0
 13
-34.262415355186377
 23
33.106555894954397
 33
0.0
210
0.0
220
0.0
230
-1.0
  0
SOLID
  5
122C
  8
SAPA_FOGBAND
  6
CONTINUOUS
 62
     6
 10
34.571383918611019
 20
33.140914261813307
 30
0.0
 11
34.631298301201873
 21
33.106555894954397
 31
0.0
 12
34.771328304063651
 22
33.106555894954397
 32
0.0
 13
34.771328304063651
 23
33.106555894954397
 33
0.0
210
0.0
220
0.0
230
1.0
  0
SOLID
  5
122D
  8
SAPA_FOGBAND
  6
CONTINUOUS
 62
     6
 10
-34.571383918611019
 20
33.140914261813307
 30
0.0
 11
-34.832105315749487
 21
33.140914261813307
 31
0.0
 12
-34.771328304063651
 22
33.106555894954397
 32
0.0
 13
-34.771328304063651
 23
33.106555894954397
 33
0.0
210
0.0
220
0.0
230
-1.0
  0
SOLID
  5
122E
  8
SAPA_FOGBAND
  6
CONTINUOUS
 62
     6
 10
30.469837566472538
 20
33.106555894954397
 30
0.0
 11
30.458993062949681
 21
33.08764516687053
 31
0.0
 12
34.25157085166353
 22
33.08764516687053
 32
0.0
 13
34.25157085166353
 23
33.08764516687053
 33
0.0
  0
SOLID
  5
122F
  8
SAPA_FOGBAND
  6
CONTINUOUS
 62
     6
 10
-30.469837566472538
 20
33.106555894954397
 30
0.0
 11
-34.262415355186377
 21
33.106555894954397
 31
0.0
 12
-34.25157085166353
 22
33.08764516687053
 32
0.0
 13
-34.25157085166353
 23
33.08764516687053
 33
0.0
210
0.0
220
0.0
230
-1.0
  0
SOLID
  5
1230
  8
SAPA_FOGBAND
  6
CONTINUOUS
 62
     6
 10
-34.631298301201873
 20
33.106555894954397
 30
0.0
 11
-34.771328304063651
 21
33.106555894954397
 31
0.0
 12
-34.737876843857158
 22
33.08764516687053
 32
0.0
 13
-34.737876843857158
 23
33.08764516687053
 33
0.0
210
0.0
220
0.0
230
-1.0
  0
SOLID
  5
1231
  8
SAPA_FOGBAND
  6
CONTINUOUS
 62
     6
 10
30.458993062949681
 20
33.08764516687053
 30
0.0
 11
30.429341955206599
 21
33.035939338684528
 31
0.0
 12
34.221919743920438
 22
33.035939338684528
 32
0.0
 13
34.221919743920438
 23
33.035939338684528
 33
0.0
210
0.0
220
0.0
230
1.0
  0
SOLID
  5
1232
  8
SAPA_FOGBAND
  6
CONTINUOUS
 62
     6
 10
-30.458993062949681
 20
33.08764516687053
 30
0.0
 11
-34.25157085166353
 21
33.08764516687053
 31
0.0
 12
-34.221919743920438
 22
33.035939338684528
 32
0.0
 13
-34.221919743920438
 23
33.035939338684528
 33
0.0
210
0.0
220
0.0
230
-1.0
  0
SOLID
  5
1233
  8
SAPA_FOGBAND
  6
CONTINUOUS
 62
     6
 10
30.429341955206599
 20
33.035939338684528
 30
0.0
 11
30.40525784366617
 21
32.993941281002783
 31
0.0
 12
34.167625126319052
 22
32.993941281002783
 32
0.0
 13
34.167625126319052
 23
32.993941281002783
 33
0.0
  0
SOLID
  5
1234
  8
SAPA_FOGBAND
  6
CONTINUOUS
 62
     6
 10
-30.429341955206599
 20
33.035939338684528
 30
0.0
 11
-34.221919743920438
 21
33.035939338684528
 31
0.0
 12
-34.167625126319052
 22
32.993941281002783
 32
0.0
 13
-34.167625126319052
 23
32.993941281002783
 33
0.0
210
0.0
220
0.0
230
-1.0
  0
SOLID
  5
1235
  8
SAPA_FOGBAND
  6
CONTINUOUS
 62
     6
 10
30.40525784366617
 20
32.993941281002783
 30
0.0
 11
30.415375175085192
 21
32.988139418920632
 31
0.0
 12
34.160124544137062
 22
32.988139418920632
 32
0.0
 13
34.160124544137062
 23
32.988139418920632
 33
0.0
  0
SOLID
  5
1236
  8
SAPA_FOGBAND
  6
CONTINUOUS
 62
     6
 10
-30.40525784366617
 20
32.993941281002783
 30
0.0
 11
-34.167625126319052
 21
32.993941281002783
 31
0.0
 12
-34.160124544137062
 22
32.988139418920632
 32
0.0
 13
-34.160124544137062
 23
32.988139418920632
 33
0.0
210
0.0
220
0.0
230
-1.0
  0
SOLID
  5
1237
  8
SAPA_FOGBAND
  6
CONTINUOUS
 62
     6
 10
30.415375175085192
 20
32.988139418920632
 30
0.0
 11
30.52372589840617
 21
32.926004857229138
 31
0.0
 12
34.112766595605592
 22
32.926004857229138
 32
0.0
 13
34.112766595605592
 23
32.926004857229138
 33
0.0
210
0.0
220
0.0
230
1.0
  0
SOLID
  5
1238
  8
SAPA_FOGBAND
  6
CONTINUOUS
 62
     6
 10
-30.415375175085192
 20
32.988139418920632
 30
0.0
 11
-34.160124544137062
 21
32.988139418920632
 31
0.0
 12
-34.112766595605592
 22
32.926004857229138
 32
0.0
 13
-34.112766595605592
 23
32.926004857229138
 33
0.0
210
0.0
220
0.0
230
-1.0
  0
SOLID
  5
1239
  8
SAPA_FOGBAND
  6
CONTINUOUS
 62
     6
 10
30.52372589840617
 20
32.926004857229138
 30
0.0
 11
31.128815887516929
 21
32.57901131528547
 31
0.0
 12
33.913780460786988
 22
32.57901131528547
 32
0.0
 13
33.913780460786988
 23
32.57901131528547
 33
0.0
210
0.0
220
0.0
230
1.0
  0
SOLID
  5
123A
  8
SAPA_FOGBAND
  6
CONTINUOUS
 62
     6
 10
-30.52372589840617
 20
32.926004857229138
 30
0.0
 11
-34.112766595605592
 21
32.926004857229138
 31
0.0
 12
-33.913780460786988
 22
32.57901131528547
 32
0.0
 13
-33.913780460786988
 23
32.57901131528547
 33
0.0
210
0.0
220
0.0
230
-1.0
  0
SOLID
  5
123B
  8
SAPA_FOGBAND
  6
CONTINUOUS
 62
     6
 10
31.128815887516929
 20
32.57901131528547
 30
0.0
 11
31.254815509273321
 21
32.506755856058547
 31
0.0
 12
33.884071410690858
 22
32.506755856058547
 32
0.0
 13
33.884071410690858
 23
32.506755856058547
 33
0.0
210
0.0
220
0.0
230
1.0
  0
SOLID
  5
123C
  8
SAPA_FOGBAND
  6
CONTINUOUS
 62
     6
 10
-31.128815887516929
 20
32.57901131528547
 30
0.0
 11
-33.913780460786988
 21
32.57901131528547
 31
0.0
 12
-33.884071410690858
 22
32.506755856058547
 32
0.0
 13
-33.884071410690858
 23
32.506755856058547
 33
0.0
210
0.0
220
0.0
230
-1.0
  0
SOLID
  5
123D
  8
SAPA_FOGBAND
  6
CONTINUOUS
 62
     6
 10
31.254815509273321
 20
32.506755856058547
 30
0.0
 11
31.389919184452239
 21
32.42927960686653
 31
0.0
 12
33.87402602086042
 22
32.42927960686653
 32
0.0
 13
33.87402602086042
 23
32.42927960686653
 33
0.0
210
0.0
220
0.0
230
1.0
  0
SOLID
  5
123E
  8
SAPA_FOGBAND
  6
CONTINUOUS
 62
     6
 10
-31.254815509273321
 20
32.506755856058547
 30
0.0
 11
-33.884071410690858
 21
32.506755856058547
 31
0.0
 12
-33.87402602086042
 22
32.42927960686653
 32
0.0
 13
-33.87402602086042
 23
32.42927960686653
 33
0.0
210
0.0
220
0.0
230
-1.0
  0
SOLID
  5
123F
  8
SAPA_FOGBAND
  6
CONTINUOUS
 62
     6
 10
31.389919184452239
 20
32.42927960686653
 30
0.0
 11
31.746554753373001
 21
32.224764176980187
 31
0.0
 12
33.75674506319217
 22
32.224764176980187
 32
0.0
 13
33.75674506319217
 23
32.224764176980187
 33
0.0
210
0.0
220
0.0
230
1.0
  0
SOLID
  5
1240
  8
SAPA_FOGBAND
  6
CONTINUOUS
 62
     6
 10
-31.389919184452239
 20
32.42927960686653
 30
0.0
 11
-33.87402602086042
 21
32.42927960686653
 31
0.0
 12
-33.75674506319217
 22
32.224764176980187
 32
0.0
 13
-33.75674506319217
 23
32.224764176980187
 33
0.0
210
0.0
220
0.0
230
-1.0
  0
SOLID
  5
1241
  8
SAPA_FOGBAND
  6
CONTINUOUS
 62
     6
 10
31.746554753373001
 20
32.224764176980187
 30
0.0
 11
39.042093972723023
 21
28.041080692426871
 31
0.0
 12
41.052284282542523
 22
28.041080692426871
 32
0.0
 13
41.052284282542523
 23
28.041080692426871
 33
0.0
210
0.0
220
0.0
230
1.0
  0
SOLID
  5
1242
  8
SAPA_FOGBAND
  6
CONTINUOUS
 62
     6
 10
-31.746554753373001
 20
32.224764176980187
 30
0.0
 11
-33.75674506319217
 21
32.224764176980187
 31
0.0
 12
-41.052284282542523
 22
28.041080692426871
 32
0.0
 13
-41.052284282542523
 23
28.041080692426871
 33
0.0
210
0.0
220
0.0
230
-1.0
  0
SOLID
  5
1243
  8
SAPA_FOGBAND
  6
CONTINUOUS
 62
     6
 10
-39.042093972723023
 20
28.041080692426871
 30
0.0
 11
-41.052284282542523
 21
28.041080692426871
 31
0.0
 12
-40.554818945496891
 22
27.173596837569441
 32
0.0
 13
-40.554818945496891
 23
27.173596837569441
 33
0.0
210
0.0
220
0.0
230
-1.0
  0
LINE
  5
1244
  8
SAPA_FOGBAND
  6
CONTINUOUS
 62
     6
 10
33.167853036364178
 20
35.620489490975991
 30
0.0
 11
32.949075658037557
 21
35.556935162198528
 31
0.0
  0
LINE
  5
1245
  8
SAPA_FOGBAND
  6
CONTINUOUS
 62
     6
 10
33.413797487559812
 20
35.556935162198528
 30
0.0
 11
33.167853036364178
 21
35.620489490975991
 31
0.0
  0
LINE
  5
1246
  8
SAPA_FOGBAND
  6
CONTINUOUS
 62
     6
 10
32.949075658037557
 20
35.556935162198528
 30
0.0
 11
32.923914182087351
 21
35.549625810896771
 31
0.0
  0
LINE
  5
1247
  8
SAPA_FOGBAND
  6
CONTINUOUS
 62
     6
 10
33.413797487559812
 20
35.556935162198528
 30
0.0
 11
33.426543590195642
 21
35.549625810896771
 31
0.0
  0
LINE
  5
1248
  8
SAPA_FOGBAND
  6
CONTINUOUS
 62
     6
 10
32.923914182087351
 20
35.549625810896771
 30
0.0
 11
31.92064314674343
 21
34.933806129657228
 31
0.0
  0
LINE
  5
1249
  8
SAPA_FOGBAND
  6
CONTINUOUS
 62
     6
 10
33.426543590195642
 20
35.549625810896771
 30
0.0
 11
34.500414654562363
 21
34.933806129657228
 31
0.0
  0
LINE
  5
124A
  8
SAPA_FOGBAND
  6
CONTINUOUS
 62
     6
 10
31.92064314674343
 20
34.933806129657228
 30
0.0
 11
31.852984026352161
 21
34.849314444746319
 31
0.0
  0
LINE
  5
124B
  8
SAPA_FOGBAND
  6
CONTINUOUS
 62
     6
 10
34.500414654562363
 20
34.933806129657228
 30
0.0
 11
34.647751900138488
 21
34.849314444746319
 31
0.0
  0
LINE
  5
124C
  8
SAPA_FOGBAND
  6
CONTINUOUS
 62
     6
 10
31.852984026352161
 20
34.849314444746319
 30
0.0
 11
31.853042142773479
 21
34.845419398058652
 31
0.0
  0
LINE
  5
124D
  8
SAPA_FOGBAND
  6
CONTINUOUS
 62
     6
 10
34.647751900138488
 20
34.849314444746319
 30
0.0
 11
34.65454411230656
 21
34.845419398058652
 31
0.0
  0
LINE
  5
124E
  8
SAPA_FOGBAND
  6
CONTINUOUS
 62
     6
 10
31.853042142773479
 20
34.845419398058652
 30
0.0
 11
31.85459890051682
 21
34.741083240499869
 31
0.0
  0
LINE
  5
124F
  8
SAPA_FOGBAND
  6
CONTINUOUS
 62
     6
 10
34.65454411230656
 20
34.845419398058652
 30
0.0
 11
34.758240925000777
 21
34.741083240499869
 31
0.0
  0
LINE
  5
1250
  8
SAPA_FOGBAND
  6
CONTINUOUS
 62
     6
 10
31.85459890051682
 20
34.741083240499869
 30
0.0
 11
31.919133244165479
 21
34.665246637919878
 31
0.0
  0
LINE
  5
1251
  8
SAPA_FOGBAND
  6
CONTINUOUS
 62
     6
 10
34.758240925000777
 20
34.741083240499869
 30
0.0
 11
34.833612820584278
 21
34.665246637919878
 31
0.0
  0
LINE
  5
1252
  8
SAPA_FOGBAND
  6
CONTINUOUS
 62
     6
 10
31.919133244165479
 20
34.665246637919878
 30
0.0
 11
31.924748674046612
 21
34.658647746536872
 31
0.0
  0
LINE
  5
1253
  8
SAPA_FOGBAND
  6
CONTINUOUS
 62
     6
 10
34.833612820584278
 20
34.665246637919878
 30
0.0
 11
34.835274834560252
 21
34.658647746536872
 31
0.0
  0
LINE
  5
1254
  8
SAPA_FOGBAND
  6
CONTINUOUS
 62
     6
 10
31.924748674046612
 20
34.658647746536872
 30
0.0
 11
32.202343507601029
 21
34.499458838681882
 31
0.0
  0
LINE
  5
1255
  8
SAPA_FOGBAND
  6
CONTINUOUS
 62
     6
 10
34.835274834560252
 20
34.658647746536872
 30
0.0
 11
34.875368567631092
 21
34.499458838681882
 31
0.0
  0
LINE
  5
1256
  8
SAPA_FOGBAND
  6
CONTINUOUS
 62
     6
 10
32.202343507601029
 20
34.499458838681882
 30
0.0
 11
32.156155704619557
 21
34.418916195016067
 31
0.0
  0
LINE
  5
1257
  8
SAPA_FOGBAND
  6
CONTINUOUS
 62
     6
 10
34.875368567631092
 20
34.499458838681882
 30
0.0
 11
34.895654247704329
 21
34.418916195016067
 31
0.0
  0
LINE
  5
1258
  8
SAPA_FOGBAND
  6
CONTINUOUS
 62
     6
 10
32.156155704619557
 20
34.418916195016067
 30
0.0
 11
32.070559783874707
 21
34.269653374557457
 31
0.0
  0
LINE
  5
1259
  8
SAPA_FOGBAND
  6
CONTINUOUS
 62
     6
 10
34.895654247704329
 20
34.418916195016067
 30
0.0
 11
34.892509405509102
 21
34.269653374557457
 31
0.0
  0
LINE
  5
125A
  8
SAPA_FOGBAND
  6
CONTINUOUS
 62
     6
 10
32.070559783874707
 20
34.269653374557457
 30
0.0
 11
32.060514394044297
 21
34.19217712536549
 31
0.0
  0
LINE
  5
125B
  8
SAPA_FOGBAND
  6
CONTINUOUS
 62
     6
 10
34.892509405509102
 20
34.269653374557457
 30
0.0
 11
34.890877046045183
 21
34.19217712536549
 31
0.0
  0
LINE
  5
125C
  8
SAPA_FOGBAND
  6
CONTINUOUS
 62
     6
 10
32.060514394044297
 20
34.19217712536549
 30
0.0
 11
32.030805343948202
 21
34.119921666138602
 31
0.0
  0
LINE
  5
125D
  8
SAPA_FOGBAND
  6
CONTINUOUS
 62
     6
 10
34.890877046045183
 20
34.19217712536549
 30
0.0
 11
34.889354684238569
 21
34.119921666138602
 31
0.0
  0
LINE
  5
125E
  8
SAPA_FOGBAND
  6
CONTINUOUS
 62
     6
 10
32.030805343948202
 20
34.119921666138602
 30
0.0
 11
31.882568506063478
 21
33.861425135860117
 31
0.0
  0
LINE
  5
125F
  8
SAPA_FOGBAND
  6
CONTINUOUS
 62
     6
 10
34.889354684238569
 20
34.119921666138602
 30
0.0
 11
34.883908379571118
 21
33.861425135860117
 31
0.0
  0
LINE
  5
1260
  8
SAPA_FOGBAND
  6
CONTINUOUS
 62
     6
 10
30.902723180711629
 20
33.861425135860117
 30
0.0
 11
30.851973883778111
 21
33.77292812419563
 31
0.0
  0
LINE
  5
1261
  8
SAPA_FOGBAND
  6
CONTINUOUS
 62
     6
 10
31.057044945677202
 20
33.77292812419563
 30
0.0
 11
30.902723180711629
 21
33.861425135860117
 31
0.0
  0
LINE
  5
1262
  8
SAPA_FOGBAND
  6
CONTINUOUS
 62
     6
 10
31.882568506063478
 20
33.861425135860117
 30
0.0
 11
31.83181920912995
 21
33.77292812419563
 31
0.0
  0
LINE
  5
1263
  8
SAPA_FOGBAND
  6
CONTINUOUS
 62
     6
 10
34.883908379571118
 20
33.861425135860117
 30
0.0
 11
34.88204382190311
 21
33.77292812419563
 31
0.0
  0
LINE
  5
1264
  8
SAPA_FOGBAND
  6
CONTINUOUS
 62
     6
 10
30.851973883778111
 20
33.77292812419563
 30
0.0
 11
30.816342338013921
 21
33.710793562504108
 31
0.0
  0
LINE
  5
1265
  8
SAPA_FOGBAND
  6
CONTINUOUS
 62
     6
 10
31.057044945677202
 20
33.77292812419563
 30
0.0
 11
31.165395668998229
 21
33.710793562504108
 31
0.0
  0
LINE
  5
1266
  8
SAPA_FOGBAND
  6
CONTINUOUS
 62
     6
 10
31.83181920912995
 20
33.77292812419563
 30
0.0
 11
31.78446126059843
 21
33.710793562504108
 31
0.0
  0
LINE
  5
1267
  8
SAPA_FOGBAND
  6
CONTINUOUS
 62
     6
 10
34.88204382190311
 20
33.77292812419563
 30
0.0
 11
34.880734698902558
 21
33.710793562504108
 31
0.0
  0
LINE
  5
1268
  8
SAPA_FOGBAND
  6
CONTINUOUS
 62
     6
 10
30.816342338013921
 20
33.710793562504108
 30
0.0
 11
30.78893110371493
 21
33.662993642740233
 31
0.0
  0
LINE
  5
1269
  8
SAPA_FOGBAND
  6
CONTINUOUS
 62
     6
 10
31.165395668998229
 20
33.710793562504108
 30
0.0
 11
31.24874953422411
 21
33.662993642740233
 31
0.0
  0
LINE
  5
126A
  8
SAPA_FOGBAND
  6
CONTINUOUS
 62
     6
 10
31.78446126059843
 20
33.710793562504108
 30
0.0
 11
31.722666060814969
 21
33.662993642740233
 31
0.0
  0
LINE
  5
126B
  8
SAPA_FOGBAND
  6
CONTINUOUS
 62
     6
 10
34.880734698902558
 20
33.710793562504108
 30
0.0
 11
34.87972759476142
 21
33.662993642740233
 31
0.0
  0
LINE
  5
126C
  8
SAPA_FOGBAND
  6
CONTINUOUS
 62
     6
 10
30.78893110371493
 20
33.662993642740233
 30
0.0
 11
30.67165014604625
 21
33.45847821285313
 31
0.0
  0
LINE
  5
126D
  8
SAPA_FOGBAND
  6
CONTINUOUS
 62
     6
 10
34.87972759476142
 20
33.662993642740233
 30
0.0
 11
34.87541862651662
 21
33.45847821285313
 31
0.0
  0
LINE
  5
126E
  8
SAPA_FOGBAND
  6
CONTINUOUS
 62
     6
 10
30.67165014604625
 20
33.45847821285313
 30
0.0
 11
30.561125678932971
 21
33.265744802809081
 31
0.0
  0
LINE
  5
126F
  8
SAPA_FOGBAND
  6
CONTINUOUS
 62
     6
 10
34.87541862651662
 20
33.45847821285313
 30
0.0
 11
34.871357895528988
 21
33.265744802809081
 31
0.0
  0
LINE
  5
1270
  8
SAPA_FOGBAND
  6
CONTINUOUS
 62
     6
 10
30.561125678932971
 20
33.265744802809081
 30
0.0
 11
30.54749928567885
 21
33.241982994161077
 31
0.0
  0
LINE
  5
1271
  8
SAPA_FOGBAND
  6
CONTINUOUS
 62
     6
 10
34.871357895528988
 20
33.265744802809081
 30
0.0
 11
34.87085725418882
 21
33.241982994161077
 31
0.0
  0
LINE
  5
1272
  8
SAPA_FOGBAND
  6
CONTINUOUS
 62
     6
 10
30.54749928567885
 20
33.241982994161077
 30
0.0
 11
30.48954063812522
 21
33.140914261813307
 31
0.0
  0
LINE
  5
1273
  8
SAPA_FOGBAND
  6
CONTINUOUS
 62
     6
 10
34.340077074392703
 20
33.241982994161077
 30
0.0
 11
34.28211842683907
 21
33.140914261813307
 31
0.0
  0
LINE
  5
1274
  8
SAPA_FOGBAND
  6
CONTINUOUS
 62
     6
 10
34.39513949108278
 20
33.241982994161077
 30
0.0
 11
34.571383918611019
 21
33.140914261813307
 31
0.0
  0
LINE
  5
1275
  8
SAPA_FOGBAND
  6
CONTINUOUS
 62
     6
 10
34.87085725418882
 20
33.241982994161077
 30
0.0
 11
34.832105315749487
 21
33.140914261813307
 31
0.0
  0
LINE
  5
1276
  8
SAPA_FOGBAND
  6
CONTINUOUS
 62
     6
 10
30.48954063812522
 20
33.140914261813307
 30
0.0
 11
30.469837566472538
 21
33.106555894954397
 31
0.0
  0
LINE
  5
1277
  8
SAPA_FOGBAND
  6
CONTINUOUS
 62
     6
 10
34.28211842683907
 20
33.140914261813307
 30
0.0
 11
34.262415355186377
 21
33.106555894954397
 31
0.0
  0
LINE
  5
1278
  8
SAPA_FOGBAND
  6
CONTINUOUS
 62
     6
 10
34.571383918611019
 20
33.140914261813307
 30
0.0
 11
34.631298301201873
 21
33.106555894954397
 31
0.0
  0
LINE
  5
1279
  8
SAPA_FOGBAND
  6
CONTINUOUS
 62
     6
 10
34.832105315749487
 20
33.140914261813307
 30
0.0
 11
34.771328304063651
 21
33.106555894954397
 31
0.0
  0
LINE
  5
127A
  8
SAPA_FOGBAND
  6
CONTINUOUS
 62
     6
 10
30.469837566472538
 20
33.106555894954397
 30
0.0
 11
30.458993062949681
 21
33.08764516687053
 31
0.0
  0
LINE
  5
127B
  8
SAPA_FOGBAND
  6
CONTINUOUS
 62
     6
 10
34.262415355186377
 20
33.106555894954397
 30
0.0
 11
34.25157085166353
 21
33.08764516687053
 31
0.0
  0
LINE
  5
127C
  8
SAPA_FOGBAND
  6
CONTINUOUS
 62
     6
 10
34.771328304063651
 20
33.106555894954397
 30
0.0
 11
34.737876843857158
 21
33.08764516687053
 31
0.0
  0
LINE
  5
127D
  8
SAPA_FOGBAND
  6
CONTINUOUS
 62
     6
 10
34.737876843857158
 20
33.08764516687053
 30
0.0
 11
34.631298301201873
 21
33.106555894954397
 31
0.0
  0
LINE
  5
127E
  8
SAPA_FOGBAND
  6
CONTINUOUS
 62
     6
 10
30.458993062949681
 20
33.08764516687053
 30
0.0
 11
30.429341955206599
 21
33.035939338684528
 31
0.0
  0
LINE
  5
127F
  8
SAPA_FOGBAND
  6
CONTINUOUS
 62
     6
 10
34.25157085166353
 20
33.08764516687053
 30
0.0
 11
34.221919743920438
 21
33.035939338684528
 31
0.0
  0
LINE
  5
1280
  8
SAPA_FOGBAND
  6
CONTINUOUS
 62
     6
 10
30.429341955206599
 20
33.035939338684528
 30
0.0
 11
30.40525784366617
 21
32.993941281002783
 31
0.0
  0
LINE
  5
1281
  8
SAPA_FOGBAND
  6
CONTINUOUS
 62
     6
 10
34.221919743920438
 20
33.035939338684528
 30
0.0
 11
34.167625126319052
 21
32.993941281002783
 31
0.0
  0
LINE
  5
1282
  8
SAPA_FOGBAND
  6
CONTINUOUS
 62
     6
 10
30.40525784366617
 20
32.993941281002783
 30
0.0
 11
30.415375175085192
 21
32.988139418920632
 31
0.0
  0
LINE
  5
1283
  8
SAPA_FOGBAND
  6
CONTINUOUS
 62
     6
 10
34.167625126319052
 20
32.993941281002783
 30
0.0
 11
34.160124544137062
 21
32.988139418920632
 31
0.0
  0
LINE
  5
1284
  8
SAPA_FOGBAND
  6
CONTINUOUS
 62
     6
 10
30.415375175085192
 20
32.988139418920632
 30
0.0
 11
30.52372589840617
 21
32.926004857229138
 31
0.0
  0
LINE
  5
1285
  8
SAPA_FOGBAND
  6
CONTINUOUS
 62
     6
 10
34.160124544137062
 20
32.988139418920632
 30
0.0
 11
34.112766595605592
 21
32.926004857229138
 31
0.0
  0
LINE
  5
1286
  8
SAPA_FOGBAND
  6
CONTINUOUS
 62
     6
 10
30.52372589840617
 20
32.926004857229138
 30
0.0
 11
31.128815887516929
 21
32.57901131528547
 31
0.0
  0
LINE
  5
1287
  8
SAPA_FOGBAND
  6
CONTINUOUS
 62
     6
 10
34.112766595605592
 20
32.926004857229138
 30
0.0
 11
33.913780460786988
 21
32.57901131528547
 31
0.0
  0
LINE
  5
1288
  8
SAPA_FOGBAND
  6
CONTINUOUS
 62
     6
 10
31.128815887516929
 20
32.57901131528547
 30
0.0
 11
31.254815509273321
 21
32.506755856058547
 31
0.0
  0
LINE
  5
1289
  8
SAPA_FOGBAND
  6
CONTINUOUS
 62
     6
 10
33.913780460786988
 20
32.57901131528547
 30
0.0
 11
33.884071410690858
 21
32.506755856058547
 31
0.0
  0
LINE
  5
128A
  8
SAPA_FOGBAND
  6
CONTINUOUS
 62
     6
 10
31.254815509273321
 20
32.506755856058547
 30
0.0
 11
31.389919184452239
 21
32.42927960686653
 31
0.0
  0
LINE
  5
128B
  8
SAPA_FOGBAND
  6
CONTINUOUS
 62
     6
 10
33.884071410690858
 20
32.506755856058547
 30
0.0
 11
33.87402602086042
 21
32.42927960686653
 31
0.0
  0
LINE
  5
128C
  8
SAPA_FOGBAND
  6
CONTINUOUS
 62
     6
 10
31.389919184452239
 20
32.42927960686653
 30
0.0
 11
31.746554753373001
 21
32.224764176980187
 31
0.0
  0
LINE
  5
128D
  8
SAPA_FOGBAND
  6
CONTINUOUS
 62
     6
 10
33.87402602086042
 20
32.42927960686653
 30
0.0
 11
33.75674506319217
 21
32.224764176980187
 31
0.0
  0
LINE
  5
128E
  8
SAPA_FOGBAND
  6
CONTINUOUS
 62
     6
 10
31.746554753373001
 20
32.224764176980187
 30
0.0
 11
39.042093972723023
 21
28.041080692426871
 31
0.0
  0
LINE
  5
128F
  8
SAPA_FOGBAND
  6
CONTINUOUS
 62
     6
 10
33.75674506319217
 20
32.224764176980187
 30
0.0
 11
41.052284282542523
 21
28.041080692426871
 31
0.0
  0
LINE
  5
1290
  8
SAPA_FOGBAND
  6
CONTINUOUS
 62
     6
 10
41.052284282542523
 20
28.041080692426871
 30
0.0
 11
40.554818945496891
 21
27.173596837569441
 31
0.0
  0
LINE
  5
1291
  8
SAPA_FOGBAND
  6
CONTINUOUS
 62
     6
 10
40.554818945496891
 20
27.173596837569441
 30
0.0
 11
39.042093972723023
 21
28.041080692426871
 31
0.0
  0
ENDBLK
  5
1293
  8
0
  0
BLOCK
  8
0
  2
*X59
 70
     1
 10
0.0
 20
0.0
 30
0.0
  3
*X59
  1

  0
LINE
  5
1295
  8
0
 62
     0
 10
22.055907561184139
 20
42.312439401002251
 30
0.0
 11
23.18962108980935
 21
42.790388510686967
 31
0.0
  0
LINE
  5
1296
  8
0
 62
     0
 10
21.26589294470244
 20
42.840789160390919
 30
0.0
 11
22.979710299095359
 21
43.563297499589822
 31
0.0
  0
LINE
  5
1297
  8
0
 62
     0
 10
21.688956580248089
 20
43.880546480768572
 30
0.0
 11
22.46459093725781
 21
44.207537154350092
 31
0.0
  0
ENDBLK
  5
1299
  8
0
  0
BLOCK
  8
0
  2
*X60
 70
     1
 10
0.0
 20
0.0
 30
0.0
  3
*X60
  1

  0
LINE
  5
129B
  8
0
 62
     0
 10
21.421462165657939
 20
43.649681489353057
 30
0.0
 11
21.671204869553829
 21
43.754967613196037
 31
0.0
  0
LINE
  5
129C
  8
0
 62
     0
 10
20.38170484528024
 20
44.072745124898738
 30
0.0
 11
22.094268505099588
 21
44.79472493357374
 31
0.0
  0
LINE
  5
129D
  8
0
 62
     0
 10
19.993903679315849
 20
44.770659378071912
 30
0.0
 11
21.865375986232099
 21
45.559631636323843
 31
0.0
  0
ENDBLK
  5
129F
  8
0
  0
BLOCK
  8
0
  2
*X61
 70
     1
 10
0.0
 20
0.0
 30
0.0
  3
*X61
  1

  0
LINE
  5
12A1
  8
0
 62
     0
 10
20.114427705382809
 20
42.237261183133683
 30
0.0
 11
21.248141234008191
 21
42.715210292818483
 31
0.0
  0
LINE
  5
12A2
  8
0
 62
     0
 10
19.707644811264849
 20
42.927173150154147
 30
0.0
 11
21.421462165657939
 21
43.649681489353057
 31
0.0
  0
LINE
  5
12A3
  8
0
 62
     0
 10
19.606070488270571
 20
43.745754451317218
 30
0.0
 11
20.3817048452803
 21
44.072745124898773
 31
0.0
  0
ENDBLK
  5
12A5
  8
0
  0
BLOCK
  8
0
  2
*X62
 70
     1
 10
0.0
 20
0.0
 30
0.0
  3
*X62
  1

  0
LINE
  5
12A7
  8
0
 62
     0
 10
34.459718832580677
 20
31.920110964657109
 30
0.0
 11
36.067121493665702
 21
32.41415275355547
 31
0.0
  0
LINE
  5
12A8
  8
0
 62
     0
 10
35.245796764707052
 20
32.992110726950578
 30
0.0
 11
36.645208752057052
 21
33.422225730722907
 31
0.0
  0
LINE
  5
12A9
  8
0
 62
     0
 10
33.972331856218261
 20
32.600706073517699
 30
0.0
 11
34.825703597642189
 21
32.862993372111447
 31
0.0
  0
LINE
  5
12AA
  8
0
 62
     0
 10
35.747912867933451
 20
33.9768336585377
 30
0.0
 11
37.22329601044823
 21
34.430298707890323
 31
0.0
  0
LINE
  5
12AB
  8
0
 62
     0
 10
35.574325844359407
 20
34.753876467644808
 30
0.0
 11
36.997294017825539
 21
35.191231561663457
 31
0.0
  0
LINE
  5
12AC
  8
0
 62
     0
 10
29.930064193886441
 20
33.019089540685357
 30
0.0
 11
30.384499735884511
 21
33.158762165064459
 31
0.0
  0
LINE
  5
12AD
  8
0
 62
     0
 10
34.745786255501343
 20
35.329616924310891
 30
0.0
 11
36.054532519193799
 21
35.731865446714217
 31
0.0
  0
LINE
  5
12AE
  8
0
 62
     0
 10
28.987302695254812
 20
33.559723425736152
 30
0.0
 11
31.983397682805219
 21
34.480585486745632
 31
0.0
  0
LINE
  5
12AF
  8
0
 62
     0
 10
30.141262265316868
 20
34.74479311562699
 30
0.0
 11
31.5406742526668
 21
35.174908119399291
 31
0.0
  0
LINE
  5
12B0
  8
0
 62
     0
 10
33.803024756869831
 20
35.870250809361679
 30
0.0
 11
35.11177102056223
 21
36.272499331765047
 31
0.0
  0
LINE
  5
12B1
  8
0
 62
     0
 10
28.044541196623239
 20
34.100357310786983
 30
0.0
 11
29.746618140713451
 21
34.623497628181603
 31
0.0
  0
LINE
  5
12B2
  8
0
 62
     0
 10
30.71934952370799
 20
35.752866092794378
 30
0.0
 11
34.169009521930597
 21
36.813133216815842
 31
0.0
  0
LINE
  5
12B3
  8
0
 62
     0
 10
27.101779697991621
 20
34.640991195837771
 30
0.0
 11
28.803149840791772
 21
35.163914274962131
 31
0.0
  0
LINE
  5
12B4
  8
0
 62
     0
 10
31.4436208312685
 20
36.805869335979438
 30
0.0
 11
33.028142299790829
 21
37.292878496663683
 31
0.0
  0
LINE
  5
12B5
  8
0
 62
     0
 10
26.159018199360109
 20
35.181625080888601
 30
0.0
 11
27.86038834216026
 21
35.704548160012948
 31
0.0
  0
LINE
  5
12B6
  8
0
 62
     0
 10
25.216256700728479
 20
35.722258965939389
 30
0.0
 11
26.917626843528581
 21
36.24518204506375
 31
0.0
  0
LINE
  5
12B7
  8
0
 62
     0
 10
24.2734952020968
 20
36.262892850990177
 30
0.0
 11
25.974865344897069
 21
36.785815930114573
 31
0.0
  0
LINE
  5
12B8
  8
0
 62
     0
 10
23.330733703465292
 20
36.803526736041007
 30
0.0
 11
25.032103846265439
 21
37.326449815165361
 31
0.0
  0
LINE
  5
12B9
  8
0
 62
     0
 10
22.397364554037271
 20
37.347047398073599
 30
0.0
 11
24.089342347633821
 21
37.867083700216163
 31
0.0
  0
LINE
  5
12BA
  8
0
 62
     0
 10
21.855731877585072
 20
38.010969868919361
 30
0.0
 11
23.14827908166399
 21
38.408239544028461
 31
0.0
  0
LINE
  5
12BB
  8
0
 62
     0
 10
21.670267561273931
 20
38.78436214347586
 30
0.0
 11
22.921390845874551
 21
39.168900007335843
 31
0.0
  0
LINE
  5
12BC
  8
0
 62
     0
 10
21.52592698858723
 20
39.570393969003767
 30
0.0
 11
22.77705027318785
 21
39.95493183286375
 31
0.0
  0
LINE
  5
12BD
  8
0
 62
     0
 10
21.381586415900468
 20
40.356425794531667
 30
0.0
 11
22.632709700501088
 21
40.740963658391671
 31
0.0
  0
LINE
  5
12BE
  8
0
 62
     0
 10
20.296453246858562
 20
40.853301163784998
 30
0.0
 11
22.92586873531474
 21
41.66146277949187
 31
0.0
  0
LINE
  5
12BF
  8
0
 62
     0
 10
20.74877720160509
 20
41.822720274678232
 30
0.0
 11
22.007152351077309
 21
42.209487028897023
 31
0.0
  0
ENDBLK
  5
12C1
  8
0
  0
BLOCK
  8
0
  2
*X63
 70
     1
 10
0.0
 20
0.0
 30
0.0
  3
*X63
  1

  0
LINE
  5
12D7
  8
0
 62
     0
 10
19.483023046144861
 20
39.663274746525637
 30
0.0
 11
19.85485809114175
 21
40.035109791522594
 31
0.0
  0
LINE
  5
12D8
  8
0
 62
     0
 10
18.360491031011179
 20
39.663274746525701
 30
0.0
 11
19.794498253062379
 21
41.097281968576901
 31
0.0
  0
LINE
  5
12D9
  8
0
 62
     0
 10
17.23795901587761
 20
39.663274746525701
 30
0.0
 11
19.309875605219808
 21
41.73519133586791
 31
0.0
  0
LINE
  5
12DA
  8
0
 62
     0
 10
17.193664654678969
 20
40.741512400460749
 30
0.0
 11
19.093776265817041
 21
42.641624011598807
 31
0.0
  0
LINE
  5
12DB
  8
0
 62
     0
 10
17.193664654678908
 20
41.864044415594321
 30
0.0
 11
17.992894985606078
 21
42.663274746521502
 31
0.0
  0
ENDBLK
  5
12DD
  8
0
  0
BLOCK
  8
0
  2
*X64
 70
     1
 10
0.0
 20
0.0
 30
0.0
  3
*X64
  1

  0
LINE
  5
12DF
  8
0
 62
     0
 10
38.99493458087818
 20
44.063274746525622
 30
0.0
 11
39.193664654678862
 21
44.26200482032629
 31
0.0
  0
LINE
  5
12E0
  8
0
 62
     0
 10
37.893664654678837
 20
44.084536835459907
 30
0.0
 11
39.193664654678912
 21
45.384536835459983
 31
0.0
  0
LINE
  5
12E1
  8
0
 62
     0
 10
37.749870550611028
 20
45.063274746525728
 30
0.0
 11
39.193664654678969
 21
46.507068850593612
 31
0.0
  0
LINE
  5
12E2
  8
0
 62
     0
 10
37.893664654679021
 20
46.329600865727343
 30
0.0
 11
39.193664654678912
 21
47.629600865727241
 31
0.0
  0
LINE
  5
12E3
  8
0
 62
     0
 10
36.693664654678969
 20
45.129600865727291
 30
0.0
 11
37.827338535477338
 21
46.26327474652566
 31
0.0
  0
LINE
  5
12E4
  8
0
 62
     0
 10
37.893664654678958
 20
47.452132880860908
 30
0.0
 11
39.104806520343693
 21
48.663274746525637
 31
0.0
  0
LINE
  5
12E5
  8
0
 62
     0
 10
36.693664654678912
 20
46.25213288086087
 30
0.0
 11
36.704806520343773
 21
46.263274746525717
 31
0.0
  0
LINE
  5
12E6
  8
0
 62
     0
 10
36.782274505210069
 20
47.463274746525663
 30
0.0
 11
37.982274505210107
 21
48.663274746525701
 31
0.0
  0
LINE
  5
12E7
  8
0
 62
     0
 10
35.659742490076439
 20
47.463274746525663
 30
0.0
 11
36.859742490076428
 21
48.663274746525637
 31
0.0
  0
LINE
  5
12E8
  8
0
 62
     0
 10
34.537210474942754
 20
47.463274746525713
 30
0.0
 11
35.737210474942692
 21
48.663274746525637
 31
0.0
  0
LINE
  5
12E9
  8
0
 62
     0
 10
33.414678459809132
 20
47.463274746525713
 30
0.0
 11
34.614678459809113
 21
48.663274746525701
 31
0.0
  0
LINE
  5
12EA
  8
0
 62
     0
 10
32.292146444675502
 20
47.463274746525713
 30
0.0
 11
33.492146444675427
 21
48.663274746525637
 31
0.0
  0
LINE
  5
12EB
  8
0
 62
     0
 10
31.169614429541809
 20
47.463274746525663
 30
0.0
 11
32.369614429541798
 21
48.663274746525637
 31
0.0
  0
LINE
  5
12EC
  8
0
 62
     0
 10
30.047082414408241
 20
47.463274746525713
 30
0.0
 11
31.247082414408229
 21
48.663274746525701
 31
0.0
  0
LINE
  5
12ED
  8
0
 62
     0
 10
28.924550399274551
 20
47.463274746525663
 30
0.0
 11
30.12455039927454
 21
48.663274746525637
 31
0.0
  0
LINE
  5
12EE
  8
0
 62
     0
 10
24.12455039927039
 20
42.663274746521502
 30
0.0
 11
24.793664654678992
 21
43.332389001930089
 31
0.0
  0
LINE
  5
12EF
  8
0
 62
     0
 10
27.802018384140862
 20
47.463274746525592
 30
0.0
 11
29.002018384140861
 21
48.663274746525587
 31
0.0
  0
LINE
  5
12F0
  8
0
 62
     0
 10
23.275748220844381
 20
42.937004583229111
 30
0.0
 11
24.793664654678992
 21
44.454921017063718
 31
0.0
  0
LINE
  5
12F1
  8
0
 62
     0
 10
26.679486369007289
 20
47.463274746525663
 30
0.0
 11
27.879486369007282
 21
48.663274746525637
 31
0.0
  0
LINE
  5
12F2
  8
0
 62
     0
 10
22.981363435392609
 20
43.765151812910972
 30
0.0
 11
24.793664654678992
 21
45.577453032197347
 31
0.0
  0
LINE
  5
12F3
  8
0
 62
     0
 10
25.556954353873611
 20
47.463274746525713
 30
0.0
 11
26.756954353873599
 21
48.663274746525701
 31
0.0
  0
LINE
  5
12F4
  8
0
 62
     0
 10
22.44409166248948
 20
44.350412055141589
 30
0.0
 11
24.356954353873618
 21
46.263274746525717
 31
0.0
  0
LINE
  5
12F5
  8
0
 62
     0
 10
24.434422338739981
 20
47.463274746525713
 30
0.0
 11
25.63442233873997
 21
48.663274746525701
 31
0.0
  0
LINE
  5
12F6
  8
0
 62
     0
 10
21.677843658933568
 20
44.706696066719303
 30
0.0
 11
23.393664654678961
 21
46.422517062464692
 31
0.0
  0
LINE
  5
12F7
  8
0
 62
     0
 10
20.49075994132426
 20
44.64214436424362
 30
0.0
 11
24.511890323606281
 21
48.663274746525637
 31
0.0
  0
LINE
  5
12F8
  8
0
 62
     0
 10
18.511890323602071
 20
42.663274746521431
 30
0.0
 11
19.21479503695684
 21
43.366179459876207
 31
0.0
  0
LINE
  5
12F9
  8
0
 62
     0
 10
17.389358308468442
 20
42.663274746521431
 30
0.0
 11
23.389358308472652
 21
48.663274746525637
 31
0.0
  0
LINE
  5
12FA
  8
0
 62
     0
 10
17.193664654678908
 20
43.590113107865527
 30
0.0
 11
22.266826293339019
 21
48.663274746525637
 31
0.0
  0
LINE
  5
12FB
  8
0
 62
     0
 10
17.193664654678969
 20
44.71264512299922
 30
0.0
 11
21.14429427820534
 21
48.663274746525587
 31
0.0
  0
LINE
  5
12FC
  8
0
 62
     0
 10
17.193664654678969
 20
45.835177138132849
 30
0.0
 11
20.021762263071761
 21
48.663274746525637
 31
0.0
  0
LINE
  5
12FD
  8
0
 62
     0
 10
17.193664654678908
 20
46.957709153266542
 30
0.0
 11
18.899230247938021
 21
48.663274746525637
 31
0.0
  0
LINE
  5
12FE
  8
0
 62
     0
 10
17.193664654678908
 20
48.080241168400157
 30
0.0
 11
17.776698232804449
 21
48.663274746525701
 31
0.0
  0
ENDBLK
  5
1300
  8
0
  0
BLOCK
  8
0
  2
*X65
 70
     1
 10
0.0
 20
0.0
 30
0.0
  3
*X65
  1

  0
LINE
  5
1302
  8
0
 62
     0
 10
38.117466596011923
 20
44.063274746525622
 30
0.0
 11
39.193664654678969
 21
45.139472805192668
 31
0.0
  0
LINE
  5
1303
  8
0
 62
     0
 10
37.893664654678958
 20
44.962004820326399
 30
0.0
 11
39.193664654678862
 21
46.26200482032629
 31
0.0
  0
LINE
  5
1304
  8
0
 62
     0
 10
36.872402565744672
 20
45.063274746525728
 30
0.0
 11
39.193664654678912
 21
47.384536835459983
 31
0.0
  0
LINE
  5
1305
  8
0
 62
     0
 10
37.893664654678958
 20
47.207068850593657
 30
0.0
 11
39.193664654678969
 21
48.507068850593612
 31
0.0
  0
LINE
  5
1306
  8
0
 62
     0
 10
36.693664654678912
 20
46.007068850593612
 30
0.0
 11
36.949870550610967
 21
46.26327474652566
 31
0.0
  0
LINE
  5
1307
  8
0
 62
     0
 10
37.027338535477377
 20
47.463274746525713
 30
0.0
 11
38.227338535477372
 21
48.663274746525701
 31
0.0
  0
LINE
  5
1308
  8
0
 62
     0
 10
35.904806520343698
 20
47.463274746525663
 30
0.0
 11
37.104806520343743
 21
48.663274746525701
 31
0.0
  0
LINE
  5
1309
  8
0
 62
     0
 10
34.782274505210012
 20
47.463274746525592
 30
0.0
 11
35.982274505210121
 21
48.663274746525701
 31
0.0
  0
LINE
  5
130A
  8
0
 62
     0
 10
33.659742490076439
 20
47.463274746525663
 30
0.0
 11
34.859742490076428
 21
48.663274746525637
 31
0.0
  0
LINE
  5
130B
  8
0
 62
     0
 10
32.537210474942697
 20
47.463274746525663
 30
0.0
 11
33.737210474942692
 21
48.663274746525637
 31
0.0
  0
LINE
  5
130C
  8
0
 62
     0
 10
31.414678459809121
 20
47.463274746525713
 30
0.0
 11
32.61467845980912
 21
48.663274746525701
 31
0.0
  0
LINE
  5
130D
  8
0
 62
     0
 10
30.292146444675438
 20
47.463274746525663
 30
0.0
 11
31.492146444675431
 21
48.663274746525637
 31
0.0
  0
LINE
  5
130E
  8
0
 62
     0
 10
29.169614429541809
 20
47.463274746525663
 30
0.0
 11
30.369614429541802
 21
48.663274746525637
 31
0.0
  0
LINE
  5
130F
  8
0
 62
     0
 10
24.369614429537648
 20
42.663274746521502
 30
0.0
 11
24.793664654678992
 21
43.087324971662838
 31
0.0
  0
LINE
  5
1310
  8
0
 62
     0
 10
28.04708241440818
 20
47.463274746525663
 30
0.0
 11
29.247082414408169
 21
48.663274746525637
 31
0.0
  0
LINE
  5
1311
  8
0
 62
     0
 10
23.293159103055299
 20
42.709351435172771
 30
0.0
 11
24.793664654678938
 21
44.20985698679641
 31
0.0
  0
LINE
  5
1312
  8
0
 62
     0
 10
26.924550399274551
 20
47.463274746525663
 30
0.0
 11
28.12455039927454
 21
48.663274746525637
 31
0.0
  0
LINE
  5
1313
  8
0
 62
     0
 10
23.069200762413061
 20
43.607925109664158
 30
0.0
 11
24.793664654678992
 21
45.332389001930089
 31
0.0
  0
LINE
  5
1314
  8
0
 62
     0
 10
25.802018384140929
 20
47.463274746525663
 30
0.0
 11
27.002018384140911
 21
48.663274746525637
 31
0.0
  0
LINE
  5
1315
  8
0
 62
     0
 10
22.579670769607329
 20
44.240927131992073
 30
0.0
 11
24.60201838414093
 21
46.26327474652566
 31
0.0
  0
LINE
  5
1316
  8
0
 62
     0
 10
24.679486369007289
 20
47.463274746525663
 30
0.0
 11
25.879486369007282
 21
48.663274746525637
 31
0.0
  0
LINE
  5
1317
  8
0
 62
     0
 10
21.868203785183312
 20
44.651992162701667
 30
0.0
 11
23.479486369007301
 21
46.26327474652566
 31
0.0
  0
LINE
  5
1318
  8
0
 62
     0
 10
20.82419744003613
 20
44.730517832688228
 30
0.0
 11
23.393664654678961
 21
47.299985047331063
 31
0.0
  0
LINE
  5
1319
  8
0
 62
     0
 10
23.556954353873611
 20
47.463274746525713
 30
0.0
 11
24.756954353873599
 21
48.663274746525701
 31
0.0
  0
LINE
  5
131A
  8
0
 62
     0
 10
18.756954353869389
 20
42.663274746521502
 30
0.0
 11
19.126421568512232
 21
43.032741961164326
 31
0.0
  0
LINE
  5
131B
  8
0
 62
     0
 10
17.6344223387357
 20
42.663274746521431
 30
0.0
 11
23.63442233873997
 21
48.663274746525701
 31
0.0
  0
LINE
  5
131C
  8
0
 62
     0
 10
17.193664654678908
 20
43.345049077598283
 30
0.0
 11
22.511890323606341
 21
48.663274746525701
 31
0.0
  0
LINE
  5
131D
  8
0
 62
     0
 10
17.193664654678908
 20
44.467581092731898
 30
0.0
 11
21.389358308472708
 21
48.663274746525701
 31
0.0
  0
LINE
  5
131E
  8
0
 62
     0
 10
17.193664654678908
 20
45.590113107865527
 30
0.0
 11
20.266826293339079
 21
48.663274746525701
 31
0.0
  0
LINE
  5
131F
  8
0
 62
     0
 10
17.193664654678969
 20
46.71264512299922
 30
0.0
 11
19.14429427820539
 21
48.663274746525637
 31
0.0
  0
LINE
  5
1320
  8
0
 62
     0
 10
17.193664654678969
 20
47.835177138132842
 30
0.0
 11
18.021762263071761
 21
48.663274746525637
 31
0.0
  0
ENDBLK
  5
1322
  8
0
  0
BLOCK
  8
0
  2
*U66
 70
     1
 10
0.0
 20
0.0
 30
0.0
  3
*U66
  1

  0
SOLID
  5
135A
  8
SAPA_FOGBAND
  6
CONTINUOUS
 62
     6
 10
33.167853036364178
 20
35.620489490975991
 30
0.0
 11
32.949075658037557
 21
35.556935162198528
 31
0.0
 12
33.413797487559812
 22
35.556935162198528
 32
0.0
 13
33.413797487559812
 23
35.556935162198528
 33
0.0
210
0.0
220
0.0
230
1.0
  0
SOLID
  5
135B
  8
SAPA_FOGBAND
  6
CONTINUOUS
 62
     6
 10
32.949075658037557
 20
35.556935162198528
 30
0.0
 11
32.923914182087351
 21
35.549625810896771
 31
0.0
 12
33.426543590195642
 22
35.549625810896771
 32
0.0
 13
33.426543590195642
 23
35.549625810896771
 33
0.0
210
0.0
220
0.0
230
1.0
  0
SOLID
  5
135C
  8
SAPA_FOGBAND
  6
CONTINUOUS
 62
     6
 10
-32.949075658037557
 20
35.556935162198528
 30
0.0
 11
-33.413797487559812
 21
35.556935162198528
 31
0.0
 12
-33.426543590195642
 22
35.549625810896771
 32
0.0
 13
-33.426543590195642
 23
35.549625810896771
 33
0.0
210
0.0
220
0.0
230
-1.0
  0
SOLID
  5
135D
  8
SAPA_FOGBAND
  6
CONTINUOUS
 62
     6
 10
32.923914182087351
 20
35.549625810896771
 30
0.0
 11
31.92064314674343
 21
34.933806129657228
 31
0.0
 12
34.500414654562363
 22
34.933806129657228
 32
0.0
 13
34.500414654562363
 23
34.933806129657228
 33
0.0
210
0.0
220
0.0
230
1.0
  0
SOLID
  5
135E
  8
SAPA_FOGBAND
  6
CONTINUOUS
 62
     6
 10
-32.923914182087351
 20
35.549625810896771
 30
0.0
 11
-33.426543590195642
 21
35.549625810896771
 31
0.0
 12
-34.500414654562363
 22
34.933806129657228
 32
0.0
 13
-34.500414654562363
 23
34.933806129657228
 33
0.0
210
0.0
220
0.0
230
-1.0
  0
SOLID
  5
135F
  8
SAPA_FOGBAND
  6
CONTINUOUS
 62
     6
 10
31.92064314674343
 20
34.933806129657228
 30
0.0
 11
31.852984026352161
 21
34.849314444746319
 31
0.0
 12
34.647751900138488
 22
34.849314444746319
 32
0.0
 13
34.647751900138488
 23
34.849314444746319
 33
0.0
210
0.0
220
0.0
230
1.0
  0
SOLID
  5
1360
  8
SAPA_FOGBAND
  6
CONTINUOUS
 62
     6
 10
-31.92064314674343
 20
34.933806129657228
 30
0.0
 11
-34.500414654562363
 21
34.933806129657228
 31
0.0
 12
-34.647751900138488
 22
34.849314444746319
 32
0.0
 13
-34.647751900138488
 23
34.849314444746319
 33
0.0
210
0.0
220
0.0
230
-1.0
  0
SOLID
  5
1361
  8
SAPA_FOGBAND
  6
CONTINUOUS
 62
     6
 10
31.852984026352161
 20
34.849314444746319
 30
0.0
 11
31.853042142773479
 21
34.845419398058652
 31
0.0
 12
34.65454411230656
 22
34.845419398058652
 32
0.0
 13
34.65454411230656
 23
34.845419398058652
 33
0.0
210
0.0
220
0.0
230
1.0
  0
SOLID
  5
1362
  8
SAPA_FOGBAND
  6
CONTINUOUS
 62
     6
 10
-31.852984026352161
 20
34.849314444746319
 30
0.0
 11
-34.647751900138488
 21
34.849314444746319
 31
0.0
 12
-34.65454411230656
 22
34.845419398058652
 32
0.0
 13
-34.65454411230656
 23
34.845419398058652
 33
0.0
210
0.0
220
0.0
230
-1.0
  0
SOLID
  5
1363
  8
SAPA_FOGBAND
  6
CONTINUOUS
 62
     6
 10
31.853042142773479
 20
34.845419398058652
 30
0.0
 11
31.85459890051682
 21
34.741083240499869
 31
0.0
 12
34.758240925000777
 22
34.741083240499869
 32
0.0
 13
34.758240925000777
 23
34.741083240499869
 33
0.0
210
0.0
220
0.0
230
1.0
  0
SOLID
  5
1364
  8
SAPA_FOGBAND
  6
CONTINUOUS
 62
     6
 10
-31.853042142773479
 20
34.845419398058652
 30
0.0
 11
-34.65454411230656
 21
34.845419398058652
 31
0.0
 12
-34.758240925000777
 22
34.741083240499869
 32
0.0
 13
-34.758240925000777
 23
34.741083240499869
 33
0.0
210
0.0
220
0.0
230
-1.0
  0
SOLID
  5
1365
  8
SAPA_FOGBAND
  6
CONTINUOUS
 62
     6
 10
31.85459890051682
 20
34.741083240499869
 30
0.0
 11
31.919133244165479
 21
34.665246637919878
 31
0.0
 12
34.833612820584278
 22
34.665246637919878
 32
0.0
 13
34.833612820584278
 23
34.665246637919878
 33
0.0
210
0.0
220
0.0
230
1.0
  0
SOLID
  5
1366
  8
SAPA_FOGBAND
  6
CONTINUOUS
 62
     6
 10
-31.85459890051682
 20
34.741083240499869
 30
0.0
 11
-34.758240925000777
 21
34.741083240499869
 31
0.0
 12
-34.833612820584278
 22
34.665246637919878
 32
0.0
 13
-34.833612820584278
 23
34.665246637919878
 33
0.0
210
0.0
220
0.0
230
-1.0
  0
SOLID
  5
1367
  8
SAPA_FOGBAND
  6
CONTINUOUS
 62
     6
 10
31.919133244165479
 20
34.665246637919878
 30
0.0
 11
31.924748674046612
 21
34.658647746536872
 31
0.0
 12
34.835274834560252
 22
34.658647746536872
 32
0.0
 13
34.835274834560252
 23
34.658647746536872
 33
0.0
  0
SOLID
  5
1368
  8
SAPA_FOGBAND
  6
CONTINUOUS
 62
     6
 10
-31.919133244165479
 20
34.665246637919878
 30
0.0
 11
-34.833612820584278
 21
34.665246637919878
 31
0.0
 12
-34.835274834560252
 22
34.658647746536872
 32
0.0
 13
-34.835274834560252
 23
34.658647746536872
 33
0.0
210
0.0
220
0.0
230
-1.0
  0
SOLID
  5
1369
  8
SAPA_FOGBAND
  6
CONTINUOUS
 62
     6
 10
31.924748674046612
 20
34.658647746536872
 30
0.0
 11
32.202343507601029
 21
34.499458838681882
 31
0.0
 12
34.875368567631092
 22
34.499458838681882
 32
0.0
 13
34.875368567631092
 23
34.499458838681882
 33
0.0
210
0.0
220
0.0
230
1.0
  0
SOLID
  5
136A
  8
SAPA_FOGBAND
  6
CONTINUOUS
 62
     6
 10
-31.924748674046612
 20
34.658647746536872
 30
0.0
 11
-34.835274834560252
 21
34.658647746536872
 31
0.0
 12
-34.875368567631092
 22
34.499458838681882
 32
0.0
 13
-34.875368567631092
 23
34.499458838681882
 33
0.0
210
0.0
220
0.0
230
-1.0
  0
SOLID
  5
136B
  8
SAPA_FOGBAND
  6
CONTINUOUS
 62
     6
 10
32.202343507601029
 20
34.499458838681882
 30
0.0
 11
32.156155704619557
 21
34.418916195016067
 31
0.0
 12
34.895654247704329
 22
34.418916195016067
 32
0.0
 13
34.895654247704329
 23
34.418916195016067
 33
0.0
  0
SOLID
  5
136C
  8
SAPA_FOGBAND
  6
CONTINUOUS
 62
     6
 10
-32.202343507601029
 20
34.499458838681882
 30
0.0
 11
-34.875368567631092
 21
34.499458838681882
 31
0.0
 12
-34.895654247704329
 22
34.418916195016067
 32
0.0
 13
-34.895654247704329
 23
34.418916195016067
 33
0.0
210
0.0
220
0.0
230
-1.0
  0
SOLID
  5
136D
  8
SAPA_FOGBAND
  6
CONTINUOUS
 62
     6
 10
32.156155704619557
 20
34.418916195016067
 30
0.0
 11
32.070559783874707
 21
34.269653374557457
 31
0.0
 12
34.892509405509102
 22
34.269653374557457
 32
0.0
 13
34.892509405509102
 23
34.269653374557457
 33
0.0
210
0.0
220
0.0
230
1.0
  0
SOLID
  5
136E
  8
SAPA_FOGBAND
  6
CONTINUOUS
 62
     6
 10
-32.156155704619557
 20
34.418916195016067
 30
0.0
 11
-34.895654247704329
 21
34.418916195016067
 31
0.0
 12
-34.892509405509102
 22
34.269653374557457
 32
0.0
 13
-34.892509405509102
 23
34.269653374557457
 33
0.0
210
0.0
220
0.0
230
-1.0
  0
SOLID
  5
136F
  8
SAPA_FOGBAND
  6
CONTINUOUS
 62
     6
 10
32.070559783874707
 20
34.269653374557457
 30
0.0
 11
32.060514394044297
 21
34.19217712536549
 31
0.0
 12
34.890877046045183
 22
34.19217712536549
 32
0.0
 13
34.890877046045183
 23
34.19217712536549
 33
0.0
210
0.0
220
0.0
230
1.0
  0
SOLID
  5
1370
  8
SAPA_FOGBAND
  6
CONTINUOUS
 62
     6
 10
-32.070559783874707
 20
34.269653374557457
 30
0.0
 11
-34.892509405509102
 21
34.269653374557457
 31
0.0
 12
-34.890877046045183
 22
34.19217712536549
 32
0.0
 13
-34.890877046045183
 23
34.19217712536549
 33
0.0
210
0.0
220
0.0
230
-1.0
  0
SOLID
  5
1371
  8
SAPA_FOGBAND
  6
CONTINUOUS
 62
     6
 10
32.060514394044297
 20
34.19217712536549
 30
0.0
 11
32.030805343948202
 21
34.119921666138602
 31
0.0
 12
34.889354684238569
 22
34.119921666138602
 32
0.0
 13
34.889354684238569
 23
34.119921666138602
 33
0.0
210
0.0
220
0.0
230
1.0
  0
SOLID
  5
1372
  8
SAPA_FOGBAND
  6
CONTINUOUS
 62
     6
 10
-32.060514394044297
 20
34.19217712536549
 30
0.0
 11
-34.890877046045183
 21
34.19217712536549
 31
0.0
 12
-34.889354684238569
 22
34.119921666138602
 32
0.0
 13
-34.889354684238569
 23
34.119921666138602
 33
0.0
210
0.0
220
0.0
230
-1.0
  0
SOLID
  5
1373
  8
SAPA_FOGBAND
  6
CONTINUOUS
 62
     6
 10
32.030805343948202
 20
34.119921666138602
 30
0.0
 11
31.882568506063478
 21
33.861425135860117
 31
0.0
 12
34.883908379571118
 22
33.861425135860117
 32
0.0
 13
34.883908379571118
 23
33.861425135860117
 33
0.0
210
0.0
220
0.0
230
1.0
  0
SOLID
  5
1374
  8
SAPA_FOGBAND
  6
CONTINUOUS
 62
     6
 10
-32.030805343948202
 20
34.119921666138602
 30
0.0
 11
-34.889354684238569
 21
34.119921666138602
 31
0.0
 12
-34.883908379571118
 22
33.861425135860117
 32
0.0
 13
-34.883908379571118
 23
33.861425135860117
 33
0.0
210
0.0
220
0.0
230
-1.0
  0
SOLID
  5
1375
  8
SAPA_FOGBAND
  6
CONTINUOUS
 62
     6
 10
30.902723180711629
 20
33.861425135860117
 30
0.0
 11
30.851973883778111
 21
33.77292812419563
 31
0.0
 12
31.057044945677202
 22
33.77292812419563
 32
0.0
 13
31.057044945677202
 23
33.77292812419563
 33
0.0
210
0.0
220
0.0
230
1.0
  0
SOLID
  5
1376
  8
SAPA_FOGBAND
  6
CONTINUOUS
 62
     6
 10
31.882568506063478
 20
33.861425135860117
 30
0.0
 11
31.83181920912995
 21
33.77292812419563
 31
0.0
 12
34.88204382190311
 22
33.77292812419563
 32
0.0
 13
34.88204382190311
 23
33.77292812419563
 33
0.0
210
0.0
220
0.0
230
1.0
  0
SOLID
  5
1377
  8
SAPA_FOGBAND
  6
CONTINUOUS
 62
     6
 10
-31.882568506063478
 20
33.861425135860117
 30
0.0
 11
-34.883908379571118
 21
33.861425135860117
 31
0.0
 12
-34.88204382190311
 22
33.77292812419563
 32
0.0
 13
-34.88204382190311
 23
33.77292812419563
 33
0.0
210
0.0
220
0.0
230
-1.0
  0
SOLID
  5
1378
  8
SAPA_FOGBAND
  6
CONTINUOUS
 62
     6
 10
30.851973883778111
 20
33.77292812419563
 30
0.0
 11
30.816342338013921
 21
33.710793562504108
 31
0.0
 12
31.165395668998229
 22
33.710793562504108
 32
0.0
 13
31.165395668998229
 23
33.710793562504108
 33
0.0
210
0.0
220
0.0
230
1.0
  0
SOLID
  5
1379
  8
SAPA_FOGBAND
  6
CONTINUOUS
 62
     6
 10
-30.851973883778111
 20
33.77292812419563
 30
0.0
 11
-31.057044945677202
 21
33.77292812419563
 31
0.0
 12
-31.165395668998229
 22
33.710793562504108
 32
0.0
 13
-31.165395668998229
 23
33.710793562504108
 33
0.0
210
0.0
220
0.0
230
-1.0
  0
SOLID
  5
137A
  8
SAPA_FOGBAND
  6
CONTINUOUS
 62
     6
 10
31.83181920912995
 20
33.77292812419563
 30
0.0
 11
31.78446126059843
 21
33.710793562504108
 31
0.0
 12
34.880734698902558
 22
33.710793562504108
 32
0.0
 13
34.880734698902558
 23
33.710793562504108
 33
0.0
210
0.0
220
0.0
230
1.0
  0
SOLID
  5
137B
  8
SAPA_FOGBAND
  6
CONTINUOUS
 62
     6
 10
-31.83181920912995
 20
33.77292812419563
 30
0.0
 11
-34.88204382190311
 21
33.77292812419563
 31
0.0
 12
-34.880734698902558
 22
33.710793562504108
 32
0.0
 13
-34.880734698902558
 23
33.710793562504108
 33
0.0
210
0.0
220
0.0
230
-1.0
  0
SOLID
  5
137C
  8
SAPA_FOGBAND
  6
CONTINUOUS
 62
     6
 10
30.816342338013921
 20
33.710793562504108
 30
0.0
 11
30.78893110371493
 21
33.662993642740233
 31
0.0
 12
31.24874953422411
 22
33.662993642740233
 32
0.0
 13
31.24874953422411
 23
33.662993642740233
 33
0.0
210
0.0
220
0.0
230
1.0
  0
SOLID
  5
137D
  8
SAPA_FOGBAND
  6
CONTINUOUS
 62
     6
 10
-30.816342338013921
 20
33.710793562504108
 30
0.0
 11
-31.165395668998229
 21
33.710793562504108
 31
0.0
 12
-31.24874953422411
 22
33.662993642740233
 32
0.0
 13
-31.24874953422411
 23
33.662993642740233
 33
0.0
210
0.0
220
0.0
230
-1.0
  0
SOLID
  5
137E
  8
SAPA_FOGBAND
  6
CONTINUOUS
 62
     6
 10
31.78446126059843
 20
33.710793562504108
 30
0.0
 11
31.722666060814969
 21
33.662993642740233
 31
0.0
 12
34.87972759476142
 22
33.662993642740233
 32
0.0
 13
34.87972759476142
 23
33.662993642740233
 33
0.0
210
0.0
220
0.0
230
1.0
  0
SOLID
  5
137F
  8
SAPA_FOGBAND
  6
CONTINUOUS
 62
     6
 10
-31.78446126059843
 20
33.710793562504108
 30
0.0
 11
-34.880734698902558
 21
33.710793562504108
 31
0.0
 12
-34.87972759476142
 22
33.662993642740233
 32
0.0
 13
-34.87972759476142
 23
33.662993642740233
 33
0.0
210
0.0
220
0.0
230
-1.0
  0
SOLID
  5
1380
  8
SAPA_FOGBAND
  6
CONTINUOUS
 62
     6
 10
30.78893110371493
 20
33.662993642740233
 30
0.0
 11
30.67165014604625
 21
33.45847821285313
 31
0.0
 12
31.605385103146201
 22
33.45847821285313
 32
0.0
 13
31.605385103146201
 23
33.45847821285313
 33
0.0
210
0.0
220
0.0
230
1.0
  0
SOLID
  5
1381
  8
SAPA_FOGBAND
  6
CONTINUOUS
 62
     6
 10
-30.78893110371493
 20
33.662993642740233
 30
0.0
 11
-31.24874953422411
 21
33.662993642740233
 31
0.0
 12
-31.605385103146201
 22
33.45847821285313
 32
0.0
 13
-31.605385103146201
 23
33.45847821285313
 33
0.0
210
0.0
220
0.0
230
-1.0
  0
SOLID
  5
1382
  8
SAPA_FOGBAND
  6
CONTINUOUS
 62
     6
 10
31.722666060814969
 20
33.662993642740233
 30
0.0
 11
31.605385103146201
 21
33.45847821285313
 31
0.0
 12
34.87541862651662
 22
33.45847821285313
 32
0.0
 13
34.87541862651662
 23
33.45847821285313
 33
0.0
  0
SOLID
  5
1383
  8
SAPA_FOGBAND
  6
CONTINUOUS
 62
     6
 10
-31.722666060814969
 20
33.662993642740233
 30
0.0
 11
-34.87972759476142
 21
33.662993642740233
 31
0.0
 12
-34.87541862651662
 22
33.45847821285313
 32
0.0
 13
-34.87541862651662
 23
33.45847821285313
 33
0.0
210
0.0
220
0.0
230
-1.0
  0
SOLID
  5
1384
  8
SAPA_FOGBAND
  6
CONTINUOUS
 62
     6
 10
30.67165014604625
 20
33.45847821285313
 30
0.0
 11
30.561125678932971
 21
33.265744802809081
 31
0.0
 12
34.871357895528988
 22
33.265744802809081
 32
0.0
 13
34.871357895528988
 23
33.265744802809081
 33
0.0
  0
SOLID
  5
1385
  8
SAPA_FOGBAND
  6
CONTINUOUS
 62
     6
 10
-30.67165014604625
 20
33.45847821285313
 30
0.0
 11
-34.87541862651662
 21
33.45847821285313
 31
0.0
 12
-34.871357895528988
 22
33.265744802809081
 32
0.0
 13
-34.871357895528988
 23
33.265744802809081
 33
0.0
210
0.0
220
0.0
230
-1.0
  0
SOLID
  5
1386
  8
SAPA_FOGBAND
  6
CONTINUOUS
 62
     6
 10
30.561125678932971
 20
33.265744802809081
 30
0.0
 11
30.54749928567885
 21
33.241982994161077
 31
0.0
 12
34.340077074392703
 22
33.241982994161077
 32
0.0
 13
34.340077074392703
 23
33.241982994161077
 33
0.0
210
0.0
220
0.0
230
1.0
  0
SOLID
  5
1387
  8
SAPA_FOGBAND
  6
CONTINUOUS
 62
     6
 10
-30.561125678932971
 20
33.265744802809081
 30
0.0
 11
-34.353703467646831
 21
33.265744802809081
 31
0.0
 12
-34.340077074392703
 22
33.241982994161077
 32
0.0
 13
-34.340077074392703
 23
33.241982994161077
 33
0.0
210
0.0
220
0.0
230
-1.0
  0
SOLID
  5
1388
  8
SAPA_FOGBAND
  6
CONTINUOUS
 62
     6
 10
34.353703467646831
 20
33.265744802809081
 30
0.0
 11
34.39513949108278
 21
33.241982994161077
 31
0.0
 12
34.87085725418882
 22
33.241982994161077
 32
0.0
 13
34.87085725418882
 23
33.241982994161077
 33
0.0
210
0.0
220
0.0
230
1.0
  0
SOLID
  5
1389
  8
SAPA_FOGBAND
  6
CONTINUOUS
 62
     6
 10
-34.353703467646831
 20
33.265744802809081
 30
0.0
 11
-34.871357895528988
 21
33.265744802809081
 31
0.0
 12
-34.87085725418882
 22
33.241982994161077
 32
0.0
 13
-34.87085725418882
 23
33.241982994161077
 33
0.0
210
0.0
220
0.0
230
-1.0
  0
SOLID
  5
138A
  8
SAPA_FOGBAND
  6
CONTINUOUS
 62
     6
 10
30.54749928567885
 20
33.241982994161077
 30
0.0
 11
30.48954063812522
 21
33.140914261813307
 31
0.0
 12
34.28211842683907
 22
33.140914261813307
 32
0.0
 13
34.28211842683907
 23
33.140914261813307
 33
0.0
  0
SOLID
  5
138B
  8
SAPA_FOGBAND
  6
CONTINUOUS
 62
     6
 10
-30.54749928567885
 20
33.241982994161077
 30
0.0
 11
-34.340077074392703
 21
33.241982994161077
 31
0.0
 12
-34.28211842683907
 22
33.140914261813307
 32
0.0
 13
-34.28211842683907
 23
33.140914261813307
 33
0.0
210
0.0
220
0.0
230
-1.0
  0
SOLID
  5
138C
  8
SAPA_FOGBAND
  6
CONTINUOUS
 62
     6
 10
34.39513949108278
 20
33.241982994161077
 30
0.0
 11
34.571383918611019
 21
33.140914261813307
 31
0.0
 12
34.832105315749487
 22
33.140914261813307
 32
0.0
 13
34.832105315749487
 23
33.140914261813307
 33
0.0
210
0.0
220
0.0
230
1.0
  0
SOLID
  5
138D
  8
SAPA_FOGBAND
  6
CONTINUOUS
 62
     6
 10
-34.39513949108278
 20
33.241982994161077
 30
0.0
 11
-34.87085725418882
 21
33.241982994161077
 31
0.0
 12
-34.832105315749487
 22
33.140914261813307
 32
0.0
 13
-34.832105315749487
 23
33.140914261813307
 33
0.0
210
0.0
220
0.0
230
-1.0
  0
SOLID
  5
138E
  8
SAPA_FOGBAND
  6
CONTINUOUS
 62
     6
 10
30.48954063812522
 20
33.140914261813307
 30
0.0
 11
30.469837566472538
 21
33.106555894954397
 31
0.0
 12
34.262415355186377
 22
33.106555894954397
 32
0.0
 13
34.262415355186377
 23
33.106555894954397
 33
0.0
210
0.0
220
0.0
230
1.0
  0
SOLID
  5
138F
  8
SAPA_FOGBAND
  6
CONTINUOUS
 62
     6
 10
-30.48954063812522
 20
33.140914261813307
 30
0.0
 11
-34.28211842683907
 21
33.140914261813307
 31
0.0
 12
-34.262415355186377
 22
33.106555894954397
 32
0.0
 13
-34.262415355186377
 23
33.106555894954397
 33
0.0
210
0.0
220
0.0
230
-1.0
  0
SOLID
  5
1390
  8
SAPA_FOGBAND
  6
CONTINUOUS
 62
     6
 10
34.571383918611019
 20
33.140914261813307
 30
0.0
 11
34.631298301201873
 21
33.106555894954397
 31
0.0
 12
34.771328304063651
 22
33.106555894954397
 32
0.0
 13
34.771328304063651
 23
33.106555894954397
 33
0.0
210
0.0
220
0.0
230
1.0
  0
SOLID
  5
1391
  8
SAPA_FOGBAND
  6
CONTINUOUS
 62
     6
 10
-34.571383918611019
 20
33.140914261813307
 30
0.0
 11
-34.832105315749487
 21
33.140914261813307
 31
0.0
 12
-34.771328304063651
 22
33.106555894954397
 32
0.0
 13
-34.771328304063651
 23
33.106555894954397
 33
0.0
210
0.0
220
0.0
230
-1.0
  0
SOLID
  5
1392
  8
SAPA_FOGBAND
  6
CONTINUOUS
 62
     6
 10
30.469837566472538
 20
33.106555894954397
 30
0.0
 11
30.458993062949681
 21
33.08764516687053
 31
0.0
 12
34.25157085166353
 22
33.08764516687053
 32
0.0
 13
34.25157085166353
 23
33.08764516687053
 33
0.0
  0
SOLID
  5
1393
  8
SAPA_FOGBAND
  6
CONTINUOUS
 62
     6
 10
-30.469837566472538
 20
33.106555894954397
 30
0.0
 11
-34.262415355186377
 21
33.106555894954397
 31
0.0
 12
-34.25157085166353
 22
33.08764516687053
 32
0.0
 13
-34.25157085166353
 23
33.08764516687053
 33
0.0
210
0.0
220
0.0
230
-1.0
  0
SOLID
  5
1394
  8
SAPA_FOGBAND
  6
CONTINUOUS
 62
     6
 10
-34.631298301201873
 20
33.106555894954397
 30
0.0
 11
-34.771328304063651
 21
33.106555894954397
 31
0.0
 12
-34.737876843857158
 22
33.08764516687053
 32
0.0
 13
-34.737876843857158
 23
33.08764516687053
 33
0.0
210
0.0
220
0.0
230
-1.0
  0
SOLID
  5
1395
  8
SAPA_FOGBAND
  6
CONTINUOUS
 62
     6
 10
30.458993062949681
 20
33.08764516687053
 30
0.0
 11
30.429341955206599
 21
33.035939338684528
 31
0.0
 12
34.221919743920438
 22
33.035939338684528
 32
0.0
 13
34.221919743920438
 23
33.035939338684528
 33
0.0
210
0.0
220
0.0
230
1.0
  0
SOLID
  5
1396
  8
SAPA_FOGBAND
  6
CONTINUOUS
 62
     6
 10
-30.458993062949681
 20
33.08764516687053
 30
0.0
 11
-34.25157085166353
 21
33.08764516687053
 31
0.0
 12
-34.221919743920438
 22
33.035939338684528
 32
0.0
 13
-34.221919743920438
 23
33.035939338684528
 33
0.0
210
0.0
220
0.0
230
-1.0
  0
SOLID
  5
1397
  8
SAPA_FOGBAND
  6
CONTINUOUS
 62
     6
 10
30.429341955206599
 20
33.035939338684528
 30
0.0
 11
30.40525784366617
 21
32.993941281002783
 31
0.0
 12
34.167625126319052
 22
32.993941281002783
 32
0.0
 13
34.167625126319052
 23
32.993941281002783
 33
0.0
  0
SOLID
  5
1398
  8
SAPA_FOGBAND
  6
CONTINUOUS
 62
     6
 10
-30.429341955206599
 20
33.035939338684528
 30
0.0
 11
-34.221919743920438
 21
33.035939338684528
 31
0.0
 12
-34.167625126319052
 22
32.993941281002783
 32
0.0
 13
-34.167625126319052
 23
32.993941281002783
 33
0.0
210
0.0
220
0.0
230
-1.0
  0
SOLID
  5
1399
  8
SAPA_FOGBAND
  6
CONTINUOUS
 62
     6
 10
30.40525784366617
 20
32.993941281002783
 30
0.0
 11
30.415375175085192
 21
32.988139418920632
 31
0.0
 12
34.160124544137062
 22
32.988139418920632
 32
0.0
 13
34.160124544137062
 23
32.988139418920632
 33
0.0
  0
SOLID
  5
139A
  8
SAPA_FOGBAND
  6
CONTINUOUS
 62
     6
 10
-30.40525784366617
 20
32.993941281002783
 30
0.0
 11
-34.167625126319052
 21
32.993941281002783
 31
0.0
 12
-34.160124544137062
 22
32.988139418920632
 32
0.0
 13
-34.160124544137062
 23
32.988139418920632
 33
0.0
210
0.0
220
0.0
230
-1.0
  0
SOLID
  5
139B
  8
SAPA_FOGBAND
  6
CONTINUOUS
 62
     6
 10
30.415375175085192
 20
32.988139418920632
 30
0.0
 11
30.52372589840617
 21
32.926004857229138
 31
0.0
 12
34.112766595605592
 22
32.926004857229138
 32
0.0
 13
34.112766595605592
 23
32.926004857229138
 33
0.0
210
0.0
220
0.0
230
1.0
  0
SOLID
  5
139C
  8
SAPA_FOGBAND
  6
CONTINUOUS
 62
     6
 10
-30.415375175085192
 20
32.988139418920632
 30
0.0
 11
-34.160124544137062
 21
32.988139418920632
 31
0.0
 12
-34.112766595605592
 22
32.926004857229138
 32
0.0
 13
-34.112766595605592
 23
32.926004857229138
 33
0.0
210
0.0
220
0.0
230
-1.0
  0
SOLID
  5
139D
  8
SAPA_FOGBAND
  6
CONTINUOUS
 62
     6
 10
30.52372589840617
 20
32.926004857229138
 30
0.0
 11
31.128815887516929
 21
32.57901131528547
 31
0.0
 12
33.913780460786988
 22
32.57901131528547
 32
0.0
 13
33.913780460786988
 23
32.57901131528547
 33
0.0
210
0.0
220
0.0
230
1.0
  0
SOLID
  5
139E
  8
SAPA_FOGBAND
  6
CONTINUOUS
 62
     6
 10
-30.52372589840617
 20
32.926004857229138
 30
0.0
 11
-34.112766595605592
 21
32.926004857229138
 31
0.0
 12
-33.913780460786988
 22
32.57901131528547
 32
0.0
 13
-33.913780460786988
 23
32.57901131528547
 33
0.0
210
0.0
220
0.0
230
-1.0
  0
SOLID
  5
139F
  8
SAPA_FOGBAND
  6
CONTINUOUS
 62
     6
 10
31.128815887516929
 20
32.57901131528547
 30
0.0
 11
31.254815509273321
 21
32.506755856058547
 31
0.0
 12
33.884071410690858
 22
32.506755856058547
 32
0.0
 13
33.884071410690858
 23
32.506755856058547
 33
0.0
210
0.0
220
0.0
230
1.0
  0
SOLID
  5
13A0
  8
SAPA_FOGBAND
  6
CONTINUOUS
 62
     6
 10
-31.128815887516929
 20
32.57901131528547
 30
0.0
 11
-33.913780460786988
 21
32.57901131528547
 31
0.0
 12
-33.884071410690858
 22
32.506755856058547
 32
0.0
 13
-33.884071410690858
 23
32.506755856058547
 33
0.0
210
0.0
220
0.0
230
-1.0
  0
SOLID
  5
13A1
  8
SAPA_FOGBAND
  6
CONTINUOUS
 62
     6
 10
31.254815509273321
 20
32.506755856058547
 30
0.0
 11
31.389919184452239
 21
32.42927960686653
 31
0.0
 12
33.87402602086042
 22
32.42927960686653
 32
0.0
 13
33.87402602086042
 23
32.42927960686653
 33
0.0
210
0.0
220
0.0
230
1.0
  0
SOLID
  5
13A2
  8
SAPA_FOGBAND
  6
CONTINUOUS
 62
     6
 10
-31.254815509273321
 20
32.506755856058547
 30
0.0
 11
-33.884071410690858
 21
32.506755856058547
 31
0.0
 12
-33.87402602086042
 22
32.42927960686653
 32
0.0
 13
-33.87402602086042
 23
32.42927960686653
 33
0.0
210
0.0
220
0.0
230
-1.0
  0
SOLID
  5
13A3
  8
SAPA_FOGBAND
  6
CONTINUOUS
 62
     6
 10
31.389919184452239
 20
32.42927960686653
 30
0.0
 11
31.746554753373001
 21
32.224764176980187
 31
0.0
 12
33.75674506319217
 22
32.224764176980187
 32
0.0
 13
33.75674506319217
 23
32.224764176980187
 33
0.0
210
0.0
220
0.0
230
1.0
  0
SOLID
  5
13A4
  8
SAPA_FOGBAND
  6
CONTINUOUS
 62
     6
 10
-31.389919184452239
 20
32.42927960686653
 30
0.0
 11
-33.87402602086042
 21
32.42927960686653
 31
0.0
 12
-33.75674506319217
 22
32.224764176980187
 32
0.0
 13
-33.75674506319217
 23
32.224764176980187
 33
0.0
210
0.0
220
0.0
230
-1.0
  0
SOLID
  5
13A5
  8
SAPA_FOGBAND
  6
CONTINUOUS
 62
     6
 10
31.746554753373001
 20
32.224764176980187
 30
0.0
 11
39.042093972723023
 21
28.041080692426871
 31
0.0
 12
41.052284282542523
 22
28.041080692426871
 32
0.0
 13
41.052284282542523
 23
28.041080692426871
 33
0.0
210
0.0
220
0.0
230
1.0
  0
SOLID
  5
13A6
  8
SAPA_FOGBAND
  6
CONTINUOUS
 62
     6
 10
-31.746554753373001
 20
32.224764176980187
 30
0.0
 11
-33.75674506319217
 21
32.224764176980187
 31
0.0
 12
-41.052284282542523
 22
28.041080692426871
 32
0.0
 13
-41.052284282542523
 23
28.041080692426871
 33
0.0
210
0.0
220
0.0
230
-1.0
  0
SOLID
  5
13A7
  8
SAPA_FOGBAND
  6
CONTINUOUS
 62
     6
 10
-39.042093972723023
 20
28.041080692426871
 30
0.0
 11
-41.052284282542523
 21
28.041080692426871
 31
0.0
 12
-40.554818945496891
 22
27.173596837569441
 32
0.0
 13
-40.554818945496891
 23
27.173596837569441
 33
0.0
210
0.0
220
0.0
230
-1.0
  0
LINE
  5
13A8
  8
SAPA_FOGBAND
  6
CONTINUOUS
 62
     6
 10
33.167853036364178
 20
35.620489490975991
 30
0.0
 11
32.949075658037557
 21
35.556935162198528
 31
0.0
  0
LINE
  5
13A9
  8
SAPA_FOGBAND
  6
CONTINUOUS
 62
     6
 10
33.413797487559812
 20
35.556935162198528
 30
0.0
 11
33.167853036364178
 21
35.620489490975991
 31
0.0
  0
LINE
  5
13AA
  8
SAPA_FOGBAND
  6
CONTINUOUS
 62
     6
 10
32.949075658037557
 20
35.556935162198528
 30
0.0
 11
32.923914182087351
 21
35.549625810896771
 31
0.0
  0
LINE
  5
13AB
  8
SAPA_FOGBAND
  6
CONTINUOUS
 62
     6
 10
33.413797487559812
 20
35.556935162198528
 30
0.0
 11
33.426543590195642
 21
35.549625810896771
 31
0.0
  0
LINE
  5
13AC
  8
SAPA_FOGBAND
  6
CONTINUOUS
 62
     6
 10
32.923914182087351
 20
35.549625810896771
 30
0.0
 11
31.92064314674343
 21
34.933806129657228
 31
0.0
  0
LINE
  5
13AD
  8
SAPA_FOGBAND
  6
CONTINUOUS
 62
     6
 10
33.426543590195642
 20
35.549625810896771
 30
0.0
 11
34.500414654562363
 21
34.933806129657228
 31
0.0
  0
LINE
  5
13AE
  8
SAPA_FOGBAND
  6
CONTINUOUS
 62
     6
 10
31.92064314674343
 20
34.933806129657228
 30
0.0
 11
31.852984026352161
 21
34.849314444746319
 31
0.0
  0
LINE
  5
13AF
  8
SAPA_FOGBAND
  6
CONTINUOUS
 62
     6
 10
34.500414654562363
 20
34.933806129657228
 30
0.0
 11
34.647751900138488
 21
34.849314444746319
 31
0.0
  0
LINE
  5
13B0
  8
SAPA_FOGBAND
  6
CONTINUOUS
 62
     6
 10
31.852984026352161
 20
34.849314444746319
 30
0.0
 11
31.853042142773479
 21
34.845419398058652
 31
0.0
  0
LINE
  5
13B1
  8
SAPA_FOGBAND
  6
CONTINUOUS
 62
     6
 10
34.647751900138488
 20
34.849314444746319
 30
0.0
 11
34.65454411230656
 21
34.845419398058652
 31
0.0
  0
LINE
  5
13B2
  8
SAPA_FOGBAND
  6
CONTINUOUS
 62
     6
 10
31.853042142773479
 20
34.845419398058652
 30
0.0
 11
31.85459890051682
 21
34.741083240499869
 31
0.0
  0
LINE
  5
13B3
  8
SAPA_FOGBAND
  6
CONTINUOUS
 62
     6
 10
34.65454411230656
 20
34.845419398058652
 30
0.0
 11
34.758240925000777
 21
34.741083240499869
 31
0.0
  0
LINE
  5
13B4
  8
SAPA_FOGBAND
  6
CONTINUOUS
 62
     6
 10
31.85459890051682
 20
34.741083240499869
 30
0.0
 11
31.919133244165479
 21
34.665246637919878
 31
0.0
  0
LINE
  5
13B5
  8
SAPA_FOGBAND
  6
CONTINUOUS
 62
     6
 10
34.758240925000777
 20
34.741083240499869
 30
0.0
 11
34.833612820584278
 21
34.665246637919878
 31
0.0
  0
LINE
  5
13B6
  8
SAPA_FOGBAND
  6
CONTINUOUS
 62
     6
 10
31.919133244165479
 20
34.665246637919878
 30
0.0
 11
31.924748674046612
 21
34.658647746536872
 31
0.0
  0
LINE
  5
13B7
  8
SAPA_FOGBAND
  6
CONTINUOUS
 62
     6
 10
34.833612820584278
 20
34.665246637919878
 30
0.0
 11
34.835274834560252
 21
34.658647746536872
 31
0.0
  0
LINE
  5
13B8
  8
SAPA_FOGBAND
  6
CONTINUOUS
 62
     6
 10
31.924748674046612
 20
34.658647746536872
 30
0.0
 11
32.202343507601029
 21
34.499458838681882
 31
0.0
  0
LINE
  5
13B9
  8
SAPA_FOGBAND
  6
CONTINUOUS
 62
     6
 10
34.835274834560252
 20
34.658647746536872
 30
0.0
 11
34.875368567631092
 21
34.499458838681882
 31
0.0
  0
LINE
  5
13BA
  8
SAPA_FOGBAND
  6
CONTINUOUS
 62
     6
 10
32.202343507601029
 20
34.499458838681882
 30
0.0
 11
32.156155704619557
 21
34.418916195016067
 31
0.0
  0
LINE
  5
13BB
  8
SAPA_FOGBAND
  6
CONTINUOUS
 62
     6
 10
34.875368567631092
 20
34.499458838681882
 30
0.0
 11
34.895654247704329
 21
34.418916195016067
 31
0.0
  0
LINE
  5
13BC
  8
SAPA_FOGBAND
  6
CONTINUOUS
 62
     6
 10
32.156155704619557
 20
34.418916195016067
 30
0.0
 11
32.070559783874707
 21
34.269653374557457
 31
0.0
  0
LINE
  5
13BD
  8
SAPA_FOGBAND
  6
CONTINUOUS
 62
     6
 10
34.895654247704329
 20
34.418916195016067
 30
0.0
 11
34.892509405509102
 21
34.269653374557457
 31
0.0
  0
LINE
  5
13BE
  8
SAPA_FOGBAND
  6
CONTINUOUS
 62
     6
 10
32.070559783874707
 20
34.269653374557457
 30
0.0
 11
32.060514394044297
 21
34.19217712536549
 31
0.0
  0
LINE
  5
13BF
  8
SAPA_FOGBAND
  6
CONTINUOUS
 62
     6
 10
34.892509405509102
 20
34.269653374557457
 30
0.0
 11
34.890877046045183
 21
34.19217712536549
 31
0.0
  0
LINE
  5
13C0
  8
SAPA_FOGBAND
  6
CONTINUOUS
 62
     6
 10
32.060514394044297
 20
34.19217712536549
 30
0.0
 11
32.030805343948202
 21
34.119921666138602
 31
0.0
  0
LINE
  5
13C1
  8
SAPA_FOGBAND
  6
CONTINUOUS
 62
     6
 10
34.890877046045183
 20
34.19217712536549
 30
0.0
 11
34.889354684238569
 21
34.119921666138602
 31
0.0
  0
LINE
  5
13C2
  8
SAPA_FOGBAND
  6
CONTINUOUS
 62
     6
 10
32.030805343948202
 20
34.119921666138602
 30
0.0
 11
31.882568506063478
 21
33.861425135860117
 31
0.0
  0
LINE
  5
13C3
  8
SAPA_FOGBAND
  6
CONTINUOUS
 62
     6
 10
34.889354684238569
 20
34.119921666138602
 30
0.0
 11
34.883908379571118
 21
33.861425135860117
 31
0.0
  0
LINE
  5
13C4
  8
SAPA_FOGBAND
  6
CONTINUOUS
 62
     6
 10
30.902723180711629
 20
33.861425135860117
 30
0.0
 11
30.851973883778111
 21
33.77292812419563
 31
0.0
  0
LINE
  5
13C5
  8
SAPA_FOGBAND
  6
CONTINUOUS
 62
     6
 10
31.057044945677202
 20
33.77292812419563
 30
0.0
 11
30.902723180711629
 21
33.861425135860117
 31
0.0
  0
LINE
  5
13C6
  8
SAPA_FOGBAND
  6
CONTINUOUS
 62
     6
 10
31.882568506063478
 20
33.861425135860117
 30
0.0
 11
31.83181920912995
 21
33.77292812419563
 31
0.0
  0
LINE
  5
13C7
  8
SAPA_FOGBAND
  6
CONTINUOUS
 62
     6
 10
34.883908379571118
 20
33.861425135860117
 30
0.0
 11
34.88204382190311
 21
33.77292812419563
 31
0.0
  0
LINE
  5
13C8
  8
SAPA_FOGBAND
  6
CONTINUOUS
 62
     6
 10
30.851973883778111
 20
33.77292812419563
 30
0.0
 11
30.816342338013921
 21
33.710793562504108
 31
0.0
  0
LINE
  5
13C9
  8
SAPA_FOGBAND
  6
CONTINUOUS
 62
     6
 10
31.057044945677202
 20
33.77292812419563
 30
0.0
 11
31.165395668998229
 21
33.710793562504108
 31
0.0
  0
LINE
  5
13CA
  8
SAPA_FOGBAND
  6
CONTINUOUS
 62
     6
 10
31.83181920912995
 20
33.77292812419563
 30
0.0
 11
31.78446126059843
 21
33.710793562504108
 31
0.0
  0
LINE
  5
13CB
  8
SAPA_FOGBAND
  6
CONTINUOUS
 62
     6
 10
34.88204382190311
 20
33.77292812419563
 30
0.0
 11
34.880734698902558
 21
33.710793562504108
 31
0.0
  0
LINE
  5
13CC
  8
SAPA_FOGBAND
  6
CONTINUOUS
 62
     6
 10
30.816342338013921
 20
33.710793562504108
 30
0.0
 11
30.78893110371493
 21
33.662993642740233
 31
0.0
  0
LINE
  5
13CD
  8
SAPA_FOGBAND
  6
CONTINUOUS
 62
     6
 10
31.165395668998229
 20
33.710793562504108
 30
0.0
 11
31.24874953422411
 21
33.662993642740233
 31
0.0
  0
LINE
  5
13CE
  8
SAPA_FOGBAND
  6
CONTINUOUS
 62
     6
 10
31.78446126059843
 20
33.710793562504108
 30
0.0
 11
31.722666060814969
 21
33.662993642740233
 31
0.0
  0
LINE
  5
13CF
  8
SAPA_FOGBAND
  6
CONTINUOUS
 62
     6
 10
34.880734698902558
 20
33.710793562504108
 30
0.0
 11
34.87972759476142
 21
33.662993642740233
 31
0.0
  0
LINE
  5
13D0
  8
SAPA_FOGBAND
  6
CONTINUOUS
 62
     6
 10
30.78893110371493
 20
33.662993642740233
 30
0.0
 11
30.67165014604625
 21
33.45847821285313
 31
0.0
  0
LINE
  5
13D1
  8
SAPA_FOGBAND
  6
CONTINUOUS
 62
     6
 10
34.87972759476142
 20
33.662993642740233
 30
0.0
 11
34.87541862651662
 21
33.45847821285313
 31
0.0
  0
LINE
  5
13D2
  8
SAPA_FOGBAND
  6
CONTINUOUS
 62
     6
 10
30.67165014604625
 20
33.45847821285313
 30
0.0
 11
30.561125678932971
 21
33.265744802809081
 31
0.0
  0
LINE
  5
13D3
  8
SAPA_FOGBAND
  6
CONTINUOUS
 62
     6
 10
34.87541862651662
 20
33.45847821285313
 30
0.0
 11
34.871357895528988
 21
33.265744802809081
 31
0.0
  0
LINE
  5
13D4
  8
SAPA_FOGBAND
  6
CONTINUOUS
 62
     6
 10
30.561125678932971
 20
33.265744802809081
 30
0.0
 11
30.54749928567885
 21
33.241982994161077
 31
0.0
  0
LINE
  5
13D5
  8
SAPA_FOGBAND
  6
CONTINUOUS
 62
     6
 10
34.871357895528988
 20
33.265744802809081
 30
0.0
 11
34.87085725418882
 21
33.241982994161077
 31
0.0
  0
LINE
  5
13D6
  8
SAPA_FOGBAND
  6
CONTINUOUS
 62
     6
 10
30.54749928567885
 20
33.241982994161077
 30
0.0
 11
30.48954063812522
 21
33.140914261813307
 31
0.0
  0
LINE
  5
13D7
  8
SAPA_FOGBAND
  6
CONTINUOUS
 62
     6
 10
34.340077074392703
 20
33.241982994161077
 30
0.0
 11
34.28211842683907
 21
33.140914261813307
 31
0.0
  0
LINE
  5
13D8
  8
SAPA_FOGBAND
  6
CONTINUOUS
 62
     6
 10
34.39513949108278
 20
33.241982994161077
 30
0.0
 11
34.571383918611019
 21
33.140914261813307
 31
0.0
  0
LINE
  5
13D9
  8
SAPA_FOGBAND
  6
CONTINUOUS
 62
     6
 10
34.87085725418882
 20
33.241982994161077
 30
0.0
 11
34.832105315749487
 21
33.140914261813307
 31
0.0
  0
LINE
  5
13DA
  8
SAPA_FOGBAND
  6
CONTINUOUS
 62
     6
 10
30.48954063812522
 20
33.140914261813307
 30
0.0
 11
30.469837566472538
 21
33.106555894954397
 31
0.0
  0
LINE
  5
13DB
  8
SAPA_FOGBAND
  6
CONTINUOUS
 62
     6
 10
34.28211842683907
 20
33.140914261813307
 30
0.0
 11
34.262415355186377
 21
33.106555894954397
 31
0.0
  0
LINE
  5
13DC
  8
SAPA_FOGBAND
  6
CONTINUOUS
 62
     6
 10
34.571383918611019
 20
33.140914261813307
 30
0.0
 11
34.631298301201873
 21
33.106555894954397
 31
0.0
  0
LINE
  5
13DD
  8
SAPA_FOGBAND
  6
CONTINUOUS
 62
     6
 10
34.832105315749487
 20
33.140914261813307
 30
0.0
 11
34.771328304063651
 21
33.106555894954397
 31
0.0
  0
LINE
  5
13DE
  8
SAPA_FOGBAND
  6
CONTINUOUS
 62
     6
 10
30.469837566472538
 20
33.106555894954397
 30
0.0
 11
30.458993062949681
 21
33.08764516687053
 31
0.0
  0
LINE
  5
13DF
  8
SAPA_FOGBAND
  6
CONTINUOUS
 62
     6
 10
34.262415355186377
 20
33.106555894954397
 30
0.0
 11
34.25157085166353
 21
33.08764516687053
 31
0.0
  0
LINE
  5
13E0
  8
SAPA_FOGBAND
  6
CONTINUOUS
 62
     6
 10
34.771328304063651
 20
33.106555894954397
 30
0.0
 11
34.737876843857158
 21
33.08764516687053
 31
0.0
  0
LINE
  5
13E1
  8
SAPA_FOGBAND
  6
CONTINUOUS
 62
     6
 10
34.737876843857158
 20
33.08764516687053
 30
0.0
 11
34.631298301201873
 21
33.106555894954397
 31
0.0
  0
LINE
  5
13E2
  8
SAPA_FOGBAND
  6
CONTINUOUS
 62
     6
 10
30.458993062949681
 20
33.08764516687053
 30
0.0
 11
30.429341955206599
 21
33.035939338684528
 31
0.0
  0
LINE
  5
13E3
  8
SAPA_FOGBAND
  6
CONTINUOUS
 62
     6
 10
34.25157085166353
 20
33.08764516687053
 30
0.0
 11
34.221919743920438
 21
33.035939338684528
 31
0.0
  0
LINE
  5
13E4
  8
SAPA_FOGBAND
  6
CONTINUOUS
 62
     6
 10
30.429341955206599
 20
33.035939338684528
 30
0.0
 11
30.40525784366617
 21
32.993941281002783
 31
0.0
  0
LINE
  5
13E5
  8
SAPA_FOGBAND
  6
CONTINUOUS
 62
     6
 10
34.221919743920438
 20
33.035939338684528
 30
0.0
 11
34.167625126319052
 21
32.993941281002783
 31
0.0
  0
LINE
  5
13E6
  8
SAPA_FOGBAND
  6
CONTINUOUS
 62
     6
 10
30.40525784366617
 20
32.993941281002783
 30
0.0
 11
30.415375175085192
 21
32.988139418920632
 31
0.0
  0
LINE
  5
13E7
  8
SAPA_FOGBAND
  6
CONTINUOUS
 62
     6
 10
34.167625126319052
 20
32.993941281002783
 30
0.0
 11
34.160124544137062
 21
32.988139418920632
 31
0.0
  0
LINE
  5
13E8
  8
SAPA_FOGBAND
  6
CONTINUOUS
 62
     6
 10
30.415375175085192
 20
32.988139418920632
 30
0.0
 11
30.52372589840617
 21
32.926004857229138
 31
0.0
  0
LINE
  5
13E9
  8
SAPA_FOGBAND
  6
CONTINUOUS
 62
     6
 10
34.160124544137062
 20
32.988139418920632
 30
0.0
 11
34.112766595605592
 21
32.926004857229138
 31
0.0
  0
LINE
  5
13EA
  8
SAPA_FOGBAND
  6
CONTINUOUS
 62
     6
 10
30.52372589840617
 20
32.926004857229138
 30
0.0
 11
31.128815887516929
 21
32.57901131528547
 31
0.0
  0
LINE
  5
13EB
  8
SAPA_FOGBAND
  6
CONTINUOUS
 62
     6
 10
34.112766595605592
 20
32.926004857229138
 30
0.0
 11
33.913780460786988
 21
32.57901131528547
 31
0.0
  0
LINE
  5
13EC
  8
SAPA_FOGBAND
  6
CONTINUOUS
 62
     6
 10
31.128815887516929
 20
32.57901131528547
 30
0.0
 11
31.254815509273321
 21
32.506755856058547
 31
0.0
  0
LINE
  5
13ED
  8
SAPA_FOGBAND
  6
CONTINUOUS
 62
     6
 10
33.913780460786988
 20
32.57901131528547
 30
0.0
 11
33.884071410690858
 21
32.506755856058547
 31
0.0
  0
LINE
  5
13EE
  8
SAPA_FOGBAND
  6
CONTINUOUS
 62
     6
 10
31.254815509273321
 20
32.506755856058547
 30
0.0
 11
31.389919184452239
 21
32.42927960686653
 31
0.0
  0
LINE
  5
13EF
  8
SAPA_FOGBAND
  6
CONTINUOUS
 62
     6
 10
33.884071410690858
 20
32.506755856058547
 30
0.0
 11
33.87402602086042
 21
32.42927960686653
 31
0.0
  0
LINE
  5
13F0
  8
SAPA_FOGBAND
  6
CONTINUOUS
 62
     6
 10
31.389919184452239
 20
32.42927960686653
 30
0.0
 11
31.746554753373001
 21
32.224764176980187
 31
0.0
  0
LINE
  5
13F1
  8
SAPA_FOGBAND
  6
CONTINUOUS
 62
     6
 10
33.87402602086042
 20
32.42927960686653
 30
0.0
 11
33.75674506319217
 21
32.224764176980187
 31
0.0
  0
LINE
  5
13F2
  8
SAPA_FOGBAND
  6
CONTINUOUS
 62
     6
 10
31.746554753373001
 20
32.224764176980187
 30
0.0
 11
39.042093972723023
 21
28.041080692426871
 31
0.0
  0
LINE
  5
13F3
  8
SAPA_FOGBAND
  6
CONTINUOUS
 62
     6
 10
33.75674506319217
 20
32.224764176980187
 30
0.0
 11
41.052284282542523
 21
28.041080692426871
 31
0.0
  0
LINE
  5
13F4
  8
SAPA_FOGBAND
  6
CONTINUOUS
 62
     6
 10
41.052284282542523
 20
28.041080692426871
 30
0.0
 11
40.554818945496891
 21
27.173596837569441
 31
0.0
  0
LINE
  5
13F5
  8
SAPA_FOGBAND
  6
CONTINUOUS
 62
     6
 10
40.554818945496891
 20
27.173596837569441
 30
0.0
 11
39.042093972723023
 21
28.041080692426871
 31
0.0
  0
ENDBLK
  5
13F7
  8
0
  0
BLOCK
  8
0
  2
*X67
 70
     1
 10
0.0
 20
0.0
 30
0.0
  3
*X67
  1

  0
LINE
  5
13F9
  8
0
 62
     0
 10
22.055907561184139
 20
42.312439401002251
 30
0.0
 11
23.18962108980935
 21
42.790388510686967
 31
0.0
  0
LINE
  5
13FA
  8
0
 62
     0
 10
21.26589294470244
 20
42.840789160390919
 30
0.0
 11
22.979710299095359
 21
43.563297499589822
 31
0.0
  0
LINE
  5
13FB
  8
0
 62
     0
 10
21.688956580248089
 20
43.880546480768572
 30
0.0
 11
22.46459093725781
 21
44.207537154350092
 31
0.0
  0
ENDBLK
  5
13FD
  8
0
  0
BLOCK
  8
0
  2
*X68
 70
     1
 10
0.0
 20
0.0
 30
0.0
  3
*X68
  1

  0
LINE
  5
13FF
  8
0
 62
     0
 10
21.421462165657939
 20
43.649681489353057
 30
0.0
 11
21.671204869553829
 21
43.754967613196037
 31
0.0
  0
LINE
  5
1400
  8
0
 62
     0
 10
20.38170484528024
 20
44.072745124898738
 30
0.0
 11
22.094268505099588
 21
44.79472493357374
 31
0.0
  0
LINE
  5
1401
  8
0
 62
     0
 10
19.993903679315849
 20
44.770659378071912
 30
0.0
 11
21.865375986232099
 21
45.559631636323843
 31
0.0
  0
ENDBLK
  5
1403
  8
0
  0
BLOCK
  8
0
  2
*X69
 70
     1
 10
0.0
 20
0.0
 30
0.0
  3
*X69
  1

  0
LINE
  5
1405
  8
0
 62
     0
 10
20.114427705382809
 20
42.237261183133683
 30
0.0
 11
21.248141234008191
 21
42.715210292818483
 31
0.0
  0
LINE
  5
1406
  8
0
 62
     0
 10
19.707644811264849
 20
42.927173150154147
 30
0.0
 11
21.421462165657939
 21
43.649681489353057
 31
0.0
  0
LINE
  5
1407
  8
0
 62
     0
 10
19.606070488270571
 20
43.745754451317218
 30
0.0
 11
20.3817048452803
 21
44.072745124898773
 31
0.0
  0
ENDBLK
  5
1409
  8
0
  0
BLOCK
  8
0
  2
*X70
 70
     1
 10
0.0
 20
0.0
 30
0.0
  3
*X70
  1

  0
LINE
  5
140B
  8
0
 62
     0
 10
34.459718832580677
 20
31.920110964657109
 30
0.0
 11
36.067121493665702
 21
32.41415275355547
 31
0.0
  0
LINE
  5
140C
  8
0
 62
     0
 10
35.245796764707052
 20
32.992110726950578
 30
0.0
 11
36.645208752057052
 21
33.422225730722907
 31
0.0
  0
LINE
  5
140D
  8
0
 62
     0
 10
33.972331856218261
 20
32.600706073517699
 30
0.0
 11
34.825703597642189
 21
32.862993372111447
 31
0.0
  0
LINE
  5
140E
  8
0
 62
     0
 10
35.747912867933451
 20
33.9768336585377
 30
0.0
 11
37.22329601044823
 21
34.430298707890323
 31
0.0
  0
LINE
  5
140F
  8
0
 62
     0
 10
35.574325844359407
 20
34.753876467644808
 30
0.0
 11
36.997294017825539
 21
35.191231561663457
 31
0.0
  0
LINE
  5
1410
  8
0
 62
     0
 10
29.930064193886441
 20
33.019089540685357
 30
0.0
 11
30.384499735884511
 21
33.158762165064459
 31
0.0
  0
LINE
  5
1411
  8
0
 62
     0
 10
34.745786255501343
 20
35.329616924310891
 30
0.0
 11
36.054532519193799
 21
35.731865446714217
 31
0.0
  0
LINE
  5
1412
  8
0
 62
     0
 10
28.987302695254812
 20
33.559723425736152
 30
0.0
 11
31.983397682805219
 21
34.480585486745632
 31
0.0
  0
LINE
  5
1413
  8
0
 62
     0
 10
30.141262265316868
 20
34.74479311562699
 30
0.0
 11
31.5406742526668
 21
35.174908119399291
 31
0.0
  0
LINE
  5
1414
  8
0
 62
     0
 10
33.803024756869831
 20
35.870250809361679
 30
0.0
 11
35.11177102056223
 21
36.272499331765047
 31
0.0
  0
LINE
  5
1415
  8
0
 62
     0
 10
28.044541196623239
 20
34.100357310786983
 30
0.0
 11
29.746618140713451
 21
34.623497628181603
 31
0.0
  0
LINE
  5
1416
  8
0
 62
     0
 10
30.71934952370799
 20
35.752866092794378
 30
0.0
 11
34.169009521930597
 21
36.813133216815842
 31
0.0
  0
LINE
  5
1417
  8
0
 62
     0
 10
27.101779697991621
 20
34.640991195837771
 30
0.0
 11
28.803149840791772
 21
35.163914274962131
 31
0.0
  0
LINE
  5
1418
  8
0
 62
     0
 10
31.4436208312685
 20
36.805869335979438
 30
0.0
 11
33.028142299790829
 21
37.292878496663683
 31
0.0
  0
LINE
  5
1419
  8
0
 62
     0
 10
26.159018199360109
 20
35.181625080888601
 30
0.0
 11
27.86038834216026
 21
35.704548160012948
 31
0.0
  0
LINE
  5
141A
  8
0
 62
     0
 10
25.216256700728479
 20
35.722258965939389
 30
0.0
 11
26.917626843528581
 21
36.24518204506375
 31
0.0
  0
LINE
  5
141B
  8
0
 62
     0
 10
24.2734952020968
 20
36.262892850990177
 30
0.0
 11
25.974865344897069
 21
36.785815930114573
 31
0.0
  0
LINE
  5
141C
  8
0
 62
     0
 10
23.330733703465292
 20
36.803526736041007
 30
0.0
 11
25.032103846265439
 21
37.326449815165361
 31
0.0
  0
LINE
  5
141D
  8
0
 62
     0
 10
22.397364554037271
 20
37.347047398073599
 30
0.0
 11
24.089342347633821
 21
37.867083700216163
 31
0.0
  0
LINE
  5
141E
  8
0
 62
     0
 10
21.855731877585072
 20
38.010969868919361
 30
0.0
 11
23.14827908166399
 21
38.408239544028461
 31
0.0
  0
LINE
  5
141F
  8
0
 62
     0
 10
21.670267561273931
 20
38.78436214347586
 30
0.0
 11
22.921390845874551
 21
39.168900007335843
 31
0.0
  0
LINE
  5
1420
  8
0
 62
     0
 10
21.52592698858723
 20
39.570393969003767
 30
0.0
 11
22.77705027318785
 21
39.95493183286375
 31
0.0
  0
LINE
  5
1421
  8
0
 62
     0
 10
21.381586415900468
 20
40.356425794531667
 30
0.0
 11
22.632709700501088
 21
40.740963658391671
 31
0.0
  0
LINE
  5
1422
  8
0
 62
     0
 10
20.296453246858562
 20
40.853301163784998
 30
0.0
 11
22.92586873531474
 21
41.66146277949187
 31
0.0
  0
LINE
  5
1423
  8
0
 62
     0
 10
20.74877720160509
 20
41.822720274678232
 30
0.0
 11
22.007152351077309
 21
42.209487028897023
 31
0.0
  0
ENDBLK
  5
1425
  8
0
  0
BLOCK
  8
0
  2
*X71
 70
     1
 10
0.0
 20
0.0
 30
0.0
  3
*X71
  1

  0
LINE
  5
143B
  8
0
 62
     0
 10
19.483023046144861
 20
39.663274746525637
 30
0.0
 11
19.85485809114175
 21
40.035109791522594
 31
0.0
  0
LINE
  5
143C
  8
0
 62
     0
 10
18.360491031011179
 20
39.663274746525701
 30
0.0
 11
19.794498253062379
 21
41.097281968576901
 31
0.0
  0
LINE
  5
143D
  8
0
 62
     0
 10
17.23795901587761
 20
39.663274746525701
 30
0.0
 11
19.309875605219808
 21
41.73519133586791
 31
0.0
  0
LINE
  5
143E
  8
0
 62
     0
 10
17.193664654678969
 20
40.741512400460749
 30
0.0
 11
19.093776265817041
 21
42.641624011598807
 31
0.0
  0
LINE
  5
143F
  8
0
 62
     0
 10
17.193664654678908
 20
41.864044415594321
 30
0.0
 11
17.992894985606078
 21
42.663274746521502
 31
0.0
  0
ENDBLK
  5
1441
  8
0
  0
BLOCK
  8
0
  2
*X72
 70
     1
 10
0.0
 20
0.0
 30
0.0
  3
*X72
  1

  0
LINE
  5
1443
  8
0
 62
     0
 10
38.99493458087818
 20
44.063274746525622
 30
0.0
 11
39.193664654678862
 21
44.26200482032629
 31
0.0
  0
LINE
  5
1444
  8
0
 62
     0
 10
37.893664654678837
 20
44.084536835459907
 30
0.0
 11
39.193664654678912
 21
45.384536835459983
 31
0.0
  0
LINE
  5
1445
  8
0
 62
     0
 10
37.749870550611028
 20
45.063274746525728
 30
0.0
 11
39.193664654678969
 21
46.507068850593612
 31
0.0
  0
LINE
  5
1446
  8
0
 62
     0
 10
37.893664654679021
 20
46.329600865727343
 30
0.0
 11
39.193664654678912
 21
47.629600865727241
 31
0.0
  0
LINE
  5
1447
  8
0
 62
     0
 10
36.693664654678969
 20
45.129600865727291
 30
0.0
 11
37.827338535477338
 21
46.26327474652566
 31
0.0
  0
LINE
  5
1448
  8
0
 62
     0
 10
37.893664654678958
 20
47.452132880860908
 30
0.0
 11
39.104806520343693
 21
48.663274746525637
 31
0.0
  0
LINE
  5
1449
  8
0
 62
     0
 10
36.693664654678912
 20
46.25213288086087
 30
0.0
 11
36.704806520343773
 21
46.263274746525717
 31
0.0
  0
LINE
  5
144A
  8
0
 62
     0
 10
36.782274505210069
 20
47.463274746525663
 30
0.0
 11
37.982274505210107
 21
48.663274746525701
 31
0.0
  0
LINE
  5
144B
  8
0
 62
     0
 10
35.659742490076439
 20
47.463274746525663
 30
0.0
 11
36.859742490076428
 21
48.663274746525637
 31
0.0
  0
LINE
  5
144C
  8
0
 62
     0
 10
34.537210474942754
 20
47.463274746525713
 30
0.0
 11
35.737210474942692
 21
48.663274746525637
 31
0.0
  0
LINE
  5
144D
  8
0
 62
     0
 10
33.414678459809132
 20
47.463274746525713
 30
0.0
 11
34.614678459809113
 21
48.663274746525701
 31
0.0
  0
LINE
  5
144E
  8
0
 62
     0
 10
32.292146444675502
 20
47.463274746525713
 30
0.0
 11
33.492146444675427
 21
48.663274746525637
 31
0.0
  0
LINE
  5
144F
  8
0
 62
     0
 10
31.169614429541809
 20
47.463274746525663
 30
0.0
 11
32.369614429541798
 21
48.663274746525637
 31
0.0
  0
LINE
  5
1450
  8
0
 62
     0
 10
30.047082414408241
 20
47.463274746525713
 30
0.0
 11
31.247082414408229
 21
48.663274746525701
 31
0.0
  0
LINE
  5
1451
  8
0
 62
     0
 10
28.924550399274551
 20
47.463274746525663
 30
0.0
 11
30.12455039927454
 21
48.663274746525637
 31
0.0
  0
LINE
  5
1452
  8
0
 62
     0
 10
24.12455039927039
 20
42.663274746521502
 30
0.0
 11
24.793664654678992
 21
43.332389001930089
 31
0.0
  0
LINE
  5
1453
  8
0
 62
     0
 10
27.802018384140862
 20
47.463274746525592
 30
0.0
 11
29.002018384140861
 21
48.663274746525587
 31
0.0
  0
LINE
  5
1454
  8
0
 62
     0
 10
23.275748220844381
 20
42.937004583229111
 30
0.0
 11
24.793664654678992
 21
44.454921017063718
 31
0.0
  0
LINE
  5
1455
  8
0
 62
     0
 10
26.679486369007289
 20
47.463274746525663
 30
0.0
 11
27.879486369007282
 21
48.663274746525637
 31
0.0
  0
LINE
  5
1456
  8
0
 62
     0
 10
22.981363435392609
 20
43.765151812910972
 30
0.0
 11
24.793664654678992
 21
45.577453032197347
 31
0.0
  0
LINE
  5
1457
  8
0
 62
     0
 10
25.556954353873611
 20
47.463274746525713
 30
0.0
 11
26.756954353873599
 21
48.663274746525701
 31
0.0
  0
LINE
  5
1458
  8
0
 62
     0
 10
22.44409166248948
 20
44.350412055141589
 30
0.0
 11
24.356954353873618
 21
46.263274746525717
 31
0.0
  0
LINE
  5
1459
  8
0
 62
     0
 10
24.434422338739981
 20
47.463274746525713
 30
0.0
 11
25.63442233873997
 21
48.663274746525701
 31
0.0
  0
LINE
  5
145A
  8
0
 62
     0
 10
21.677843658933568
 20
44.706696066719303
 30
0.0
 11
23.393664654678961
 21
46.422517062464692
 31
0.0
  0
LINE
  5
145B
  8
0
 62
     0
 10
20.49075994132426
 20
44.64214436424362
 30
0.0
 11
24.511890323606281
 21
48.663274746525637
 31
0.0
  0
LINE
  5
145C
  8
0
 62
     0
 10
18.511890323602071
 20
42.663274746521431
 30
0.0
 11
19.21479503695684
 21
43.366179459876207
 31
0.0
  0
LINE
  5
145D
  8
0
 62
     0
 10
17.389358308468442
 20
42.663274746521431
 30
0.0
 11
23.389358308472652
 21
48.663274746525637
 31
0.0
  0
LINE
  5
145E
  8
0
 62
     0
 10
17.193664654678908
 20
43.590113107865527
 30
0.0
 11
22.266826293339019
 21
48.663274746525637
 31
0.0
  0
LINE
  5
145F
  8
0
 62
     0
 10
17.193664654678969
 20
44.71264512299922
 30
0.0
 11
21.14429427820534
 21
48.663274746525587
 31
0.0
  0
LINE
  5
1460
  8
0
 62
     0
 10
17.193664654678969
 20
45.835177138132849
 30
0.0
 11
20.021762263071761
 21
48.663274746525637
 31
0.0
  0
LINE
  5
1461
  8
0
 62
     0
 10
17.193664654678908
 20
46.957709153266542
 30
0.0
 11
18.899230247938021
 21
48.663274746525637
 31
0.0
  0
LINE
  5
1462
  8
0
 62
     0
 10
17.193664654678908
 20
48.080241168400157
 30
0.0
 11
17.776698232804449
 21
48.663274746525701
 31
0.0
  0
ENDBLK
  5
1464
  8
0
  0
BLOCK
  8
0
  2
*X73
 70
     1
 10
0.0
 20
0.0
 30
0.0
  3
*X73
  1

  0
LINE
  5
1466
  8
0
 62
     0
 10
38.117466596011923
 20
44.063274746525622
 30
0.0
 11
39.193664654678969
 21
45.139472805192668
 31
0.0
  0
LINE
  5
1467
  8
0
 62
     0
 10
37.893664654678958
 20
44.962004820326399
 30
0.0
 11
39.193664654678862
 21
46.26200482032629
 31
0.0
  0
LINE
  5
1468
  8
0
 62
     0
 10
36.872402565744672
 20
45.063274746525728
 30
0.0
 11
39.193664654678912
 21
47.384536835459983
 31
0.0
  0
LINE
  5
1469
  8
0
 62
     0
 10
37.893664654678958
 20
47.207068850593657
 30
0.0
 11
39.193664654678969
 21
48.507068850593612
 31
0.0
  0
LINE
  5
146A
  8
0
 62
     0
 10
36.693664654678912
 20
46.007068850593612
 30
0.0
 11
36.949870550610967
 21
46.26327474652566
 31
0.0
  0
LINE
  5
146B
  8
0
 62
     0
 10
37.027338535477377
 20
47.463274746525713
 30
0.0
 11
38.227338535477372
 21
48.663274746525701
 31
0.0
  0
LINE
  5
146C
  8
0
 62
     0
 10
35.904806520343698
 20
47.463274746525663
 30
0.0
 11
37.104806520343743
 21
48.663274746525701
 31
0.0
  0
LINE
  5
146D
  8
0
 62
     0
 10
34.782274505210012
 20
47.463274746525592
 30
0.0
 11
35.982274505210121
 21
48.663274746525701
 31
0.0
  0
LINE
  5
146E
  8
0
 62
     0
 10
33.659742490076439
 20
47.463274746525663
 30
0.0
 11
34.859742490076428
 21
48.663274746525637
 31
0.0
  0
LINE
  5
146F
  8
0
 62
     0
 10
32.537210474942697
 20
47.463274746525663
 30
0.0
 11
33.737210474942692
 21
48.663274746525637
 31
0.0
  0
LINE
  5
1470
  8
0
 62
     0
 10
31.414678459809121
 20
47.463274746525713
 30
0.0
 11
32.61467845980912
 21
48.663274746525701
 31
0.0
  0
LINE
  5
1471
  8
0
 62
     0
 10
30.292146444675438
 20
47.463274746525663
 30
0.0
 11
31.492146444675431
 21
48.663274746525637
 31
0.0
  0
LINE
  5
1472
  8
0
 62
     0
 10
29.169614429541809
 20
47.463274746525663
 30
0.0
 11
30.369614429541802
 21
48.663274746525637
 31
0.0
  0
LINE
  5
1473
  8
0
 62
     0
 10
24.369614429537648
 20
42.663274746521502
 30
0.0
 11
24.793664654678992
 21
43.087324971662838
 31
0.0
  0
LINE
  5
1474
  8
0
 62
     0
 10
28.04708241440818
 20
47.463274746525663
 30
0.0
 11
29.247082414408169
 21
48.663274746525637
 31
0.0
  0
LINE
  5
1475
  8
0
 62
     0
 10
23.293159103055299
 20
42.709351435172771
 30
0.0
 11
24.793664654678938
 21
44.20985698679641
 31
0.0
  0
LINE
  5
1476
  8
0
 62
     0
 10
26.924550399274551
 20
47.463274746525663
 30
0.0
 11
28.12455039927454
 21
48.663274746525637
 31
0.0
  0
LINE
  5
1477
  8
0
 62
     0
 10
23.069200762413061
 20
43.607925109664158
 30
0.0
 11
24.793664654678992
 21
45.332389001930089
 31
0.0
  0
LINE
  5
1478
  8
0
 62
     0
 10
25.802018384140929
 20
47.463274746525663
 30
0.0
 11
27.002018384140911
 21
48.663274746525637
 31
0.0
  0
LINE
  5
1479
  8
0
 62
     0
 10
22.579670769607329
 20
44.240927131992073
 30
0.0
 11
24.60201838414093
 21
46.26327474652566
 31
0.0
  0
LINE
  5
147A
  8
0
 62
     0
 10
24.679486369007289
 20
47.463274746525663
 30
0.0
 11
25.879486369007282
 21
48.663274746525637
 31
0.0
  0
LINE
  5
147B
  8
0
 62
     0
 10
21.868203785183312
 20
44.651992162701667
 30
0.0
 11
23.479486369007301
 21
46.26327474652566
 31
0.0
  0
LINE
  5
147C
  8
0
 62
     0
 10
20.82419744003613
 20
44.730517832688228
 30
0.0
 11
23.393664654678961
 21
47.299985047331063
 31
0.0
  0
LINE
  5
147D
  8
0
 62
     0
 10
23.556954353873611
 20
47.463274746525713
 30
0.0
 11
24.756954353873599
 21
48.663274746525701
 31
0.0
  0
LINE
  5
147E
  8
0
 62
     0
 10
18.756954353869389
 20
42.663274746521502
 30
0.0
 11
19.126421568512232
 21
43.032741961164326
 31
0.0
  0
LINE
  5
147F
  8
0
 62
     0
 10
17.6344223387357
 20
42.663274746521431
 30
0.0
 11
23.63442233873997
 21
48.663274746525701
 31
0.0
  0
LINE
  5
1480
  8
0
 62
     0
 10
17.193664654678908
 20
43.345049077598283
 30
0.0
 11
22.511890323606341
 21
48.663274746525701
 31
0.0
  0
LINE
  5
1481
  8
0
 62
     0
 10
17.193664654678908
 20
44.467581092731898
 30
0.0
 11
21.389358308472708
 21
48.663274746525701
 31
0.0
  0
LINE
  5
1482
  8
0
 62
     0
 10
17.193664654678908
 20
45.590113107865527
 30
0.0
 11
20.266826293339079
 21
48.663274746525701
 31
0.0
  0
LINE
  5
1483
  8
0
 62
     0
 10
17.193664654678969
 20
46.71264512299922
 30
0.0
 11
19.14429427820539
 21
48.663274746525637
 31
0.0
  0
LINE
  5
1484
  8
0
 62
     0
 10
17.193664654678969
 20
47.835177138132842
 30
0.0
 11
18.021762263071761
 21
48.663274746525637
 31
0.0
  0
ENDBLK
  5
1486
  8
0
  0
ENDSEC
  0
SECTION
  2
ENTITIES
  0
POLYLINE
  5
67B
  8
SAPA_LIGHT
 66
     1
 10
0.0
 20
0.0
 30
0.0
  0
VERTEX
  5
B45
  8
SAPA_LIGHT
 10
57.259913930295419
 20
14.72854237866232
 30
0.0
  0
VERTEX
  5
B46
  8
SAPA_LIGHT
 10
57.26280549655533
 20
14.72854237866232
 30
0.0
  0
SEQEND
  5
B47
  8
SAPA_LIGHT
  0
POLYLINE
  5
67C
  8
SAPA_LIGHT
 66
     1
 10
0.0
 20
0.0
 30
0.0
 70
     1
  0
VERTEX
  5
B48
  8
SAPA_LIGHT
 10
16.196698093606269
 20
100.9700097225564
 30
0.0
  0
VERTEX
  5
B49
  8
SAPA_LIGHT
 10
22.196698093606269
 20
100.9700097225564
 30
0.0
  0
VERTEX
  5
B4A
  8
SAPA_LIGHT
 10
22.196698093606269
 20
133.47629082644929
 30
0.0
  0
VERTEX
  5
B4B
  8
SAPA_LIGHT
 10
16.196698093606269
 20
133.47629082644929
 30
0.0
  0
SEQEND
  5
B4C
  8
SAPA_LIGHT
  0
POLYLINE
  5
682
  8
SAPA_GLAS
 62
     6
 66
     1
 10
0.0
 20
0.0
 30
0.0
 70
     1
  0
VERTEX
  5
B4D
  8
SAPA_GLAS
 62
     6
 10
14.698764336947569
 20
98.863932876606697
 30
0.0
  0
VERTEX
  5
B4E
  8
SAPA_GLAS
 62
     6
 10
14.698764336947569
 20
96.863932876606711
 30
0.0
  0
VERTEX
  5
B4F
  8
SAPA_GLAS
 62
     6
 10
23.698764336947569
 20
96.863932876606711
 30
0.0
  0
VERTEX
  5
B50
  8
SAPA_GLAS
 62
     6
 10
23.698764336947569
 20
98.863932876606697
 30
0.0
  0
SEQEND
  5
B51
  8
SAPA_GLAS
 62
     6
  0
INSERT
  5
751
  8
0
  2
*U37
 10
0.0
 20
0.0
 30
0.0
  0
POLYLINE
  5
7B1
  8
SAPA_LIGHT
 66
     1
 10
0.0
 20
0.0
 30
0.0
  0
VERTEX
  5
B56
  8
SAPA_LIGHT
 10
22.19669809360628
 20
117.7597499189086
 30
0.0
  0
VERTEX
  5
B57
  8
SAPA_LIGHT
 10
57.229418158686542
 20
117.7597499189086
 30
0.0
  0
VERTEX
  5
B58
  8
SAPA_LIGHT
 10
57.229418158686542
 20
95.466856700092933
 30
0.0
  0
VERTEX
  5
B59
  8
SAPA_LIGHT
 10
61.729418158686521
 20
95.466856700092904
 30
0.0
  0
VERTEX
  5
B5A
  8
SAPA_LIGHT
 10
61.729418158686613
 20
39.759749918906323
 30
0.0
  0
VERTEX
  5
B5B
  8
SAPA_LIGHT
 10
1.72941815868657
 20
39.759749918906323
 30
0.0
  0
VERTEX
  5
B5C
  8
SAPA_LIGHT
 10
1.729418158686542
 20
95.46685670009289
 30
0.0
  0
VERTEX
  5
B5D
  8
SAPA_LIGHT
 10
6.2294181586865127
 20
95.466856700092919
 30
0.0
  0
VERTEX
  5
B5E
  8
SAPA_LIGHT
 10
6.229418158686542
 20
117.7597499189086
 30
0.0
  0
VERTEX
  5
B5F
  8
SAPA_LIGHT
 10
16.19669809360628
 20
117.7597499189086
 30
0.0
  0
SEQEND
  5
B60
  8
SAPA_LIGHT
  0
LINE
  5
835
  8
SAPA_ANSLUTNING
 10
6.1411478027057447
 20
27.575485816740901
 30
0.0
 11
61.687928706410389
 21
27.575485816740901
 31
0.0
  0
LINE
  5
84D
  8
SAPA_LIGHT
 10
6.1411478027057447
 20
27.575485816740901
 30
0.0
 11
61.687928706410389
 21
27.575485816740901
 31
0.0
  0
POLYLINE
  5
AD6
  8
SAPA_PROFIL
  6
CONTINUOUS
 66
     1
 10
0.0
 20
0.0
 30
0.0
 70
     1
  0
VERTEX
  5
1098
  8
SAPA_PROFIL
  6
CONTINUOUS
 10
5.0294181586866671
 20
52.959749918906589
 30
0.0
 42
-0.4142135623730951
  0
VERTEX
  5
1099
  8
SAPA_PROFIL
  6
CONTINUOUS
 10
4.729418158686598
 20
53.25974991890655
 30
0.0
  0
VERTEX
  5
109A
  8
SAPA_PROFIL
  6
CONTINUOUS
 10
4.7294181586867117
 20
88.135485850194513
 30
0.0
 42
-0.198912367379658
  0
VERTEX
  5
109B
  8
SAPA_PROFIL
  6
CONTINUOUS
 10
4.8172861243306206
 20
88.347617884550573
 30
0.0
  0
VERTEX
  5
109C
  8
SAPA_PROFIL
  6
CONTINUOUS
 10
8.1415501930425762
 20
91.671881953262414
 30
0.0
 42
-0.1989123673796998
  0
VERTEX
  5
109D
  8
SAPA_PROFIL
  6
CONTINUOUS
 10
8.3536822273986218
 20
91.75974991890655
 30
0.0
  0
VERTEX
  5
109E
  8
SAPA_PROFIL
  6
CONTINUOUS
 10
11.82941815868662
 20
91.759749918906437
 30
0.0
 42
-0.4142135623730951
  0
VERTEX
  5
109F
  8
SAPA_PROFIL
  6
CONTINUOUS
 10
12.12941815868658
 20
91.459749918906482
 30
0.0
  0
VERTEX
  5
10A0
  8
SAPA_PROFIL
  6
CONTINUOUS
 10
12.12941815868669
 20
84.059749918906505
 30
0.0
 42
0.4142135623730951
  0
VERTEX
  5
10A1
  8
SAPA_PROFIL
  6
CONTINUOUS
 10
12.429418158686641
 20
83.759749918906564
 30
0.0
  0
VERTEX
  5
10A2
  8
SAPA_PROFIL
  6
CONTINUOUS
 10
14.029418158686671
 20
83.759749918906564
 30
0.0
 42
0.4142135623730951
  0
VERTEX
  5
10A3
  8
SAPA_PROFIL
  6
CONTINUOUS
 10
14.32941815868662
 20
84.059749918906505
 30
0.0
  0
VERTEX
  5
10A4
  8
SAPA_PROFIL
  6
CONTINUOUS
 10
14.32941815868662
 20
92.459749918906482
 30
0.0
 42
-0.4142135623730951
  0
VERTEX
  5
10A5
  8
SAPA_PROFIL
  6
CONTINUOUS
 10
14.629418158686571
 20
92.759749918906536
 30
0.0
  0
VERTEX
  5
10A6
  8
SAPA_PROFIL
  6
CONTINUOUS
 10
27.429418158686651
 20
92.759749918906437
 30
0.0
 42
-0.4142135623730951
  0
VERTEX
  5
10A7
  8
SAPA_PROFIL
  6
CONTINUOUS
 10
27.729418158686599
 20
92.459749918906482
 30
0.0
  0
VERTEX
  5
10A8
  8
SAPA_PROFIL
  6
CONTINUOUS
 10
27.729418158686599
 20
88.459749918906468
 30
0.0
 42
0.6681786379192989
  0
VERTEX
  5
10A9
  8
SAPA_PROFIL
  6
CONTINUOUS
 10
28.582971549279591
 20
88.106196528313475
 30
0.0
  0
VERTEX
  5
10AA
  8
SAPA_PROFIL
  6
CONTINUOUS
 10
29.729418158686599
 20
89.252643137720497
 30
0.0
  0
VERTEX
  5
10AB
  8
SAPA_PROFIL
  6
CONTINUOUS
 10
29.729418158686599
 20
92.459749918906482
 30
0.0
 42
-0.4142135623730951
  0
VERTEX
  5
10AC
  8
SAPA_PROFIL
  6
CONTINUOUS
 10
30.029418158686561
 20
92.759749918906536
 30
0.0
  0
VERTEX
  5
10AD
  8
SAPA_PROFIL
  6
CONTINUOUS
 10
30.863392754902641
 20
92.759749918906536
 30
0.0
  0
VERTEX
  5
10AE
  8
SAPA_PROFIL
  6
CONTINUOUS
 10
31.729418158686599
 20
93.25974991890655
 30
0.0
  0
VERTEX
  5
10AF
  8
SAPA_PROFIL
  6
CONTINUOUS
 10
32.595443562470571
 20
92.759749918906536
 30
0.0
  0
VERTEX
  5
10B0
  8
SAPA_PROFIL
  6
CONTINUOUS
 10
33.429418158686651
 20
92.759749918906437
 30
0.0
 42
-0.4142135623730951
  0
VERTEX
  5
10B1
  8
SAPA_PROFIL
  6
CONTINUOUS
 10
33.729418158686599
 20
92.459749918906482
 30
0.0
  0
VERTEX
  5
10B2
  8
SAPA_PROFIL
  6
CONTINUOUS
 10
33.729418158686599
 20
88.759749918906564
 30
0.0
  0
VERTEX
  5
10B3
  8
SAPA_PROFIL
  6
CONTINUOUS
 10
34.729418158686599
 20
87.759749918906536
 30
0.0
  0
VERTEX
  5
10B4
  8
SAPA_PROFIL
  6
CONTINUOUS
 10
48.829418158686622
 20
87.759749918906536
 30
0.0
 42
-0.4142135623730951
  0
VERTEX
  5
10B5
  8
SAPA_PROFIL
  6
CONTINUOUS
 10
49.129418158686569
 20
87.459749918906482
 30
0.0
  0
VERTEX
  5
10B6
  8
SAPA_PROFIL
  6
CONTINUOUS
 10
49.129418158686569
 20
84.059749918906505
 30
0.0
 42
0.4142135623730951
  0
VERTEX
  5
10B7
  8
SAPA_PROFIL
  6
CONTINUOUS
 10
49.429418158686637
 20
83.759749918906564
 30
0.0
  0
VERTEX
  5
10B8
  8
SAPA_PROFIL
  6
CONTINUOUS
 10
51.029418158686553
 20
83.759749918906564
 30
0.0
 42
0.4142135623730951
  0
VERTEX
  5
10B9
  8
SAPA_PROFIL
  6
CONTINUOUS
 10
51.329418158686508
 20
84.059749918906505
 30
0.0
  0
VERTEX
  5
10BA
  8
SAPA_PROFIL
  6
CONTINUOUS
 10
51.329418158686622
 20
87.459749918906482
 30
0.0
 42
-0.4142135623730951
  0
VERTEX
  5
10BB
  8
SAPA_PROFIL
  6
CONTINUOUS
 10
51.629418158686569
 20
87.759749918906437
 30
0.0
  0
VERTEX
  5
10BC
  8
SAPA_PROFIL
  6
CONTINUOUS
 10
58.429418158686637
 20
87.759749918906536
 30
0.0
 42
-0.4142135623730951
  0
VERTEX
  5
10BD
  8
SAPA_PROFIL
  6
CONTINUOUS
 10
58.729418158686599
 20
87.459749918906482
 30
0.0
  0
VERTEX
  5
10BE
  8
SAPA_PROFIL
  6
CONTINUOUS
 10
58.729418158686599
 20
53.25974991890655
 30
0.0
 42
-0.4142135623730951
  0
VERTEX
  5
10BF
  8
SAPA_PROFIL
  6
CONTINUOUS
 10
58.429418158686637
 20
52.959749918906589
 30
0.0
  0
VERTEX
  5
10C0
  8
SAPA_PROFIL
  6
CONTINUOUS
 10
51.629418158686569
 20
52.959749918906482
 30
0.0
 42
-0.4142135623730951
  0
VERTEX
  5
10C1
  8
SAPA_PROFIL
  6
CONTINUOUS
 10
51.329418158686622
 20
53.25974991890655
 30
0.0
  0
VERTEX
  5
10C2
  8
SAPA_PROFIL
  6
CONTINUOUS
 10
51.329418158686622
 20
56.659749918906527
 30
0.0
 42
0.4142135623730951
  0
VERTEX
  5
10C3
  8
SAPA_PROFIL
  6
CONTINUOUS
 10
51.029418158686553
 20
56.959749918906482
 30
0.0
  0
VERTEX
  5
10C4
  8
SAPA_PROFIL
  6
CONTINUOUS
 10
49.429418158686637
 20
56.959749918906482
 30
0.0
 42
0.4142135623730951
  0
VERTEX
  5
10C5
  8
SAPA_PROFIL
  6
CONTINUOUS
 10
49.12941815868669
 20
56.659749918906527
 30
0.0
  0
VERTEX
  5
10C6
  8
SAPA_PROFIL
  6
CONTINUOUS
 10
49.129418158686569
 20
52.059749918906498
 30
0.0
 42
-0.4142135623730951
  0
VERTEX
  5
10C7
  8
SAPA_PROFIL
  6
CONTINUOUS
 10
48.829418158686622
 20
51.75974991890655
 30
0.0
  0
VERTEX
  5
10C8
  8
SAPA_PROFIL
  6
CONTINUOUS
 10
14.629418158686571
 20
51.75974991890655
 30
0.0
 42
-0.4142135623730951
  0
VERTEX
  5
10C9
  8
SAPA_PROFIL
  6
CONTINUOUS
 10
14.32941815868662
 20
52.059749918906498
 30
0.0
  0
VERTEX
  5
10CA
  8
SAPA_PROFIL
  6
CONTINUOUS
 10
14.32941815868662
 20
56.659749918906527
 30
0.0
 42
0.4142135623730951
  0
VERTEX
  5
10CB
  8
SAPA_PROFIL
  6
CONTINUOUS
 10
14.029418158686671
 20
56.959749918906482
 30
0.0
  0
VERTEX
  5
10CC
  8
SAPA_PROFIL
  6
CONTINUOUS
 10
12.429418158686641
 20
56.959749918906482
 30
0.0
 42
0.4142135623730951
  0
VERTEX
  5
10CD
  8
SAPA_PROFIL
  6
CONTINUOUS
 10
12.12941815868669
 20
56.659749918906527
 30
0.0
  0
VERTEX
  5
10CE
  8
SAPA_PROFIL
  6
CONTINUOUS
 10
12.12941815868658
 20
53.25974991890655
 30
0.0
 42
-0.4142135623730951
  0
VERTEX
  5
10CF
  8
SAPA_PROFIL
  6
CONTINUOUS
 10
11.82941815868662
 20
52.959749918906589
 30
0.0
  0
SEQEND
  5
10D0
  8
SAPA_PROFIL
  6
CONTINUOUS
  0
POLYLINE
  5
AD7
  8
SAPA_PROFIL
  6
CONTINUOUS
 66
     1
 10
0.0
 20
0.0
 30
0.0
 70
     1
  0
VERTEX
  5
10D1
  8
SAPA_PROFIL
  6
CONTINUOUS
 10
9.5294181586864397
 20
41.459749918906482
 30
0.0
 42
0.4142135623730951
  0
VERTEX
  5
10D2
  8
SAPA_PROFIL
  6
CONTINUOUS
 10
9.2294181586864852
 20
41.75974991890655
 30
0.0
  0
VERTEX
  5
10D3
  8
SAPA_PROFIL
  6
CONTINUOUS
 10
8.7794181586864397
 20
41.759749918906657
 30
0.0
 42
-0.4142135623730951
  0
VERTEX
  5
10D4
  8
SAPA_PROFIL
  6
CONTINUOUS
 10
8.4794181586864852
 20
42.059749918906618
 30
0.0
  0
VERTEX
  5
10D5
  8
SAPA_PROFIL
  6
CONTINUOUS
 10
8.4794181586864852
 20
42.759749918906437
 30
0.0
 42
-0.4142135623731506
  0
VERTEX
  5
10D6
  8
SAPA_PROFIL
  6
CONTINUOUS
 10
8.7794181586864397
 20
43.059749918906498
 30
0.0
  0
VERTEX
  5
10D7
  8
SAPA_PROFIL
  6
CONTINUOUS
 10
9.2294181586864852
 20
43.059749918906498
 30
0.0
 42
0.4142135623731506
  0
VERTEX
  5
10D8
  8
SAPA_PROFIL
  6
CONTINUOUS
 10
9.5294181586864397
 20
43.359749918906573
 30
0.0
  0
VERTEX
  5
10D9
  8
SAPA_PROFIL
  6
CONTINUOUS
 10
9.5294181586865534
 20
43.859749918906573
 30
0.0
 42
0.4142135623730951
  0
VERTEX
  5
10DA
  8
SAPA_PROFIL
  6
CONTINUOUS
 10
9.0294181586865534
 20
44.359749918906573
 30
0.0
  0
VERTEX
  5
10DB
  8
SAPA_PROFIL
  6
CONTINUOUS
 10
7.6294181586865761
 20
44.359749918906573
 30
0.0
 42
-0.4142135623730951
  0
VERTEX
  5
10DC
  8
SAPA_PROFIL
  6
CONTINUOUS
 10
6.6294181586865761
 20
45.359749918906573
 30
0.0
  0
VERTEX
  5
10DD
  8
SAPA_PROFIL
  6
CONTINUOUS
 10
6.6294181586864616
 20
45.75974991890655
 30
0.0
 42
-0.9999999999999998
  0
VERTEX
  5
10DE
  8
SAPA_PROFIL
  6
CONTINUOUS
 10
13.82941815868651
 20
45.75974991890655
 30
0.0
  0
VERTEX
  5
10DF
  8
SAPA_PROFIL
  6
CONTINUOUS
 10
13.82941815868662
 20
44.659749918906407
 30
0.0
 42
-0.4142135623732059
  0
VERTEX
  5
10E0
  8
SAPA_PROFIL
  6
CONTINUOUS
 10
13.52941815868655
 20
44.359749918906338
 30
0.0
  0
VERTEX
  5
10E1
  8
SAPA_PROFIL
  6
CONTINUOUS
 10
13.229418158686711
 20
44.359749918906573
 30
0.0
 42
0.4142135623733948
  0
VERTEX
  5
10E2
  8
SAPA_PROFIL
  6
CONTINUOUS
 10
12.72941815868637
 20
43.859749918906573
 30
0.0
  0
VERTEX
  5
10E3
  8
SAPA_PROFIL
  6
CONTINUOUS
 10
12.72941815868637
 20
43.359749918906573
 30
0.0
 42
0.4142135623730397
  0
VERTEX
  5
10E4
  8
SAPA_PROFIL
  6
CONTINUOUS
 10
13.02941815868633
 20
43.059749918906618
 30
0.0
  0
VERTEX
  5
10E5
  8
SAPA_PROFIL
  6
CONTINUOUS
 10
13.47941815868648
 20
43.059749918906498
 30
0.0
 42
-0.4142135623731505
  0
VERTEX
  5
10E6
  8
SAPA_PROFIL
  6
CONTINUOUS
 10
13.77941815868644
 20
42.759749918906437
 30
0.0
  0
VERTEX
  5
10E7
  8
SAPA_PROFIL
  6
CONTINUOUS
 10
13.77941815868644
 20
42.059749918906618
 30
0.0
 42
-0.4142135623730951
  0
VERTEX
  5
10E8
  8
SAPA_PROFIL
  6
CONTINUOUS
 10
13.47941815868648
 20
41.75974991890655
 30
0.0
  0
VERTEX
  5
10E9
  8
SAPA_PROFIL
  6
CONTINUOUS
 10
13.02941815868644
 20
41.75974991890655
 30
0.0
 42
0.4142135623730951
  0
VERTEX
  5
10EA
  8
SAPA_PROFIL
  6
CONTINUOUS
 10
12.72941815868637
 20
41.459749918906482
 30
0.0
  0
VERTEX
  5
10EB
  8
SAPA_PROFIL
  6
CONTINUOUS
 10
12.72941815868694
 20
40.759749918906103
 30
0.0
 42
0.2504916501726643
  0
VERTEX
  5
10EC
  8
SAPA_PROFIL
  6
CONTINUOUS
 10
13.72941815868637
 20
39.75974991890655
 30
0.0
  0
VERTEX
  5
10ED
  8
SAPA_PROFIL
  6
CONTINUOUS
 10
16.02941815868644
 20
39.75974991890655
 30
0.0
 42
0.4142135623730951
  0
VERTEX
  5
10EE
  8
SAPA_PROFIL
  6
CONTINUOUS
 10
17.02941815868644
 20
40.75974991890655
 30
0.0
  0
VERTEX
  5
10EF
  8
SAPA_PROFIL
  6
CONTINUOUS
 10
17.02941815868644
 20
48.459749918906482
 30
0.0
 42
-0.4142135623730951
  0
VERTEX
  5
10F0
  8
SAPA_PROFIL
  6
CONTINUOUS
 10
17.329418158686391
 20
48.75974991890655
 30
0.0
  0
VERTEX
  5
10F1
  8
SAPA_PROFIL
  6
CONTINUOUS
 10
30.863392754902641
 20
48.75974991890655
 30
0.0
  0
VERTEX
  5
10F2
  8
SAPA_PROFIL
  6
CONTINUOUS
 10
31.729418158686599
 20
49.25974991890655
 30
0.0
  0
VERTEX
  5
10F3
  8
SAPA_PROFIL
  6
CONTINUOUS
 10
32.595443562470571
 20
48.75974991890655
 30
0.0
  0
VERTEX
  5
10F4
  8
SAPA_PROFIL
  6
CONTINUOUS
 10
46.129418158686583
 20
48.759749918906429
 30
0.0
 42
-0.4142135623730951
  0
VERTEX
  5
10F5
  8
SAPA_PROFIL
  6
CONTINUOUS
 10
46.429418158686758
 20
48.459749918906482
 30
0.0
  0
VERTEX
  5
10F6
  8
SAPA_PROFIL
  6
CONTINUOUS
 10
46.429418158686758
 20
40.75974991890655
 30
0.0
 42
0.4142135623730951
  0
VERTEX
  5
10F7
  8
SAPA_PROFIL
  6
CONTINUOUS
 10
47.429418158686751
 20
39.75974991890655
 30
0.0
  0
VERTEX
  5
10F8
  8
SAPA_PROFIL
  6
CONTINUOUS
 10
49.729418158686833
 20
39.75974991890655
 30
0.0
 42
0.2504916501726643
  0
VERTEX
  5
10F9
  8
SAPA_PROFIL
  6
CONTINUOUS
 10
50.729418158686258
 20
40.759749918906103
 30
0.0
  0
VERTEX
  5
10FA
  8
SAPA_PROFIL
  6
CONTINUOUS
 10
50.729418158686819
 20
41.459749918906482
 30
0.0
 42
0.4142135623730951
  0
VERTEX
  5
10FB
  8
SAPA_PROFIL
  6
CONTINUOUS
 10
50.429418158686758
 20
41.75974991890655
 30
0.0
  0
VERTEX
  5
10FC
  8
SAPA_PROFIL
  6
CONTINUOUS
 10
49.979418158686713
 20
41.75974991890655
 30
0.0
 42
-0.4142135623730951
  0
VERTEX
  5
10FD
  8
SAPA_PROFIL
  6
CONTINUOUS
 10
49.679418158686758
 20
42.059749918906618
 30
0.0
  0
VERTEX
  5
10FE
  8
SAPA_PROFIL
  6
CONTINUOUS
 10
49.679418158686758
 20
42.759749918906437
 30
0.0
 42
-0.4142135623731506
  0
VERTEX
  5
10FF
  8
SAPA_PROFIL
  6
CONTINUOUS
 10
49.979418158686713
 20
43.059749918906498
 30
0.0
  0
VERTEX
  5
1100
  8
SAPA_PROFIL
  6
CONTINUOUS
 10
50.429418158686872
 20
43.059749918906618
 30
0.0
 42
0.4142135623730397
  0
VERTEX
  5
1101
  8
SAPA_PROFIL
  6
CONTINUOUS
 10
50.729418158686819
 20
43.359749918906573
 30
0.0
  0
VERTEX
  5
1102
  8
SAPA_PROFIL
  6
CONTINUOUS
 10
50.729418158686819
 20
43.859749918906573
 30
0.0
 42
0.4142135623733948
  0
VERTEX
  5
1103
  8
SAPA_PROFIL
  6
CONTINUOUS
 10
50.229418158686478
 20
44.359749918906573
 30
0.0
  0
VERTEX
  5
1104
  8
SAPA_PROFIL
  6
CONTINUOUS
 10
49.929418158686651
 20
44.359749918906338
 30
0.0
 42
-0.4142135623732059
  0
VERTEX
  5
1105
  8
SAPA_PROFIL
  6
CONTINUOUS
 10
49.629418158686569
 20
44.659749918906407
 30
0.0
  0
VERTEX
  5
1106
  8
SAPA_PROFIL
  6
CONTINUOUS
 10
49.62941815868669
 20
45.75974991890655
 30
0.0
 42
-0.9999999999999998
  0
VERTEX
  5
1107
  8
SAPA_PROFIL
  6
CONTINUOUS
 10
56.829418158686728
 20
45.75974991890655
 30
0.0
  0
VERTEX
  5
1108
  8
SAPA_PROFIL
  6
CONTINUOUS
 10
56.829418158686622
 20
45.359749918906573
 30
0.0
 42
-0.4142135623730951
  0
VERTEX
  5
1109
  8
SAPA_PROFIL
  6
CONTINUOUS
 10
55.829418158686622
 20
44.359749918906573
 30
0.0
  0
VERTEX
  5
110A
  8
SAPA_PROFIL
  6
CONTINUOUS
 10
54.429418158686637
 20
44.359749918906573
 30
0.0
 42
0.4142135623730951
  0
VERTEX
  5
110B
  8
SAPA_PROFIL
  6
CONTINUOUS
 10
53.929418158686637
 20
43.859749918906573
 30
0.0
  0
VERTEX
  5
110C
  8
SAPA_PROFIL
  6
CONTINUOUS
 10
53.929418158686758
 20
43.359749918906573
 30
0.0
 42
0.4142135623731506
  0
VERTEX
  5
110D
  8
SAPA_PROFIL
  6
CONTINUOUS
 10
54.229418158686713
 20
43.059749918906498
 30
0.0
  0
VERTEX
  5
110E
  8
SAPA_PROFIL
  6
CONTINUOUS
 10
54.679418158686758
 20
43.059749918906498
 30
0.0
 42
-0.4142135623731505
  0
VERTEX
  5
110F
  8
SAPA_PROFIL
  6
CONTINUOUS
 10
54.979418158686713
 20
42.759749918906437
 30
0.0
  0
VERTEX
  5
1110
  8
SAPA_PROFIL
  6
CONTINUOUS
 10
54.979418158686713
 20
42.059749918906618
 30
0.0
 42
-0.4142135623730951
  0
VERTEX
  5
1111
  8
SAPA_PROFIL
  6
CONTINUOUS
 10
54.679418158686758
 20
41.759749918906657
 30
0.0
  0
VERTEX
  5
1112
  8
SAPA_PROFIL
  6
CONTINUOUS
 10
54.229418158686713
 20
41.75974991890655
 30
0.0
 42
0.4142135623730951
  0
VERTEX
  5
1113
  8
SAPA_PROFIL
  6
CONTINUOUS
 10
53.929418158686758
 20
41.459749918906482
 30
0.0
  0
VERTEX
  5
1114
  8
SAPA_PROFIL
  6
CONTINUOUS
 10
53.929418158686758
 20
40.75974991890655
 30
0.0
 42
0.2504916501726753
  0
VERTEX
  5
1115
  8
SAPA_PROFIL
  6
CONTINUOUS
 10
54.929418158686978
 20
39.759749918906088
 30
0.0
  0
VERTEX
  5
1116
  8
SAPA_PROFIL
  6
CONTINUOUS
 10
57.31520459631372
 20
39.75974991890655
 30
0.0
 42
0.1989123673796728
  0
VERTEX
  5
1117
  8
SAPA_PROFIL
  6
CONTINUOUS
 10
58.022311377500273
 20
40.05264313771999
 30
0.0
  0
VERTEX
  5
1118
  8
SAPA_PROFIL
  6
CONTINUOUS
 10
60.850738502245797
 20
42.881070262466437
 30
0.0
 42
0.1989123673796725
  0
VERTEX
  5
1119
  8
SAPA_PROFIL
  6
CONTINUOUS
 10
61.729418158686599
 20
45.002390606025521
 30
0.0
  0
VERTEX
  5
111A
  8
SAPA_PROFIL
  6
CONTINUOUS
 10
61.729418158686599
 20
90.517109231787586
 30
0.0
 42
0.1989123673796575
  0
VERTEX
  5
111B
  8
SAPA_PROFIL
  6
CONTINUOUS
 10
60.850738502246593
 20
92.638429575346535
 30
0.0
  0
VERTEX
  5
111C
  8
SAPA_PROFIL
  6
CONTINUOUS
 10
58.022311377500159
 20
95.466856700093103
 30
0.0
 42
0.198912367379658
  0
VERTEX
  5
111D
  8
SAPA_PROFIL
  6
CONTINUOUS
 10
57.315204596313613
 20
95.75974991890655
 30
0.0
  0
VERTEX
  5
111E
  8
SAPA_PROFIL
  6
CONTINUOUS
 10
54.229418158686599
 20
95.75974991890655
 30
0.0
  0
VERTEX
  5
111F
  8
SAPA_PROFIL
  6
CONTINUOUS
 10
53.229418158686592
 20
94.75974991890655
 30
0.0
  0
VERTEX
  5
1120
  8
SAPA_PROFIL
  6
CONTINUOUS
 10
53.229418158686592
 20
93.759749918906564
 30
0.0
  0
VERTEX
  5
1121
  8
SAPA_PROFIL
  6
CONTINUOUS
 10
55.279418158686553
 20
93.759749918906437
 30
0.0
 42
-0.4142135623730951
  0
VERTEX
  5
1122
  8
SAPA_PROFIL
  6
CONTINUOUS
 10
55.579418158686622
 20
93.459749918906468
 30
0.0
  0
VERTEX
  5
1123
  8
SAPA_PROFIL
  6
CONTINUOUS
 10
55.579418158686508
 20
91.00974991890655
 30
0.0
 42
-0.4142135623730951
  0
VERTEX
  5
1124
  8
SAPA_PROFIL
  6
CONTINUOUS
 10
55.279418158686553
 20
90.709749918906496
 30
0.0
  0
VERTEX
  5
1125
  8
SAPA_PROFIL
  6
CONTINUOUS
 10
37.179418158686651
 20
90.709749918906596
 30
0.0
 42
-0.414213562373095
  0
VERTEX
  5
1126
  8
SAPA_PROFIL
  6
CONTINUOUS
 10
36.879418158686583
 20
91.00974991890655
 30
0.0
  0
VERTEX
  5
1127
  8
SAPA_PROFIL
  6
CONTINUOUS
 10
36.87941815868669
 20
93.459749918906468
 30
0.0
 42
-0.4142135623730951
  0
VERTEX
  5
1128
  8
SAPA_PROFIL
  6
CONTINUOUS
 10
37.179418158686651
 20
93.759749918906564
 30
0.0
  0
VERTEX
  5
1129
  8
SAPA_PROFIL
  6
CONTINUOUS
 10
38.929418158686651
 20
93.759749918906564
 30
0.0
 42
0.4142135623730951
  0
VERTEX
  5
112A
  8
SAPA_PROFIL
  6
CONTINUOUS
 10
39.229418158686599
 20
94.059749918906505
 30
0.0
  0
VERTEX
  5
112B
  8
SAPA_PROFIL
  6
CONTINUOUS
 10
39.229418158686599
 20
94.75974991890655
 30
0.0
  0
VERTEX
  5
112C
  8
SAPA_PROFIL
  6
CONTINUOUS
 10
38.229418158686599
 20
95.75974991890655
 30
0.0
  0
VERTEX
  5
112D
  8
SAPA_PROFIL
  6
CONTINUOUS
 10
32.595443562470571
 20
95.75974991890655
 30
0.0
  0
VERTEX
  5
112E
  8
SAPA_PROFIL
  6
CONTINUOUS
 10
31.729418158686599
 20
95.259749918906536
 30
0.0
  0
VERTEX
  5
112F
  8
SAPA_PROFIL
  6
CONTINUOUS
 10
30.863392754902641
 20
95.75974991890655
 30
0.0
  0
VERTEX
  5
1130
  8
SAPA_PROFIL
  6
CONTINUOUS
 10
11.729418158686601
 20
95.75974991890655
 30
0.0
 42
-0.4142135623730951
  0
VERTEX
  5
1131
  8
SAPA_PROFIL
  6
CONTINUOUS
 10
10.729418158686601
 20
96.75974991890655
 30
0.0
  0
VERTEX
  5
1132
  8
SAPA_PROFIL
  6
CONTINUOUS
 10
10.729418158686601
 20
106.25974991890649
 30
0.0
 42
0.4142135623730951
  0
VERTEX
  5
1133
  8
SAPA_PROFIL
  6
CONTINUOUS
 10
11.729418158686601
 20
107.25974991890649
 30
0.0
  0
VERTEX
  5
1134
  8
SAPA_PROFIL
  6
CONTINUOUS
 10
11.729418158686601
 20
107.8272943868714
 30
0.0
 42
0.2896898633030159
  0
VERTEX
  5
1135
  8
SAPA_PROFIL
  6
CONTINUOUS
 10
11.15798958725725
 20
108.7308022897771
 30
0.0
 42
0.5507604245859661
  0
VERTEX
  5
1136
  8
SAPA_PROFIL
  6
CONTINUOUS
 10
10.72941815868864
 20
108.4597499189064
 30
0.0
  0
VERTEX
  5
1137
  8
SAPA_PROFIL
  6
CONTINUOUS
 10
10.729418158686601
 20
107.8097499189065
 30
0.0
 42
-0.4142135623730951
  0
VERTEX
  5
1138
  8
SAPA_PROFIL
  6
CONTINUOUS
 10
10.429418158686641
 20
107.50974991890649
 30
0.0
  0
VERTEX
  5
1139
  8
SAPA_PROFIL
  6
CONTINUOUS
 10
9.2294181586865989
 20
107.50974991890649
 30
0.0
 42
-0.4142135623730951
  0
VERTEX
  5
113A
  8
SAPA_PROFIL
  6
CONTINUOUS
 10
8.7294181586865989
 20
108.00974991890649
 30
0.0
  0
VERTEX
  5
113B
  8
SAPA_PROFIL
  6
CONTINUOUS
 10
8.7294181586865989
 20
116.00974991890649
 30
0.0
 42
-0.4142135623730951
  0
VERTEX
  5
113C
  8
SAPA_PROFIL
  6
CONTINUOUS
 10
9.2294181586865989
 20
116.50974991890649
 30
0.0
  0
VERTEX
  5
113D
  8
SAPA_PROFIL
  6
CONTINUOUS
 10
10.429418158686641
 20
116.50974991890649
 30
0.0
 42
-0.4142135623730951
  0
VERTEX
  5
113E
  8
SAPA_PROFIL
  6
CONTINUOUS
 10
10.729418158686601
 20
116.2097499189065
 30
0.0
  0
VERTEX
  5
113F
  8
SAPA_PROFIL
  6
CONTINUOUS
 10
10.729418158686601
 20
115.5597499189065
 30
0.0
 42
0.5507604245859089
  0
VERTEX
  5
1140
  8
SAPA_PROFIL
  6
CONTINUOUS
 10
11.157989587257809
 20
115.2886975480348
 30
0.0
 42
0.2896898633030179
  0
VERTEX
  5
1141
  8
SAPA_PROFIL
  6
CONTINUOUS
 10
11.72941815868557
 20
116.1922054509415
 30
0.0
  0
VERTEX
  5
1142
  8
SAPA_PROFIL
  6
CONTINUOUS
 10
11.729418158686601
 20
117.4597499189065
 30
0.0
 42
0.4142135623730951
  0
VERTEX
  5
1143
  8
SAPA_PROFIL
  6
CONTINUOUS
 10
11.429418158686641
 20
117.75974991890639
 30
0.0
  0
VERTEX
  5
1144
  8
SAPA_PROFIL
  6
CONTINUOUS
 10
7.229418158686598
 20
117.75974991890649
 30
0.0
 42
0.4142135623730951
  0
VERTEX
  5
1145
  8
SAPA_PROFIL
  6
CONTINUOUS
 10
6.229418158686598
 20
116.75974991890649
 30
0.0
  0
VERTEX
  5
1146
  8
SAPA_PROFIL
  6
CONTINUOUS
 10
6.229418158686598
 20
97.502390606025514
 30
0.0
 42
-0.1989123673796595
  0
VERTEX
  5
1147
  8
SAPA_PROFIL
  6
CONTINUOUS
 10
5.3507385022462577
 20
95.381070262465869
 30
0.0
  0
VERTEX
  5
1148
  8
SAPA_PROFIL
  6
CONTINUOUS
 10
2.6080978151265981
 20
92.638429575346535
 30
0.0
 42
0.1989123673796574
  0
VERTEX
  5
1149
  8
SAPA_PROFIL
  6
CONTINUOUS
 10
1.729418158686598
 20
90.517109231787586
 30
0.0
  0
VERTEX
  5
114A
  8
SAPA_PROFIL
  6
CONTINUOUS
 10
1.729418158686598
 20
45.002390606025521
 30
0.0
 42
0.1989123673796727
  0
VERTEX
  5
114B
  8
SAPA_PROFIL
  6
CONTINUOUS
 10
2.608097815127393
 20
42.881070262466437
 30
0.0
  0
VERTEX
  5
114C
  8
SAPA_PROFIL
  6
CONTINUOUS
 10
5.4365249398729238
 20
40.05264313771999
 30
0.0
 42
0.1989123673796728
  0
VERTEX
  5
114D
  8
SAPA_PROFIL
  6
CONTINUOUS
 10
6.1436317210594771
 20
39.75974991890655
 30
0.0
  0
VERTEX
  5
114E
  8
SAPA_PROFIL
  6
CONTINUOUS
 10
8.5294181586862123
 20
39.759749918906088
 30
0.0
 42
0.2504916501726754
  0
VERTEX
  5
114F
  8
SAPA_PROFIL
  6
CONTINUOUS
 10
9.5294181586864397
 20
40.75974991890655
 30
0.0
  0
SEQEND
  5
1150
  8
SAPA_PROFIL
  6
CONTINUOUS
  0
POLYLINE
  5
AD8
  8
SAPA_PROFIL
 66
     1
 10
0.0
 20
0.0
 30
0.0
  0
VERTEX
  5
1151
  8
SAPA_PROFIL
 10
40.907862978053153
 20
98.638486840460743
 30
0.0
  0
VERTEX
  5
1152
  8
SAPA_PROFIL
 10
40.226823044194838
 20
115.7597499189111
 30
0.0
 42
-0.4142135623730951
  0
VERTEX
  5
1153
  8
SAPA_PROFIL
 10
40.726823044194838
 20
116.2597499189111
 30
0.0
  0
VERTEX
  5
1154
  8
SAPA_PROFIL
 10
52.526436527203572
 20
116.259749918911
 30
0.0
 42
-0.4076767287637263
  0
VERTEX
  5
1155
  8
SAPA_PROFIL
 10
55.525686359593116
 20
113.32685356809409
 30
0.0
  0
VERTEX
  5
1156
  8
SAPA_PROFIL
 10
55.680125581703919
 20
98.638486840460743
 30
0.0
 42
-0.4182129759575463
  0
VERTEX
  5
1157
  8
SAPA_PROFIL
 10
55.184613860846753
 20
98.127325728405253
 30
0.0
  0
VERTEX
  5
1158
  8
SAPA_PROFIL
 10
52.709966104727393
 20
98.114498126879525
 30
0.0
  0
VERTEX
  5
1159
  8
SAPA_PROFIL
 10
51.083908148533823
 20
96.459809529255722
 30
0.0
  0
VERTEX
  5
115A
  8
SAPA_PROFIL
 10
51.083908148533823
 20
91.910733494967516
 30
0.0
 42
0.4293387945586749
  0
VERTEX
  5
115B
  8
SAPA_PROFIL
 10
51.40201928452317
 20
91.614006973883022
 30
0.0
  0
VERTEX
  5
115C
  8
SAPA_PROFIL
 10
52.483475009793629
 20
91.686646650010744
 30
0.0
 42
0.4883397947196161
  0
VERTEX
  5
115D
  8
SAPA_PROFIL
 10
52.262852075595411
 20
93.248368476019095
 30
0.0
  0
VERTEX
  5
115E
  8
SAPA_PROFIL
 10
52.262852075595411
 20
95.947449752053487
 30
0.0
  0
VERTEX
  5
115F
  8
SAPA_PROFIL
 10
53.217475295793292
 20
96.918881398429619
 30
0.0
  0
VERTEX
  5
1160
  8
SAPA_PROFIL
 10
55.716601438678367
 20
96.918881398429619
 30
0.0
  0
VERTEX
  5
1161
  8
SAPA_PROFIL
 10
55.716601438678367
 20
96.445105731914751
 30
0.0
  0
VERTEX
  5
1162
  8
SAPA_PROFIL
 10
57.229418158686599
 20
96.445105731914751
 30
0.0
  0
VERTEX
  5
1163
  8
SAPA_PROFIL
 10
57.229418158686713
 20
117.46239062560311
 30
0.0
 42
0.4116378201539302
  0
VERTEX
  5
1164
  8
SAPA_PROFIL
 10
56.929429681016359
 20
117.759749918911
 30
0.0
  0
VERTEX
  5
1165
  8
SAPA_PROFIL
 10
28.52682304419486
 20
117.7597499189111
 30
0.0
 42
0.414213562373095
  0
VERTEX
  5
1166
  8
SAPA_PROFIL
 10
28.226823044194791
 20
117.4597499189111
 30
0.0
  0
VERTEX
  5
1167
  8
SAPA_PROFIL
 10
28.226823044194852
 20
116.24974991891111
 30
0.0
 42
0.4142135623731037
  0
VERTEX
  5
1168
  8
SAPA_PROFIL
 10
29.2168230441948
 20
115.2597499189111
 30
0.0
  0
VERTEX
  5
1169
  8
SAPA_PROFIL
 10
29.226823044194852
 20
115.2597499189111
 30
0.0
  0
VERTEX
  5
116A
  8
SAPA_PROFIL
 10
29.226823044194852
 20
116.5097499189111
 30
0.0
  0
VERTEX
  5
116B
  8
SAPA_PROFIL
 10
30.726823044194852
 20
116.5097499189111
 30
0.0
 42
-0.4142135623730951
  0
VERTEX
  5
116C
  8
SAPA_PROFIL
 10
31.226823044194841
 20
116.0097499189111
 30
0.0
  0
VERTEX
  5
116D
  8
SAPA_PROFIL
 10
31.226823044194841
 20
108.0097499189111
 30
0.0
 42
-0.4142135623730951
  0
VERTEX
  5
116E
  8
SAPA_PROFIL
 10
30.726823044194852
 20
107.5097499189111
 30
0.0
  0
VERTEX
  5
116F
  8
SAPA_PROFIL
 10
29.226823044194852
 20
107.5097499189111
 30
0.0
  0
VERTEX
  5
1170
  8
SAPA_PROFIL
 10
29.226823044194852
 20
108.7597499189111
 30
0.0
  0
VERTEX
  5
1171
  8
SAPA_PROFIL
 10
29.2168230441948
 20
108.7597499189111
 30
0.0
 42
0.414213562373095
  0
VERTEX
  5
1172
  8
SAPA_PROFIL
 10
28.226823044194791
 20
107.7697499189111
 30
0.0
  0
VERTEX
  5
1173
  8
SAPA_PROFIL
 10
28.226823044194852
 20
107.2597499189111
 30
0.0
 42
0.4142135623730953
  0
VERTEX
  5
1174
  8
SAPA_PROFIL
 10
29.226823044194852
 20
106.2597499189111
 30
0.0
  0
VERTEX
  5
1175
  8
SAPA_PROFIL
 10
30.726823044194852
 20
106.2597499189111
 30
0.0
 42
0.4142135623730951
  0
VERTEX
  5
1176
  8
SAPA_PROFIL
 10
32.42682304419484
 20
107.9597499189111
 30
0.0
  0
VERTEX
  5
1177
  8
SAPA_PROFIL
 10
32.42682304419489
 20
115.7597499189111
 30
0.0
 42
-0.414213562373095
  0
VERTEX
  5
1178
  8
SAPA_PROFIL
 10
32.92682304419489
 20
116.2597499189111
 30
0.0
  0
VERTEX
  5
1179
  8
SAPA_PROFIL
 10
38.42682304419489
 20
116.2597499189111
 30
0.0
 42
-0.4142135623730951
  0
VERTEX
  5
117A
  8
SAPA_PROFIL
 10
38.92682304419489
 20
115.7597499189111
 30
0.0
  0
VERTEX
  5
117B
  8
SAPA_PROFIL
 10
39.598032690661199
 20
98.638486840460743
 30
0.0
  0
VERTEX
  5
117C
  8
SAPA_PROFIL
 10
40.254971141390541
 20
93.235540076711061
 30
0.0
 42
-0.4666505291506209
  0
VERTEX
  5
117D
  8
SAPA_PROFIL
 10
39.993139610345992
 20
92.955738510792287
 30
0.0
  0
VERTEX
  5
117E
  8
SAPA_PROFIL
 10
39.270483516787039
 20
92.995281404710624
 30
0.0
 42
0.7332303362618522
  0
VERTEX
  5
117F
  8
SAPA_PROFIL
 10
39.070308928216861
 20
92.459205382058315
 30
0.0
  0
VERTEX
  5
1180
  8
SAPA_PROFIL
 10
41.180416267754573
 20
91.688295264553915
 30
0.0
 42
0.668178637919333
  0
VERTEX
  5
1181
  8
SAPA_PROFIL
 10
41.66276411984537
 20
91.961461459748193
 30
0.0
  0
VERTEX
  5
1182
  8
SAPA_PROFIL
 10
40.907862978053153
 20
98.638486840460743
 30
0.0
  0
VERTEX
  5
1183
  8
SAPA_PROFIL
 10
40.91739643021625
 20
98.638486840460743
 30
0.0
  0
SEQEND
  5
1184
  8
SAPA_PROFIL
  0
POLYLINE
  5
AE6
  8
SAPA_GLAS
 66
     1
 10
0.0
 20
0.0
 30
0.0
 70
     1
  0
VERTEX
  5
11A2
  8
SAPA_GLAS
 10
24.099227932426029
 20
95.764033121751979
 30
0.0
  0
VERTEX
  5
11A3
  8
SAPA_GLAS
 10
37.199227932426062
 20
95.76403312175195
 30
0.0
  0
VERTEX
  5
11A4
  8
SAPA_GLAS
 10
37.199227932426062
 20
96.764033121751964
 30
0.0
  0
VERTEX
  5
11A5
  8
SAPA_GLAS
 10
25.099227932426039
 20
96.764033121751979
 30
0.0
  0
VERTEX
  5
11A6
  8
SAPA_GLAS
 10
25.099227932426039
 20
108.76403312175201
 30
0.0
  0
VERTEX
  5
11A7
  8
SAPA_GLAS
 10
24.099227932426029
 20
108.76403312175201
 30
0.0
  0
SEQEND
  5
11A8
  8
SAPA_GLAS
  0
LINE
  5
AE7
  8
SAPA_GLAS
 62
     1
 10
22.49922793242602
 20
111.31318627456859
 30
0.0
 11
22.49922793242601
 21
100.56403492057009
 31
0.0
  0
LINE
  5
AE8
  8
SAPA_GLAS
 62
     1
 10
15.893810686297879
 20
100.56403492057009
 30
0.0
 11
15.893810686297901
 21
111.255239789269
 31
0.0
  0
POLYLINE
  5
AE9
  8
SAPA_GLAS
 62
     6
 66
     1
 10
0.0
 20
0.0
 30
0.0
 70
     1
  0
VERTEX
  5
11A9
  8
SAPA_GLAS
 62
     6
 10
22.49922793242601
 20
96.75974992255675
 30
0.0
  0
VERTEX
  5
11AA
  8
SAPA_GLAS
 62
     6
 10
22.49922793242601
 20
108.75974992255669
 30
0.0
  0
VERTEX
  5
11AB
  8
SAPA_GLAS
 62
     6
 10
24.099227932426029
 20
108.75974992255669
 30
0.0
  0
VERTEX
  5
11AC
  8
SAPA_GLAS
 62
     6
 10
24.099227932426029
 20
96.75974992255675
 30
0.0
  0
SEQEND
  5
11AD
  8
SAPA_GLAS
 62
     6
  0
POLYLINE
  5
AEA
  8
SAPA_GLAS
 62
     6
 66
     1
 10
0.0
 20
0.0
 30
0.0
 70
     1
  0
VERTEX
  5
11AE
  8
SAPA_GLAS
 62
     6
 10
14.314467417544019
 20
96.75974992255675
 30
0.0
  0
VERTEX
  5
11AF
  8
SAPA_GLAS
 62
     6
 10
14.314467417544019
 20
108.75974992255669
 30
0.0
  0
VERTEX
  5
11B0
  8
SAPA_GLAS
 62
     6
 10
15.91446741754404
 20
108.75974992255669
 30
0.0
  0
VERTEX
  5
11B1
  8
SAPA_GLAS
 62
     6
 10
15.91446741754404
 20
96.75974992255675
 30
0.0
  0
SEQEND
  5
11B2
  8
SAPA_GLAS
 62
     6
  0
POLYLINE
  5
AEB
  8
SAPA_GLAS
 66
     1
 10
0.0
 20
0.0
 30
0.0
 70
     1
  0
VERTEX
  5
11B3
  8
SAPA_GLAS
 10
14.314467417544019
 20
96.75974992255675
 30
0.0
  0
VERTEX
  5
11B4
  8
SAPA_GLAS
 10
37.714222304905633
 20
96.759749922556708
 30
0.0
  0
VERTEX
  5
11B5
  8
SAPA_GLAS
 10
37.714222304905633
 20
95.759749922556708
 30
0.0
  0
VERTEX
  5
11B6
  8
SAPA_GLAS
 10
13.314467417544019
 20
95.759749922556736
 30
0.0
  0
VERTEX
  5
11B7
  8
SAPA_GLAS
 10
13.314467417544019
 20
108.75974992255669
 30
0.0
  0
VERTEX
  5
11B8
  8
SAPA_GLAS
 10
14.314467417544019
 20
108.75974992255649
 30
0.0
  0
SEQEND
  5
11B9
  8
SAPA_GLAS
  0
LINE
  5
AEC
  8
SAPA_GLAS
 62
     1
 10
22.379227932426119
 20
100.7640349205702
 30
0.0
 11
15.893810686297879
 21
100.7640349205702
 31
0.0
  0
POLYLINE
  5
AED
  8
SAPA_GLAS
 66
     1
 10
0.0
 20
0.0
 30
0.0
  0
VERTEX
  5
11BA
  8
SAPA_GLAS
 10
22.19669809360629
 20
133.47629082644929
 30
0.0
  0
VERTEX
  5
11BB
  8
SAPA_GLAS
 10
22.196698093606269
 20
100.9700097225564
 30
0.0
  0
VERTEX
  5
11BC
  8
SAPA_GLAS
 10
16.196698093606269
 20
100.9700097225564
 30
0.0
  0
VERTEX
  5
11BD
  8
SAPA_GLAS
 10
16.19669809360629
 20
133.4762908264492
 30
0.0
  0
SEQEND
  5
11BE
  8
SAPA_GLAS
  0
LINE
  5
AEE
  8
SAPA_GLAS
  6
BYGG-022629$0$DASHDOT
 62
     2
 10
32.201340579304798
 20
90.456643106920907
 30
0.0
 11
32.201340579304798
 21
101.84140488493669
 31
0.0
  0
INSERT
  5
B04
  8
SAPA_FOGBAND
  2
BYGG-022629$0$18058
 10
25.085324609587062
 20
113.36265603983129
 30
0.0
 41
-1.0
 50
180.0
  0
INSERT
  5
B05
  8
SAPA_FOGBAND
  2
BYGG-022629$0$18049
 10
11.798811279101701
 20
111.7130683469431
 30
0.0
 41
-1.0
 50
180.0
  0
LINE
  5
B06
  8
SAPA_FOGBAND
 62
     6
 10
17.193664654675729
 20
42.663274746521431
 30
0.0
 11
24.793664654675752
 21
42.663274746521431
 31
0.0
1001
ACAD
1000
ASC_BOUNDS
1002
{
1070
    19
1005
B12
1005
B11
1005
B10
1002
}
  0
LINE
  5
B07
  8
SAPA_FOGBAND
 62
     6
 10
21.193664654675729
 20
40.663274746521431
 30
0.0
 11
21.193664654675729
 21
47.01381078278245
 31
0.0
  0
POLYLINE
  5
B08
  8
SAPA_FOGBAND
 62
     6
 66
     1
 10
0.0
 20
0.0
 30
0.0
  0
VERTEX
  5
1323
  8
SAPA_FOGBAND
 62
     6
 10
31.864463122436181
 20
33.910260441976988
 30
0.0
  0
VERTEX
  5
1324
  8
SAPA_FOGBAND
 62
     6
 10
32.202343507601029
 20
34.499458838681882
 30
0.0
  0
VERTEX
  5
1325
  8
SAPA_FOGBAND
 62
     6
 10
31.924748674046612
 20
34.658647746536872
 30
0.0
 42
-0.5693809839207931
  0
VERTEX
  5
1326
  8
SAPA_FOGBAND
 62
     6
 10
31.92064314674343
 20
34.933806129657228
 30
0.0
  0
VERTEX
  5
1327
  8
SAPA_FOGBAND
 62
     6
 10
32.923914182087351
 20
35.549625810896771
 30
0.0
 42
-0.2743878130875455
  0
VERTEX
  5
1328
  8
SAPA_FOGBAND
 62
     6
 10
33.413797487559812
 20
35.556935162198528
 30
0.0
  0
VERTEX
  5
1329
  8
SAPA_FOGBAND
 62
     6
 10
34.65454411230656
 20
34.845419398058652
 30
0.0
 42
-0.2743878130875455
  0
VERTEX
  5
132A
  8
SAPA_FOGBAND
 62
     6
 10
34.895654247704329
 20
34.418916195016067
 30
0.0
  0
VERTEX
  5
132B
  8
SAPA_FOGBAND
 62
     6
 10
34.87085725418882
 20
33.241982994161077
 30
0.0
 42
-0.5693809839207934
  0
VERTEX
  5
132C
  8
SAPA_FOGBAND
 62
     6
 10
34.631298301201873
 20
33.106555894954397
 30
0.0
  0
VERTEX
  5
132D
  8
SAPA_FOGBAND
 62
     6
 10
34.353703467646831
 20
33.265744802809081
 30
0.0
  0
VERTEX
  5
132E
  8
SAPA_FOGBAND
 62
     6
 10
33.75674506319217
 20
32.224764176980187
 30
0.0
  0
VERTEX
  5
132F
  8
SAPA_FOGBAND
 62
     6
 10
41.052284282542523
 20
28.041080692426871
 30
0.0
  0
VERTEX
  5
1330
  8
SAPA_FOGBAND
 62
     6
 10
40.554818945496883
 20
27.173596837569441
 30
0.0
  0
VERTEX
  5
1331
  8
SAPA_FOGBAND
 62
     6
 10
30.40525784366617
 20
32.993941281002783
 30
0.0
  0
VERTEX
  5
1332
  8
SAPA_FOGBAND
 62
     6
 10
30.902723180711629
 20
33.861425135860117
 30
0.0
  0
VERTEX
  5
1333
  8
SAPA_FOGBAND
 62
     6
 10
31.605385103146212
 20
33.45847821285313
 30
0.0
  0
VERTEX
  5
1334
  8
SAPA_FOGBAND
 62
     6
 10
32.122749053673829
 20
34.360661421904751
 30
0.0
  0
SEQEND
  5
1335
  8
SAPA_FOGBAND
 62
     6
  0
POLYLINE
  5
B09
  8
SAPA_FOGBAND
 62
     6
 66
     1
 10
0.0
 20
0.0
 30
0.0
 70
     1
  0
VERTEX
  5
1336
  8
SAPA_FOGBAND
 62
     6
 10
31.919799788604571
 20
34.52940642370956
 30
0.0
 42
-0.4142135623730951
  0
VERTEX
  5
1337
  8
SAPA_FOGBAND
 62
     6
 10
32.030805343948202
 20
34.119921666138602
 30
0.0
  0
VERTEX
  5
1338
  8
SAPA_FOGBAND
 62
     6
 10
31.83181920912995
 20
33.77292812419563
 30
0.0
 42
-0.4142135623730951
  0
VERTEX
  5
1339
  8
SAPA_FOGBAND
 62
     6
 10
31.422334451559038
 20
33.661922568852248
 30
0.0
  0
VERTEX
  5
133A
  8
SAPA_FOGBAND
 62
     6
 10
31.118715102358919
 20
33.836035436818243
 30
0.0
 42
0.4142135623731332
  0
VERTEX
  5
133B
  8
SAPA_FOGBAND
 62
     6
 10
30.709230344788011
 20
33.725029881474597
 30
0.0
  0
VERTEX
  5
133C
  8
SAPA_FOGBAND
 62
     6
 10
30.361004608856259
 20
33.117791183074502
 30
0.0
 42
-0.4142135623731276
  0
VERTEX
  5
133D
  8
SAPA_FOGBAND
 62
     6
 10
29.951519851285301
 20
33.006785627730949
 30
0.0
  0
VERTEX
  5
133E
  8
SAPA_FOGBAND
 62
     6
 10
22.525107599484159
 20
37.265519266628871
 30
0.0
 42
-0.2206060415203605
  0
VERTEX
  5
133F
  8
SAPA_FOGBAND
 62
     6
 10
21.74736507037295
 20
38.364514177704791
 30
0.0
  0
VERTEX
  5
1340
  8
SAPA_FOGBAND
 62
     6
 10
21.373228900596359
 20
40.40193810537437
 30
0.0
 42
0.3489347603450904
  0
VERTEX
  5
1341
  8
SAPA_FOGBAND
 62
     6
 10
21.09204329144325
 20
40.64743319888521
 30
0.0
 42
-4.5164200327571251
  0
VERTEX
  5
1342
  8
SAPA_FOGBAND
 62
     6
 10
22.654097714760841
 20
41.288632906095927
 30
0.0
 42
0.2360151146012802
  0
VERTEX
  5
1343
  8
SAPA_FOGBAND
 62
     6
 10
22.579458836767799
 20
41.030950547400629
 30
0.0
  0
VERTEX
  5
1344
  8
SAPA_FOGBAND
 62
     6
 10
23.02598581343506
 20
38.599309823770142
 30
0.0
 42
0.2206060415203605
  0
VERTEX
  5
1345
  8
SAPA_FOGBAND
 62
     6
 10
23.171812537643401
 20
38.393248277943457
 30
0.0
  0
VERTEX
  5
1346
  8
SAPA_FOGBAND
 62
     6
 10
29.730740934587459
 20
34.631979976091031
 30
0.0
 42
0.4142135623731102
  0
VERTEX
  5
1347
  8
SAPA_FOGBAND
 62
     6
 10
30.14022569215825
 20
34.742985531434726
 30
0.0
  0
VERTEX
  5
1348
  8
SAPA_FOGBAND
 62
     6
 10
31.03566329884007
 20
36.304456470177847
 30
0.0
 42
-0.4142135623730951
  0
VERTEX
  5
1349
  8
SAPA_FOGBAND
 62
     6
 10
33.76556168264591
 20
37.044493505801341
 30
0.0
  0
VERTEX
  5
134A
  8
SAPA_FOGBAND
 62
     6
 10
37.235497102075207
 20
35.054632157619103
 30
0.0
 42
-0.4142135623730951
  0
VERTEX
  5
134B
  8
SAPA_FOGBAND
 62
     6
 10
37.346502657418803
 20
34.645147400048188
 30
0.0
  0
VERTEX
  5
134C
  8
SAPA_FOGBAND
 62
     6
 10
35.605373977759541
 20
31.608953908048019
 30
0.0
 42
-0.4142135623727727
  0
VERTEX
  5
134D
  8
SAPA_FOGBAND
 62
     6
 10
35.195889220188967
 20
31.497948352704299
 30
0.0
  0
VERTEX
  5
134E
  8
SAPA_FOGBAND
 62
     6
 10
34.024786016130747
 20
32.169526557714342
 30
0.0
 42
-0.4142135623734437
  0
VERTEX
  5
134F
  8
SAPA_FOGBAND
 62
     6
 10
33.913780460786988
 20
32.57901131528547
 30
0.0
  0
VERTEX
  5
1350
  8
SAPA_FOGBAND
 62
     6
 10
34.112766595605592
 20
32.926004857229138
 30
0.0
 42
-0.4142135623730951
  0
VERTEX
  5
1351
  8
SAPA_FOGBAND
 62
     6
 10
34.522251353176607
 20
33.03701041257267
 30
0.0
  0
VERTEX
  5
1352
  8
SAPA_FOGBAND
 62
     6
 10
35.08611585883375
 20
32.713657943493132
 30
0.0
  0
VERTEX
  5
1353
  8
SAPA_FOGBAND
 62
     6
 10
35.633327729583932
 20
33.667890183836249
 30
0.0
 42
0.4142135623730951
  0
VERTEX
  5
1354
  8
SAPA_FOGBAND
 62
     6
 10
35.263309211772203
 20
35.032839375739108
 30
0.0
  0
VERTEX
  5
1355
  8
SAPA_FOGBAND
 62
     6
 10
33.268096345600441
 20
36.177009650943972
 30
0.0
 42
0.4142135623730951
  0
VERTEX
  5
1356
  8
SAPA_FOGBAND
 62
     6
 10
31.903147153697489
 20
35.806991133132207
 30
0.0
  0
VERTEX
  5
1357
  8
SAPA_FOGBAND
 62
     6
 10
31.355935282947371
 20
34.852758892789097
 30
0.0
  0
SEQEND
  5
1358
  8
SAPA_FOGBAND
 62
     6
  0
INSERT
  5
B0A
  8
SAPA_FOGBAND
  6
CONTINUOUS
 62
     6
  2
*U66
 10
0.0
 20
0.0
 30
0.0
1001
ACAD
1002
{
1000
R14_HATCH_DATA
1000
B0A
1011
1.0
1021
1.0130653249203235E+177
1031
0.0
1021
0.0
1031
0.0
1011
0.0
1021
1.0130653249203235E+177
1031
0.0
1021
1.0
1031
0.0
1011
0.0
1021
1.0130653249203235E+177
1031
0.0
1021
0.0
1031
1.0
1040
0.0
1010
0.0
1020
0.0
1030
1.0
1000
SOLID
1070
     1
1070
     1
1071
        1
1071
        7
1070
     1
1070
     1
1071
       24
1040
40.554818945496891
1040
27.173596837569441
1040
0.0
1040
41.052284282542523
1040
28.041080692426871
1040
0.0
1040
33.75674506319217
1040
32.224764176980187
1040
0.0
1040
33.87402602086042
1040
32.42927960686653
1040
-0.1313259594332588
1040
33.913780460786988
1040
32.57901131528547
1040
0.0
1040
34.112766595605592
1040
32.926004857229138
1040
-0.1313259594331638
1040
34.221919743920438
1040
33.035939338684528
1040
0.0
1040
34.353703467646831
1040
33.265744802809081
1040
0.0
1040
34.631298301201873
1040
33.106555894954397
1040
0.5693809839207935
1040
34.87085725418882
1040
33.241982994161077
1040
0.0
1040
34.895654247704329
1040
34.418916195016067
1040
0.2743878130875455
1040
34.65454411230656
1040
34.845419398058652
1040
0.0
1040
33.413797487559812
1040
35.556935162198528
1040
0.2743878130875455
1040
32.923914182087351
1040
35.549625810896771
1040
0.0
1040
31.92064314674343
1040
34.933806129657228
1040
0.5693809839207931
1040
31.924748674046612
1040
34.658647746536872
1040
0.0
1040
32.202343507601029
1040
34.499458838681882
1040
0.0
1040
32.070559783874707
1040
34.269653374557457
1040
-0.1313259594331621
1040
32.030805343948202
1040
34.119921666138602
1040
0.0
1040
31.83181920912995
1040
33.77292812419563
1040
-0.1313259594333092
1040
31.722666060814969
1040
33.662993642740233
1040
0.0
1040
31.605385103146201
1040
33.45847821285313
1040
0.0
1040
30.902723180711629
1040
33.861425135860117
1040
0.0
1040
30.40525784366617
1040
32.993941281002783
1040
0.0
1071
        2
1005
B08
1005
B09
1070
     0
1070
     1
1040
0.0667975814888222
1071
        1
1040
32.791211350401113
1040
32.616148682584651
1040
0.0
1002
}
  0
INSERT
  5
B0B
  8
SAPA_FOGBAND
  6
CONTINUOUS
 62
     6
  2
*X67
 10
0.0
 20
0.0
 30
0.0
1001
ACAD
1000
HATCH
1002
{
1070
    19
1000
ANSI31
1040
0.25
1040
-0.3864292271413414
1000
R14_HATCH_DATA
1000
B0B
1011
1.0
1021
1.0130653249203235E+177
1031
0.0
1021
0.0
1031
0.0
1011
0.0
1021
1.0130653249203235E+177
1031
0.0
1021
1.0
1031
0.0
1011
0.0
1021
1.0130653249203235E+177
1031
0.0
1021
0.0
1031
1.0
1040
0.0
1010
0.0
1020
0.0
1030
1.0
1000
ANSI31
1070
     0
1070
     0
1071
        1
1071
        7
1070
     1
1070
     1
1071
        3
1040
23.046186108601091
1040
41.909508030130972
1040
0.4142135623730637
1040
21.947431371066049
1040
44.515796200446232
1040
0.0
1040
21.193664654675789
1040
42.663274746521409
1040
0.0
1071
        0
1070
     0
1070
     1
1040
-0.3864292271413414
1040
0.25
1070
     0
1070
     1
1040
0.3989689362561068
1040
-441.09519918080042
1040
-147.773635572671
1040
-0.3083468424159645
1040
0.7314104779616603
1070
     0
1040
0.0147812172670877
1071
        1
1040
22.28838612410749
1040
43.06516047675251
1040
0.0
1002
}
  0
INSERT
  5
B0C
  8
SAPA_FOGBAND
  6
CONTINUOUS
 62
     6
  2
*X68
 10
0.0
 20
0.0
 30
0.0
1001
ACAD
1000
HATCH
1002
{
1070
    19
1000
ANSI31
1040
0.25
1040
-0.3864292271413414
1000
R14_HATCH_DATA
1000
B0C
1011
1.0
1021
1.0130653249203235E+177
1031
0.0
1021
0.0
1031
0.0
1011
0.0
1021
1.0130653249203235E+177
1031
0.0
1021
1.0
1031
0.0
1011
0.0
1021
1.0130653249203235E+177
1031
0.0
1021
0.0
1031
1.0
1040
0.0
1010
0.0
1020
0.0
1030
1.0
1000
ANSI31
1070
     0
1070
     0
1071
        1
1071
        7
1070
     1
1070
     1
1071
        3
1040
19.746455125602321
1040
44.331219915716872
1040
0.0
1040
21.598976579527228
1040
43.577453199326577
1040
0.0
1040
22.352743295917548
1040
45.42997465325135
1040
0.4142135623729971
1071
        0
1070
     0
1070
     1
1040
-0.3864292271413414
1040
0.25
1070
     0
1070
     1
1040
0.3989689362561068
1040
-440.68988725594892
1040
-146.85945711986579
1040
-0.3083468424159645
1040
0.7314104779616603
1070
     0
1040
0.0147812172670877
1071
        1
1040
21.107768855057198
1040
44.672507265732037
1040
0.0
1002
}
  0
INSERT
  5
B0D
  8
SAPA_FOGBAND
  6
CONTINUOUS
 62
     6
  2
*X69
 10
0.0
 20
0.0
 30
0.0
1001
ACAD
1000
HATCH
1002
{
1070
    19
1000
ANSI31
1040
0.25
1040
-0.3864292271413414
1000
R14_HATCH_DATA
1000
B0D
1011
1.0
1021
1.0130653249203235E+177
1031
0.0
1021
0.0
1031
0.0
1011
0.0
1021
1.0130653249203235E+177
1031
0.0
1021
1.0
1031
0.0
1011
0.0
1021
1.0130653249203235E+177
1031
0.0
1021
0.0
1031
1.0
1040
0.0
1010
0.0
1020
0.0
1030
1.0
1000
ANSI31
1070
     0
1070
     0
1071
        1
1071
        7
1070
     1
1070
     1
1071
        3
1040
19.746455125602321
1040
44.3312199157169
1040
0.4142135623730969
1040
20.845209863136692
1040
41.724931745401193
1040
0.0
1040
21.598976579527228
1040
43.577453199326577
1040
0.0
1071
        0
1070
     0
1070
     1
1040
-0.3864292271413414
1040
0.25
1070
     0
1070
     1
1040
0.3989689362561068
1040
-440.68988725594892
1040
-146.85945711986579
1040
-0.3083468424159645
1040
0.7314104779616603
1070
     0
1040
0.0147812172670877
1071
        1
1040
20.569500861223268
1040
43.231894794845203
1040
0.0
1002
}
  0
INSERT
  5
B0E
  8
SAPA_FOGBAND
  6
CONTINUOUS
 62
     6
  2
*X70
 10
0.0
 20
0.0
 30
0.0
1001
ACAD
1000
HATCH
1002
{
1070
    19
1000
ANSI31
1040
0.25
1040
-0.4872082237795662
1000
R14_HATCH_DATA
1000
B0E
1011
1.0
1021
1.0130653249203235E+177
1031
0.0
1021
0.0
1031
0.0
1011
0.0
1021
1.0130653249203235E+177
1031
0.0
1021
1.0
1031
0.0
1011
0.0
1021
1.0130653249203235E+177
1031
0.0
1021
0.0
1031
1.0
1040
0.0
1010
0.0
1020
0.0
1030
1.0
1000
ANSI31
1070
     0
1070
     0
1071
        1
1071
        7
1070
     1
1070
     1
1071
       37
1040
23.171812537643401
1040
38.393248277943457
1040
-0.2206060415203605
1040
23.02598581343506
1040
38.599309823770142
1040
0.0
1040
22.579458836767799
1040
41.030950547400629
1040
-0.2360151146006575
1040
22.654097714760379
1040
41.288632906095437
1040
0.0646593890645067
1040
22.951868000452752
1040
41.708969663631727
1040
0.0
1040
21.184581399231721
1040
42.645291226523682
1040
0.0
1040
20.248259836339681
1040
40.878004625302673
1040
0.1106793054466437
1040
21.092043291445119
1040
40.64743319888521
1040
-0.3489347603433254
1040
21.373228900596359
1040
40.40193810537437
1040
0.0
1040
21.74736507037295
1040
38.364514177704791
1040
0.2206060415203605
1040
22.525107599484159
1040
37.265519266628871
1040
0.0
1040
29.951519851285301
1040
33.006785627730949
1040
0.4142135623731276
1040
30.361004608856259
1040
33.117791183074502
1040
0.0
1040
30.709230344788011
1040
33.725029881474597
1040
-0.4142135623731332
1040
31.118715102358919
1040
33.836035436818243
1040
0.0
1040
31.422334451559038
1040
33.661922568852248
1040
0.2682932564172477
1040
31.722666060814959
1040
33.662993642740133
1040
0.0
1040
32.070559783874671
1040
34.269653374557521
1040
0.268293256417471
1040
31.919799788604571
1040
34.52940642370956
1040
0.0
1040
31.355935282947261
1040
34.852758892789069
1040
0.0
1040
31.903147153697489
1040
35.806991133132207
1040
-0.4142135623730951
1040
33.268096345600441
1040
36.177009650943972
1040
0.0
1040
35.263309211772203
1040
35.032839375739108
1040
-0.4142135623730951
1040
35.633327729583932
1040
33.667890183836249
1040
0.0
1040
35.086115858833857
1040
32.71365794349316
1040
0.0
1040
34.522251353176607
1040
33.03701041257267
1040
0.2682932564174049
1040
34.221919743920473
1040
33.035939338684649
1040
0.0
1040
33.87402602086047
1040
32.429279606866572
1040
0.2682932564176823
1040
34.024786016130747
1040
32.169526557714342
1040
0.0
1040
35.195889220188967
1040
31.497948352704299
1040
0.4142135623727729
1040
35.605373977759541
1040
31.608953908048019
1040
0.0
1040
37.346502657418803
1040
34.645147400048188
1040
0.4142135623730951
1040
37.235497102075207
1040
35.054632157619103
1040
0.0
1040
33.76556168264591
1040
37.044493505801341
1040
0.4142135623730951
1040
31.03566329884007
1040
36.304456470177847
1040
0.0
1040
30.14022569215825
1040
34.742985531434726
1040
-0.4142135623731102
1040
29.730740934587459
1040
34.631979976091031
1040
0.0
1071
        0
1070
     0
1070
     1
1040
-0.4872082237795662
1040
0.25
1070
     0
1070
     1
1040
0.2981899396178821
1040
-457.91824217117528
1040
-100.3151749348559
1040
-0.2331962147455006
1040
0.758721680149164
1070
     0
1040
0.0442050187641056
1071
        1
1040
25.613024604331262
1040
36.245622302680353
1040
0.0
1002
}
  0
POLYLINE
  5
B0F
  8
SAPA_FOGBAND
 62
     6
 66
     1
 10
0.0
 20
0.0
 30
0.0
1001
ACAD
1000
ASC_BOUNDS
1002
{
1070
    19
1005
B12
1005
B11
1005
B10
1002
}
  0
VERTEX
  5
1426
  8
SAPA_FOGBAND
 62
     6
 10
37.893664654679021
 20
46.26327474652566
 30
0.0
  0
VERTEX
  5
1427
  8
SAPA_FOGBAND
 62
     6
 10
37.893664654679021
 20
47.463274746525663
 30
0.0
  0
VERTEX
  5
1428
  8
SAPA_FOGBAND
 62
     6
 10
23.393664654679021
 20
47.463274746525663
 30
0.0
  0
VERTEX
  5
1429
  8
SAPA_FOGBAND
 62
     6
 10
23.393664654679021
 20
46.26327474652566
 30
0.0
  0
VERTEX
  5
142A
  8
SAPA_FOGBAND
 62
     6
 10
24.793664654678992
 20
46.26327474652566
 30
0.0
  0
VERTEX
  5
142B
  8
SAPA_FOGBAND
 62
     6
 10
24.793664654678992
 20
42.163274746525637
 30
0.0
  0
VERTEX
  5
142C
  8
SAPA_FOGBAND
 62
     6
 10
23.233272460116101
 20
42.163274746525637
 30
0.0
 42
2.0353444965274159
  0
VERTEX
  5
142D
  8
SAPA_FOGBAND
 62
     6
 10
20.193664654678969
 20
40.816656215263713
 30
0.0
  0
VERTEX
  5
142E
  8
SAPA_FOGBAND
 62
     6
 10
19.693664654678969
 20
39.663274746525637
 30
0.0
  0
VERTEX
  5
142F
  8
SAPA_FOGBAND
 62
     6
 10
17.193664654678969
 20
39.663274746525637
 30
0.0
  0
VERTEX
  5
1430
  8
SAPA_FOGBAND
 62
     6
 10
17.193664654678969
 20
48.663274746525637
 30
0.0
  0
VERTEX
  5
1431
  8
SAPA_FOGBAND
 62
     6
 10
39.193664654678969
 20
48.663274746525637
 30
0.0
  0
VERTEX
  5
1432
  8
SAPA_FOGBAND
 62
     6
 10
39.193664654678969
 20
44.063274746525622
 30
0.0
  0
VERTEX
  5
1433
  8
SAPA_FOGBAND
 62
     6
 10
37.893664654678958
 20
44.063274746525622
 30
0.0
  0
VERTEX
  5
1434
  8
SAPA_FOGBAND
 62
     6
 10
37.893664654679021
 20
45.063274746525671
 30
0.0
  0
VERTEX
  5
1435
  8
SAPA_FOGBAND
 62
     6
 10
36.693664654678969
 20
45.063274746525728
 30
0.0
  0
VERTEX
  5
1436
  8
SAPA_FOGBAND
 62
     6
 10
36.693664654678969
 20
46.26327474652566
 30
0.0
  0
VERTEX
  5
1437
  8
SAPA_FOGBAND
 62
     6
 10
37.893664654679021
 20
46.26327474652566
 30
0.0
  0
VERTEX
  5
1438
  8
SAPA_FOGBAND
 62
     6
 10
36.693664654678969
 20
46.26327474652566
 30
0.0
  0
SEQEND
  5
1439
  8
SAPA_FOGBAND
 62
     6
  0
INSERT
  5
B10
  8
SAPA_FOGBAND
  6
CONTINUOUS
 62
     6
  2
*X71
 10
0.0
 20
0.0
 30
0.0
1001
ACAD
1000
HATCH
1002
{
1070
    19
1000
ANSI31
1040
0.25
1040
0.0
1000
ASC_BOUNDS
1070
     1
1070
     1
1070
     2
1005
B0F
1005
B06
1000
ASC_SEEDPOINT
1011
18.14823655250882
1021
1.0130653249203235E+177
1031
0.0
1021
41.36005177598264
1031
0.0
1000
R14_HATCH_DATA
1000
B10
1011
1.0
1021
1.0130653249203235E+177
1031
0.0
1021
0.0
1031
0.0
1011
0.0
1021
1.0130653249203235E+177
1031
0.0
1021
1.0
1031
0.0
1011
0.0
1021
1.0130653249203235E+177
1031
0.0
1021
0.0
1031
1.0
1040
0.0
1010
0.0
1020
0.0
1030
1.0
1000
ANSI31
1070
     0
1070
     1
1071
        1
1071
        7
1070
     1
1070
     1
1071
        5
1040
17.193664654678969
1040
39.663274746525637
1040
0.0
1040
19.693664654678969
1040
39.663274746525637
1040
0.0
1040
20.193664654678969
1040
40.816656215263713
1040
-0.2752727225072117
1040
19.093664654678982
1040
42.663274746521431
1040
0.0
1040
17.193664654678969
1040
42.663274746521431
1040
0.0
1071
        2
1005
B06
1005
B0F
1070
     0
1070
     1
1040
0.0
1040
0.25
1070
     0
1070
     1
1040
0.7853981633974483
1040
-419.15790548497858
1040
-309.17509257390623
1040
-0.5612660075668221
1040
0.5612660075668221
1070
     0
1040
0.0285431840481622
1071
        1
1040
18.14823655250882
1040
41.36005177598264
1040
0.0
1002
}
  0
INSERT
  5
B11
  8
SAPA_FOGBAND
  6
CONTINUOUS
 62
     6
  2
*X72
 10
0.0
 20
0.0
 30
0.0
1001
ACAD
1000
HATCH
1002
{
1070
    19
1000
ANSI31
1040
0.25
1040
0.0
1000
ASC_BOUNDS
1070
     1
1070
     1
1070
     2
1005
B0F
1005
B06
1000
ASC_SEEDPOINT
1011
18.505840887112981
1021
1.0130653249203235E+177
1031
0.0
1021
39.114905194858132
1031
0.0
1000
R14_HATCH_DATA
1000
B11
1011
1.0
1021
1.0130653249203235E+177
1031
0.0
1021
0.0
1031
0.0
1011
0.0
1021
1.0130653249203235E+177
1031
0.0
1021
1.0
1031
0.0
1011
0.0
1021
1.0130653249203235E+177
1031
0.0
1021
0.0
1031
1.0
1040
0.0
1010
0.0
1020
0.0
1030
1.0
1000
ANSI31
1070
     0
1070
     1
1071
        1
1071
        7
1070
     1
1070
     1
1071
       16
1040
17.193664654678969
1040
42.663274746521431
1040
0.0
1040
19.093664654678982
1040
42.663274746521431
1040
-1.0
1040
23.293664654678992
1040
42.663274746521431
1040
0.0
1040
24.793664654678992
1040
42.663274746521431
1040
0.0
1040
24.793664654678992
1040
46.26327474652566
1040
0.0
1040
23.393664654679021
1040
46.26327474652566
1040
0.0
1040
23.393664654679021
1040
47.463274746525663
1040
0.0
1040
37.893664654679021
1040
47.463274746525663
1040
0.0
1040
37.893664654679021
1040
46.26327474652566
1040
0.0
1040
36.693664654678969
1040
46.26327474652566
1040
0.0
1040
36.693664654678969
1040
45.063274746525728
1040
0.0
1040
37.893664654679021
1040
45.063274746525671
1040
0.0
1040
37.893664654678958
1040
44.063274746525622
1040
0.0
1040
39.193664654678969
1040
44.063274746525622
1040
0.0
1040
39.193664654678969
1040
48.663274746525637
1040
0.0
1040
17.193664654678969
1040
48.663274746525637
1040
0.0
1071
        2
1005
B06
1005
B0F
1070
     0
1070
     1
1040
0.0
1040
0.25
1070
     0
1070
     1
1040
0.7853981633974483
1040
-335.23385214325702
1040
-309.95993570520397
1040
-0.5612660075668221
1040
0.5612660075668221
1070
     0
1040
0.0442050187641056
1071
        1
1040
18.505840887112981
1040
39.114905194858132
1040
0.0
1002
}
  0
INSERT
  5
B12
  8
SAPA_FOGBAND
  6
CONTINUOUS
 62
     6
  2
*X73
 10
0.0
 20
0.0
 30
0.0
1001
ACAD
1000
HATCH
1002
{
1070
    19
1000
ANSI31
1040
0.25
1040
0.0
1000
ASC_BOUNDS
1070
     1
1070
     1
1070
     2
1005
B06
1005
B0F
1000
ASC_SEEDPOINT
1011
21.070953317404701
1021
1.0130653249203235E+177
1031
0.0
1021
47.392017458489249
1031
0.0
1000
R14_HATCH_DATA
1000
B12
1011
1.0
1021
1.0130653249203235E+177
1031
0.0
1021
0.0
1031
0.0
1011
0.0
1021
1.0130653249203235E+177
1031
0.0
1021
1.0
1031
0.0
1011
0.0
1021
1.0130653249203235E+177
1031
0.0
1021
0.0
1031
1.0
1040
0.0
1010
0.0
1020
0.0
1030
1.0
1000
ANSI31
1070
     0
1070
     1
1071
        1
1071
        7
1070
     1
1070
     1
1071
       16
1040
17.193664654678969
1040
48.663274746525637
1040
0.0
1040
17.193664654678969
1040
42.663274746521431
1040
0.0
1040
19.093664654678982
1040
42.663274746521431
1040
-1.0
1040
23.293664654678992
1040
42.663274746521431
1040
0.0
1040
24.793664654678992
1040
42.663274746521431
1040
0.0
1040
24.793664654678992
1040
46.26327474652566
1040
0.0
1040
23.393664654679021
1040
46.26327474652566
1040
0.0
1040
23.393664654679021
1040
47.463274746525663
1040
0.0
1040
37.893664654679021
1040
47.463274746525663
1040
0.0
1040
37.893664654679021
1040
46.26327474652566
1040
0.0
1040
36.693664654678969
1040
46.26327474652566
1040
0.0
1040
36.693664654678969
1040
45.063274746525728
1040
0.0
1040
37.893664654679021
1040
45.063274746525671
1040
0.0
1040
37.893664654678958
1040
44.063274746525622
1040
0.0
1040
39.193664654678969
1040
44.063274746525622
1040
0.0
1040
39.193664654678969
1040
48.663274746525637
1040
0.0
1071
        2
1005
B0F
1005
B06
1070
     0
1070
     1
1040
0.0
1040
0.25
1070
     0
1070
     1
1040
0.7853981633974483
1040
-335.23385214325702
1040
-307.95993570520397
1040
-0.5612660075668221
1040
0.5612660075668221
1070
     0
1040
0.0442050187641056
1071
        1
1040
21.070953317404701
1040
47.392017458489249
1040
0.0
1002
}
  0
LINE
  5
B13
  8
SAPA_FOGBAND
 62
     6
 10
25.013279896949602
 20
48.663274746525637
 30
0.0
 11
28.974049412408249
 21
48.663274746525637
 31
0.0
  0
LINE
  5
B14
  8
SAPA_FOGBAND
 62
     6
 10
17.193664654678969
 20
48.663274746525637
 30
0.0
 11
23.974049412408249
 21
48.663274746525637
 31
0.0
  0
TEXT
  5
B25
  8
SAPA_MATT
 62
     2
 10
-14.632447090313009
 20
30.36335378238493
 30
0.0
 40
3.0
  1
10-15
 50
90.0
  7
ISO
  0
TEXT
  5
B26
  8
SAPA_MATT
 62
     2
 10
-14.68371487308441
 20
76.609972931217797
 30
0.0
 40
3.0
  1
78
 50
90.0
  7
ISO
  0
SOLID
  5
B27
  8
SAPA_MATT
 10
-14.18371487308441
 20
42.709972931217798
 30
0.0
 11
-13.18371487308441
 21
42.709972931217798
 31
0.0
 12
-13.68371487308441
 22
39.709972931217813
 32
0.0
 13
-13.68371487308441
 23
39.709972931217813
 33
0.0
  0
SOLID
  5
B28
  8
SAPA_MATT
 10
-14.183714873084391
 20
114.70997293121781
 30
0.0
 11
-13.183714873084391
 21
114.70997293121781
 31
0.0
 12
-13.683714873084391
 22
117.70997293121781
 32
0.0
 13
-13.683714873084391
 23
117.70997293121781
 33
0.0
  0
LINE
  5
B29
  8
SAPA_MATT
 10
-13.683714873084391
 20
114.70997293121781
 30
0.0
 11
-13.68371487308441
 21
42.709972931217798
 31
0.0
  0
LINE
  5
B2A
  8
SAPA_MATT
 10
4.6411478027057447
 20
39.709972931217813
 30
0.0
 11
-15.18371487308441
 21
39.709972931217813
 31
0.0
  0
LINE
  5
B2B
  8
SAPA_MATT
 10
5.7269342403328931
 20
117.70997293121781
 30
0.0
 11
-15.183714873084391
 21
117.70997293121781
 31
0.0
  0
SOLID
  5
B2C
  8
SAPA_MATT
 10
-14.132447090313009
 20
30.575485816740901
 30
0.0
 11
-13.132447090313009
 21
30.575485816740901
 31
0.0
 12
-13.632447090313009
 22
27.575485816740901
 32
0.0
 13
-13.632447090313009
 23
27.575485816740901
 33
0.0
  0
SOLID
  5
B2D
  8
SAPA_MATT
 10
-14.132447090313001
 20
39.575485816740887
 30
0.0
 11
-13.132447090313001
 21
39.575485816740887
 31
0.0
 12
-13.632447090313001
 22
42.575485816740887
 32
0.0
 13
-13.632447090313001
 23
42.575485816740887
 33
0.0
  0
LINE
  5
B2E
  8
SAPA_MATT
 10
-13.632447090313001
 20
39.575485816740887
 30
0.0
 11
-13.632447090313009
 21
30.575485816740901
 31
0.0
  0
LINE
  5
B2F
  8
SAPA_MATT
 10
4.6411478027057438
 20
27.575485816740901
 30
0.0
 11
-15.132447090313009
 21
27.575485816740901
 31
0.0
  0
LINE
  5
B30
  8
SAPA_MATT
 10
4.6411478027057447
 20
42.575485816740887
 30
0.0
 11
-15.132447090313001
 21
42.575485816740887
 31
0.0
  0
VIEWPORT
  5
2FC
 67
     1
  8
0
 10
5.2499996651675342
 20
3.9999999033972808
 30
0.0
 40
13.786839016452429
 41
8.9929997457669497
 68
     1
 69
     1
1001
ACAD
1000
MVIEW
1002
{
1070
    16
1010
0.0
1020
0.0
1030
0.0
1010
0.0
1020
0.0
1030
1.0
1040
0.0
1040
8.9929997457669497
1040
5.2499996651675342
1040
3.9999999033972808
1040
50.0
1040
0.0
1040
0.0
1070
     0
1070
     0
1070
     1
1070
     1
1070
     0
1070
     0
1070
     0
1070
     0
1040
0.0
1040
0.0
1040
0.0
1040
10.0
1040
10.0
1040
10.0
1040
10.0
1070
     0
1002
{
1002
}
1002
}
  0
VIEWPORT
  5
300
 67
     1
  8
MATT
 10
5.2499997615814209
 20
3.9999997615814209
 30
0.0
 40
8.3999996185302752
 41
6.3999996185302743
 68
     2
 69
     2
1001
ACAD
1000
MVIEW
1002
{
1070
    16
1010
0.0
1020
0.0
1030
0.0
1010
0.0
1020
0.0
1030
1.0
1040
0.0
1040
254.32482763017811
1040
82.806740721764584
1040
125.9177201456914
1040
50.0
1040
0.0
1040
0.0
1070
     0
1070
   100
1070
     1
1070
     0
1070
     0
1070
     0
1070
     0
1070
     0
1040
0.0
1040
0.0
1040
0.0
1040
5.0
1040
5.0
1040
0.0
1040
0.0
1070
     0
1002
{
1002
}
1002
}
  0
ENDSEC
  0
EOF
