  0
SECTION
  2
HEADER
  9
$ACADVER
  1
AC1009
  9
$INSBASE
 10
120.2578405227143
 20
378.4930879043871
 30
0.0
  9
$EXTMIN
 10
-17.684010148674961
 20
-19.04715913134012
 30
0.0
  9
$EXTMAX
 10
71.079418158686636
 20
133.64778525815311
 30
0.0
  9
$LIMMIN
 10
0.0
 20
0.0
  9
$LIMMAX
 10
420.0
 20
297.0
  9
$ORTHOMODE
 70
     0
  9
$REGENMODE
 70
     1
  9
$FILLMODE
 70
     1
  9
$QTEXTMODE
 70
     0
  9
$MIRRTEXT
 70
     1
  9
$DRAGMODE
 70
     2
  9
$LTSCALE
 40
7.0
  9
$OSMODE
 70
   167
  9
$ATTMODE
 70
     1
  9
$TEXTSIZE
 40
5.25
  9
$TRACEWID
 40
0.05
  9
$TEXTSTYLE
  7
ISO
  9
$CLAYER
  8
0
  9
$CELTYPE
  6
BYLAYER
  9
$CECOLOR
 62
   256
  9
$DIMSCALE
 40
0.0
  9
$DIMASZ
 40
3.0
  9
$DIMEXO
 40
1.5
  9
$DIMDLI
 40
10.0
  9
$DIMRND
 40
0.0
  9
$DIMDLE
 40
0.0
  9
$DIMEXE
 40
1.5
  9
$DIMTP
 40
0.0
  9
$DIMTM
 40
0.0
  9
$DIMTXT
 40
3.0
  9
$DIMCEN
 40
-5.0
  9
$DIMTSZ
 40
0.0
  9
$DIMTOL
 70
     0
  9
$DIMLIM
 70
     0
  9
$DIMTIH
 70
     0
  9
$DIMTOH
 70
     1
  9
$DIMSE1
 70
     0
  9
$DIMSE2
 70
     0
  9
$DIMTAD
 70
     1
  9
$DIMZIN
 70
     8
  9
$DIMBLK
  1

  9
$DIMASO
 70
     1
  9
$DIMSHO
 70
     1
  9
$DIMPOST
  1

  9
$DIMAPOST
  1

  9
$DIMALT
 70
     0
  9
$DIMALTD
 70
     0
  9
$DIMALTF
 40
25.399999999999999
  9
$DIMLFAC
 40
-1.0
  9
$DIMTOFL
 70
     1
  9
$DIMTVP
 40
0.0
  9
$DIMTIX
 70
     0
  9
$DIMSOXD
 70
     0
  9
$DIMSAH
 70
     0
  9
$DIMBLK1
  1

  9
$DIMBLK2
  1

  9
$DIMSTYLE
  2
MASKIN
  9
$DIMCLRD
 70
   256
  9
$DIMCLRE
 70
   256
  9
$DIMCLRT
 70
     2
  9
$DIMTFAC
 40
1.0
  9
$DIMGAP
 40
1.0
  9
$LUNITS
 70
     2
  9
$LUPREC
 70
     2
  9
$SKETCHINC
 40
0.1
  9
$FILLETRAD
 40
0.0
  9
$AUNITS
 70
     0
  9
$AUPREC
 70
     2
  9
$MENU
  1
ACAD
  9
$ELEVATION
 40
0.0
  9
$PELEVATION
 40
0.0
  9
$THICKNESS
 40
0.0
  9
$LIMCHECK
 70
     0
  9
$BLIPMODE
 70
     0
  9
$CHAMFERA
 40
0.0
  9
$CHAMFERB
 40
0.0
  9
$SKPOLY
 70
     0
  9
$TDCREATE
 40
2450345.5798625001
  9
$TDUPDATE
 40
2454887.3876682408
  9
$TDINDWG
 40
0.4687176968
  9
$TDUSRTIMER
 40
0.4687176968
  9
$USRTIMER
 70
     1
  9
$ANGBASE
 50
0.0
  9
$ANGDIR
 70
     0
  9
$PDMODE
 70
     3
  9
$PDSIZE
 40
0.0
  9
$PLINEWID
 40
0.0
  9
$COORDS
 70
     1
  9
$SPLFRAME
 70
     0
  9
$SPLINETYPE
 70
     6
  9
$SPLINESEGS
 70
     8
  9
$ATTDIA
 70
     0
  9
$ATTREQ
 70
     1
  9
$HANDLING
 70
     1
  9
$HANDSEED
  5
14DE
  9
$SURFTAB1
 70
     6
  9
$SURFTAB2
 70
     6
  9
$SURFTYPE
 70
     6
  9
$SURFU
 70
     6
  9
$SURFV
 70
     6
  9
$UCSNAME
  2

  9
$UCSORG
 10
0.0
 20
0.0
 30
0.0
  9
$UCSXDIR
 10
1.0
 20
0.0
 30
0.0
  9
$UCSYDIR
 10
0.0
 20
1.0
 30
0.0
  9
$PUCSNAME
  2

  9
$PUCSORG
 10
0.0
 20
0.0
 30
0.0
  9
$PUCSXDIR
 10
1.0
 20
0.0
 30
0.0
  9
$PUCSYDIR
 10
0.0
 20
1.0
 30
0.0
  9
$USERI1
 70
     0
  9
$USERI2
 70
     0
  9
$USERI3
 70
     0
  9
$USERI4
 70
     0
  9
$USERI5
 70
     0
  9
$USERR1
 40
0.0
  9
$USERR2
 40
0.0
  9
$USERR3
 40
0.0
  9
$USERR4
 40
0.0
  9
$USERR5
 40
0.0
  9
$WORLDVIEW
 70
     1
  9
$SHADEDGE
 70
     1
  9
$SHADEDIF
 70
    70
  9
$TILEMODE
 70
     1
  9
$MAXACTVP
 70
    16
  9
$PLIMCHECK
 70
     0
  9
$PEXTMIN
 10
1.049636599258096
 20
0.7996597240971078
 30
-0.0000000000112498
  9
$PEXTMAX
 10
9.4503627310769716
 20
7.200340082697454
 30
0.0000000000002956
  9
$PLIMMIN
 10
-0.2500002402958907
 20
-0.2499999962453767
  9
$PLIMMAX
 10
10.74999951940822
 20
8.2499997634587334
  9
$UNITMODE
 70
     0
  9
$VISRETAIN
 70
     1
  9
$PLINEGEN
 70
     0
  9
$PSLTSCALE
 70
     1
  0
ENDSEC
  0
SECTION
  2
TABLES
  0
TABLE
  2
VPORT
 70
     1
  0
VPORT
  2
*ACTIVE
 70
     0
 10
0.0
 20
0.0
 11
1.0
 21
1.0
 12
58.972157780884551
 22
57.307435481096192
 13
0.0
 23
0.0
 14
5.0
 24
5.0
 15
0.0
 25
0.0
 16
0.0
 26
0.0
 36
1.0
 17
0.0
 27
0.0
 37
0.0
 40
153.98550224908161
 41
1.995238095238095
 42
50.0
 43
0.0
 44
0.0
 50
0.0
 51
0.0
 71
     0
 72
   100
 73
     1
 74
     0
 75
     0
 76
     0
 77
     0
 78
     0
  0
ENDTAB
  0
TABLE
  2
LTYPE
 70
     7
  0
LTYPE
  2
CONTINUOUS
 70
     0
  3
Solid line
 72
    65
 73
     0
 40
0.0
  0
LTYPE
  2
BYGG-022629$0$NEWDOT
 70
     0
  3
____ . ____ . ____ . ____ . ____ . ____ . ____
 72
    65
 73
     4
 40
2.0
 49
1.0
 49
-0.5
 49
0.0
 49
-0.5
  0
LTYPE
  2
BYGG-022629$0$DASHDOT
 70
     0
  3
__ . __ . __ . __ . __ . __ . __ . __ . __ . __
 72
    65
 73
     4
 40
1.0
 49
0.5
 49
-0.25
 49
0.0
 49
-0.25
  0
LTYPE
  2
BYGG-022629$0$DASHED
 70
     0
  3
__ __ __ __ __ __ __ __ __ __ __ __ __ __ __
 72
    65
 73
     2
 40
0.75
 49
0.5
 49
-0.25
  0
LTYPE
  2
BYGG-022629$0$PHANTOM
 70
     0
  3
Phantom ______  __  __  ______  __  __  ______
 72
    65
 73
     6
 40
63.5
 49
31.75
 49
-6.3499999999999988
 49
6.3499999999999988
 49
-6.3499999999999988
 49
6.3499999999999988
 49
-6.3499999999999988
  0
LTYPE
  2
BYGG-014203$0$DASHDOT
 70
     0
  3
__ . __ . __ . __ . __ . __ . __ . __ . __ . __
 72
    65
 73
     4
 40
1.0
 49
0.5
 49
-0.25
 49
0.0
 49
-0.25
  0
LTYPE
  2
BYGG-014565$0$NEWDOT
 70
     0
  3
____ . ____ . ____ . ____ . ____ . ____ . ____
 72
    65
 73
     4
 40
2.0
 49
1.0
 49
-0.5
 49
0.0
 49
-0.5
  0
ENDTAB
  0
TABLE
  2
LAYER
 70
    64
  0
LAYER
  2
0
 70
     0
 62
     7
  6
CONTINUOUS
  0
LAYER
  2
SAPA_ARTIKELNR
 70
     0
 62
     4
  6
CONTINUOUS
  0
LAYER
  2
SAPA_LIGHT
 70
     1
 62
     1
  6
CONTINUOUS
  0
LAYER
  2
MATT
 70
     0
 62
     1
  6
CONTINUOUS
  0
LAYER
  2
SAPA_GLAS
 70
     0
 62
     4
  6
CONTINUOUS
  0
LAYER
  2
SAPA_ANSLUTNING
 70
     0
 62
     6
  6
CONTINUOUS
  0
LAYER
  2
SAPA_MATT
 70
     0
 62
     1
  6
CONTINUOUS
  0
LAYER
  2
SAPA_FOGBAND
 70
     0
 62
     2
  6
CONTINUOUS
  0
LAYER
  2
SAPA_PROFIL
 70
     0
 62
     7
  6
CONTINUOUS
  0
ENDTAB
  0
TABLE
  2
STYLE
 70
    10
  0
STYLE
  2
STANDARD
 70
     0
 40
0.0
 41
1.0
 50
0.0
 71
     0
 42
0.2
  3
txt
  4

  0
STYLE
  2
ISO
 70
     0
 40
0.0
 41
1.0
 50
0.0
 71
     0
 42
5.25
  3
isocp3.shx
  4

  0
STYLE
  2
BYGG-022629$0$STANDARD
 70
     0
 40
0.0
 41
1.0
 50
0.0
 71
     0
 42
0.2
  3
txt
  4

  0
STYLE
  2
BYGG-022629$0$ISO
 70
     0
 40
0.0
 41
1.0
 50
0.0
 71
     0
 42
3.5
  3
txt
  4

  0
STYLE
  2
BYGG-014203$0$STANDARD
 70
     0
 40
0.0
 41
1.0
 50
0.0
 71
     0
 42
0.2
  3
txt
  4

  0
STYLE
  2
BYGG-014203$0$ISO
 70
     0
 40
0.0
 41
1.0
 50
0.0
 71
     0
 42
3.5
  3
isocp3.shx
  4

  0
STYLE
  2
BYGG-022915$0$STANDARD
 70
     0
 40
0.0
 41
1.0
 50
0.0
 71
     0
 42
0.2
  3
txt
  4

  0
STYLE
  2
BYGG-022915$0$ISO
 70
     0
 40
0.0
 41
1.0
 50
0.0
 71
     0
 42
3.5
  3
txt
  4

  0
STYLE
  2
BYGG-014565$0$STANDARD
 70
     0
 40
0.0
 41
1.0
 50
0.0
 71
     0
 42
0.2
  3
isocp3.shx
  4

  0
STYLE
  2
BYGG-014565$0$ISO
 70
     0
 40
0.0
 41
1.0
 50
0.0
 71
     0
 42
3.5
  3
isocp3.shx
  4

  0
ENDTAB
  0
TABLE
  2
VIEW
 70
     0
  0
ENDTAB
  0
TABLE
  2
UCS
 70
     0
  0
ENDTAB
  0
TABLE
  2
APPID
 70
    17
  0
APPID
  2
ACAD
 70
     0
  0
APPID
  2
ACAECLAYERSTANDARD
 70
     0
  0
APPID
  2
ACAD_MLEADERVER
 70
     0
  0
APPID
  2
ACAD_DSTYLE_DIMTEXT_FILL
 70
     0
  0
APPID
  2
ACAD_DSTYLE_DIMEXT_LENGTH
 70
     0
  0
APPID
  2
ACAD_DSTYLE_DIMEXT_ENABLED
 70
     0
  0
APPID
  2
ACAD_DSTYLE_DIM_LINETYPE
 70
     0
  0
APPID
  2
ACAD_DSTYLE_DIM_EXT1_LINETYPE
 70
     0
  0
APPID
  2
ACAD_DSTYLE_DIM_EXT2_LINETYPE
 70
     0
  0
APPID
  2
ACAD_DSTYLE_DIMJOGGED_JOGA
 70
     0
  0
APPID
  2
ACAD_DSTYLE_DIMARC_LENGTH_
 70
     0
  0
APPID
  2
ACAD_PSEXT
 70
     0
  0
APPID
  2
AMG_ARCHIVE11
 70
     0
  0
APPID
  2
ACAD_EXEMPT_FROM_CAD_STANDARDS
 70
     0
  0
APPID
  2
ACAD_DSTYLE_DIMJAG
 70
     0
  0
APPID
  2
ACAD_DSTYLE_DIMTALN
 70
     0
  0
APPID
  2
ACADANNOTATIVE
 70
     0
  0
ENDTAB
  0
TABLE
  2
DIMSTYLE
 70
     8
  0
DIMSTYLE
  2
MASKIN
 70
     0
  3

  4

  5

  6

  7

 40
0.0
 41
3.0
 42
1.5
 43
10.0
 44
1.5
 45
0.0
 46
0.0
 47
0.0
 48
0.0
140
3.0
141
-5.0
142
0.0
143
25.399999999999999
144
-1.0
145
0.0
146
1.0
147
1.0
 71
     0
 72
     0
 73
     0
 74
     1
 75
     0
 76
     0
 77
     1
 78
     8
170
     0
171
     0
172
     1
173
     0
174
     0
175
     0
176
   256
177
   256
178
     2
  0
DIMSTYLE
  2
BYGG-022629$0$STANDARD
 70
     0
  3

  4

  5

  6

  7

 40
1.0
 41
0.18
 42
0.0625
 43
0.38
 44
0.18
 45
0.0
 46
0.0
 47
0.0
 48
0.0
140
0.18
141
0.09
142
0.0
143
25.399999999999999
144
1.0
145
0.0
146
1.0
147
0.09
 71
     0
 72
     0
 73
     1
 74
     1
 75
     0
 76
     0
 77
     0
 78
     0
170
     0
171
     2
172
     0
173
     0
174
     0
175
     0
176
     0
177
     0
178
     0
  0
DIMSTYLE
  2
BYGG-022629$0$MASKIN
 70
     0
  3

  4

  5

  6

  7

 40
0.0
 41
3.0
 42
1.5
 43
10.0
 44
1.5
 45
0.0
 46
0.0
 47
0.0
 48
0.0
140
3.0
141
-5.0
142
0.0
143
25.399999999999999
144
-1.0
145
0.0
146
1.0
147
1.0
 71
     0
 72
     0
 73
     0
 74
     0
 75
     0
 76
     0
 77
     1
 78
     8
170
     0
171
     0
172
     1
173
     0
174
     0
175
     0
176
   256
177
   256
178
     2
  0
DIMSTYLE
  2
BYGG-014203$0$STANDARD
 70
     0
  3

  4

  5

  6

  7

 40
1.0
 41
0.18
 42
0.0625
 43
0.38
 44
0.18
 45
0.0
 46
0.0
 47
0.0
 48
0.0
140
0.18
141
0.09
142
0.0
143
25.399999999999999
144
1.0
145
0.0
146
1.0
147
0.09
 71
     0
 72
     0
 73
     1
 74
     1
 75
     0
 76
     0
 77
     0
 78
     0
170
     0
171
     2
172
     0
173
     0
174
     0
175
     0
176
     0
177
     0
178
     0
  0
DIMSTYLE
  2
BYGG-014203$0$MASKIN
 70
     0
  3

  4

  5

  6

  7

 40
0.0
 41
3.0
 42
1.5
 43
10.0
 44
1.5
 45
0.0
 46
0.0
 47
0.0
 48
0.0
140
3.0
141
-5.0
142
0.0
143
25.399999999999999
144
-1.0
145
0.0
146
1.0
147
1.0
 71
     0
 72
     0
 73
     0
 74
     0
 75
     0
 76
     0
 77
     1
 78
     8
170
     0
171
     0
172
     1
173
     0
174
     0
175
     0
176
   256
177
   256
178
   256
  0
DIMSTYLE
  2
BYGG-022915$0$MASKIN
 70
     0
  3

  4

  5

  6

  7

 40
0.0
 41
3.0
 42
1.5
 43
10.0
 44
1.5
 45
0.0
 46
0.0
 47
0.0
 48
0.0
140
3.0
141
-5.0
142
0.0
143
25.399999999999999
144
-1.0
145
0.0
146
1.0
147
1.0
 71
     0
 72
     0
 73
     0
 74
     0
 75
     0
 76
     0
 77
     1
 78
     8
170
     0
171
     0
172
     1
173
     0
174
     0
175
     0
176
   256
177
   256
178
     2
  0
DIMSTYLE
  2
BYGG-014565$0$STANDARD
 70
     0
  3

  4

  5

  6

  7

 40
1.0
 41
0.18
 42
0.0625
 43
0.38
 44
0.18
 45
0.0
 46
0.0
 47
0.0
 48
0.0
140
0.18
141
0.09
142
0.0
143
25.399999999999999
144
1.0
145
0.0
146
1.0
147
0.09
 71
     0
 72
     0
 73
     1
 74
     1
 75
     0
 76
     0
 77
     0
 78
     0
170
     0
171
     2
172
     0
173
     0
174
     0
175
     0
176
     0
177
     0
178
     0
  0
DIMSTYLE
  2
BYGG-014565$0$MASKIN
 70
     0
  3

  4

  5

  6

  7

 40
0.0
 41
3.0
 42
1.5
 43
10.0
 44
1.5
 45
0.0
 46
0.0
 47
0.0
 48
0.0
140
3.0
141
-5.0
142
0.0
143
25.399999999999999
144
-1.0
145
0.0
146
1.0
147
1.0
 71
     0
 72
     0
 73
     0
 74
     0
 75
     0
 76
     0
 77
     1
 78
     8
170
     0
171
     0
172
     1
173
     0
174
     0
175
     0
176
   256
177
   256
178
     2
  0
ENDTAB
  0
ENDSEC
  0
SECTION
  2
BLOCKS
  0
BLOCK
  8
0
  2
$MODEL_SPACE
 70
     0
 10
0.0
 20
0.0
 30
0.0
  3
$MODEL_SPACE
  1

  0
ENDBLK
  5
D
  8
0
  0
BLOCK
 67
     1
  8
0
  2
$PAPER_SPACE
 70
     0
 10
0.0
 20
0.0
 30
0.0
  3
$PAPER_SPACE
  1

  0
ENDBLK
  5
12
 67
     1
  8
0
  0
BLOCK
  8
0
  2
BYGG-022629$0$18049
 70
     0
 10
0.0
 20
0.0
 30
0.0
  3
BYGG-022629$0$18049
  1

  0
LINE
  5
94D
  8
0
 10
1.257104106126135
 20
1.175882970362522
 30
0.0
 11
0.4756705193898512
 21
3.7049892555045281
 31
0.0
  0
LINE
  5
94E
  8
0
 10
4.2044423602476391
 20
-3.6036842434053251
 30
0.0
 11
1.257104106126135
 21
1.175882970362522
 31
0.0
  0
LINE
  5
94F
  8
0
 10
1.8046723971954881
 20
-1.3930204203302869
 30
0.0
 11
3.8614632483672291
 21
-4.0897212559317486
 31
0.0
  0
LINE
  5
950
  8
0
 10
1.5165716772223581
 20
-5.4492779234504951
 30
0.0
 11
1.365416573142894
 21
-1.670607021296405
 31
0.0
  0
LINE
  5
951
  8
0
 10
-1.360859991273756
 20
-1.626983735284284
 30
0.0
 11
-2.700553210624562
 21
-2.0440140738289752
 31
0.0
  0
LINE
  5
952
  8
0
 10
4.2213954165827374
 20
-11.20389088691797
 30
0.0
 11
1.8374940511294251
 21
-6.144112628652123
 31
0.0
  0
ARC
  5
953
  8
0
 10
-15.61932099734079
 20
-27.035324816149512
 30
0.0
 40
24.584181139217058
 50
49.137781603725038
 51
55.430876072989847
  0
ARC
  5
954
  8
0
 10
0.6928349840118671
 20
-8.6374822721460305
 30
0.0
 40
0.3000000000000043
 50
139.5071087518125
 51
319.08060320227031
  0
ARC
  5
955
  8
0
 10
2.5157725486285609
 20
-5.4093077022735647
 30
0.0
 40
0.9999999999999417
 50
182.29073520949271
 51
227.290735209491
  0
ARC
  5
956
  8
0
 10
-1.547436887770814
 20
-6.4109931887336984
 30
0.0
 40
0.3999999999999566
 50
92.290735209487536
 51
252.11880956275439
  0
LINE
  5
957
  8
0
 10
-0.264463843413381
 20
-5.9593515526413512
 30
0.0
 11
-1.5634249762415491
 21
-6.0113128401712279
 31
0.0
  0
ARC
  5
958
  8
0
 10
-0.2764549097664855
 20
-5.6595912912194422
 30
0.0
 40
0.3000000000000553
 50
272.2907352094972
 51
2.2907352094997808
  0
LINE
  5
959
  8
0
 10
-0.0606321128159806
 20
-3.5492783949131872
 30
0.0
 11
0.023305351655452
 21
-5.6476002248663226
 31
0.0
  0
ARC
  5
95A
  8
0
 10
-0.3603923742378612
 20
-3.561269461266249
 30
0.0
 40
0.3000000000000252
 50
2.2907352094893678
 51
92.290735209491856
  0
LINE
  5
95B
  8
0
 10
-1.271664224856621
 20
-3.2974823989035249
 30
0.0
 11
-0.3723834405909372
 21
-3.26150919984434
 31
0.0
  0
LINE
  5
95C
  8
0
 10
-1.2576746474447731
 20
-3.6472027038957431
 30
0.0
 11
-1.271664224856621
 21
-3.2974823989035249
 31
0.0
  0
ARC
  5
95D
  8
0
 10
-1.557434908866596
 20
-3.6591937702488049
 30
0.0
 40
0.2999999999999189
 50
227.29073520948009
 51
2.2907352094898008
  0
LINE
  5
95E
  8
0
 10
-2.6479064675971951
 20
-3.060880674298005
 30
0.0
 11
-1.760918458116336
 21
-3.8796352481622871
 31
0.0
  0
ARC
  5
95F
  8
0
 10
-2.1052836695978661
 20
-2.4730367331951579
 30
0.0
 40
0.7999999999999711
 50
182.29073520948941
 51
227.2907352094899
  0
LINE
  5
960
  8
0
 10
-2.911147326750366
 20
-2.3424478020412489
 30
0.0
 11
-2.9046443667228621
 21
-2.5050129101366561
 31
0.0
  0
ARC
  5
961
  8
0
 10
-2.6113870653285431
 20
-2.3304567356881871
 30
0.0
 40
0.2999999999999028
 50
107.2907352094865
 51
182.29073520948981
  0
ARC
  5
962
  8
0
 10
1.665176834564803
 20
-1.658615954943286
 30
0.0
 40
0.3000000000000269
 50
62.29073520950076
 51
182.29073520950001
  0
ARC
  5
963
  8
0
 10
-1.45002613656969
 20
-1.340541073425072
 30
0.0
 40
0.2999999999999088
 50
287.29073520947099
 51
2.2907352094791711
  0
LINE
  5
964
  8
0
 10
-1.2531886636523799
 20
1.24437896187652
 30
0.0
 11
-1.150265875147894
 21
-1.3285500070720671
 31
0.0
  0
ARC
  5
965
  8
0
 10
-1.552948925074346
 20
1.2323878955234591
 30
0.0
 40
0.3000000000000847
 50
2.2907352094887168
 51
77.290735209486655
  0
LINE
  5
966
  8
0
 10
-2.8556712716364099
 20
1.8337253324163489
 30
0.0
 11
-1.4869477411285881
 21
1.5250375900693589
 31
0.0
  0
ARC
  5
967
  8
0
 10
-2.7896700876906229
 20
2.1263750269621928
 30
0.0
 40
0.3000000000000366
 50
182.29073520947821
 51
257.29073520947901
  0
LINE
  5
968
  8
0
 10
-3.0959333091400651
 20
2.276949068704595
 30
0.0
 11
-3.0894303491125461
 21
2.1143839606091879
 31
0.0
  0
ARC
  5
969
  8
0
 10
-2.296572612015197
 20
2.3089252456460372
 30
0.0
 40
0.7999999999998441
 50
137.29073520948589
 51
182.29073520948569
  0
LINE
  5
96A
  8
0
 10
-2.0656619792536191
 20
3.7385360531263241
 30
0.0
 11
-2.8844165531179149
 21
2.8515480436453231
 31
0.0
  0
ARC
  5
96B
  8
0
 10
-1.8452205013400651
 20
3.5350525038765559
 30
0.0
 40
0.3000000000000082
 50
2.2907352094784108
 51
137.29073520948529
  0
LINE
  5
96C
  8
0
 10
-1.5434617288593271
 20
3.497083526659253
 30
0.0
 11
-1.5454602399181701
 21
3.5470435702295608
 31
0.0
  0
ARC
  5
96D
  8
0
 10
-1.2437014674374249
 20
3.5090745930123139
 30
0.0
 40
0.3000000000000243
 50
182.29073520948921
 51
272.29073520948782
  0
LINE
  5
96E
  8
0
 10
-0.6321898782405812
 20
3.2332964642965289
 30
0.0
 11
-1.23171040108437
 21
3.2093143315904049
 31
0.0
  0
ARC
  5
96F
  8
0
 10
-0.6441809445936002
 20
3.5330567257183811
 30
0.0
 40
0.2999999999999656
 50
272.2907352094814
 51
2.2907352094787372
  0
LINE
  5
970
  8
0
 10
-0.3464191942305916
 20
3.5950078356417521
 30
0.0
 11
-0.344420683171748
 21
3.5450477920713861
 31
0.0
  0
ARC
  5
971
  8
0
 10
-0.046658932808711
 20
3.606998901994813
 30
0.0
 40
0.2999999999999673
 50
92.290735209486854
 51
182.2907352094893
  0
LINE
  5
972
  8
0
 10
0.177049383927411
 20
3.9161876544667962
 30
0.0
 11
-0.0586499991617586
 21
3.9067591634166661
 31
0.0
  0
ARC
  5
973
  8
0
 10
0.1890404502804017
 20
3.6164273930448871
 30
0.0
 40
0.3000000000000138
 50
17.169902926059759
 51
92.290735209475557
  0
CIRCLE
  5
974
  8
0
 10
0.0
 20
0.0
 30
0.0
 40
0.2
  0
ARC
  5
975
  8
0
 10
4.000958810997929
 20
-3.8241257213188642
 30
0.0
 40
0.2999999999999325
 50
242.29073520948819
 51
47.290735209489483
  0
ARC
  5
976
  8
0
 10
4.017911867332927
 20
-11.42433236483151
 30
0.0
 40
0.2999999999999948
 50
222.87790223034321
 51
47.290735209474143
  0
ARC
  5
977
  8
0
 10
-25.590924134226238
 20
-39.188544039530477
 30
0.0
 40
40.30140653252819
 50
43.041593976239149
 51
48.867350427507773
  0
ENDBLK
  5
978
  8
0
  0
BLOCK
  8
0
  2
BYGG-022629$0$18058
 70
     0
 10
0.0
 20
0.0
 30
0.0
  3
BYGG-022629$0$18058
  1

  0
POLYLINE
  5
97C
  8
0
 66
     1
 10
0.0
 20
0.0
 30
0.0
 70
     1
  0
VERTEX
  5
BD5
  8
0
 10
4.8334507297417977
 20
-5.2617122271897747
 30
0.0
 42
0.6997223268137053
  0
VERTEX
  5
BD6
  8
0
 10
4.575936757014289
 20
-4.5556296340060376
 30
0.0
  0
VERTEX
  5
BD7
  8
0
 10
3.3759367570143008
 20
-4.5556296340060376
 30
0.0
 42
-0.4142135623730951
  0
VERTEX
  5
BD8
  8
0
 10
3.1759367570143122
 20
-4.355629634006049
 30
0.0
  0
VERTEX
  5
BD9
  8
0
 10
3.1759367570142838
 20
-1.555629634006038
 30
0.0
 42
-0.59729408155688
  0
VERTEX
  5
BDA
  8
0
 10
3.486028500133556
 20
-1.38865715694186
 30
0.0
  0
VERTEX
  5
BDB
  8
0
 10
3.778230334995953
 20
-1.5813177074005571
 30
0.0
 42
0.7267081950900313
  0
VERTEX
  5
BDC
  8
0
 10
4.447090661358259
 20
-1.0471071155557179
 30
0.0
  0
VERTEX
  5
BDD
  8
0
 10
0.5873176626473935
 20
5.5050401533857212
 30
0.0
 42
0.7363258036229955
  0
VERTEX
  5
BDE
  8
0
 10
-0.7166888610518641
 20
5.2103713392397699
 30
0.0
  0
VERTEX
  5
BDF
  8
0
 10
-1.3240632429856301
 20
1.765780049277339
 30
0.0
  0
VERTEX
  5
BE0
  8
0
 10
-2.7574321456306592
 20
-2.6694904128274279
 30
0.0
 42
0.885993824690421
  0
VERTEX
  5
BE1
  8
0
 10
-2.3382360028933951
 20
-3.0926345791103809
 30
0.0
  0
VERTEX
  5
BE2
  8
0
 10
-1.624063242985442
 20
-0.9471580705006203
 30
0.0
 42
-0.5773502691892892
  0
VERTEX
  5
BE3
  8
0
 10
-1.3240632429856301
 20
-1.120363151257606
 30
0.0
  0
VERTEX
  5
BE4
  8
0
 10
-1.3240632429856869
 20
-5.6510692487698293
 30
0.0
 42
-0.1989123673796363
  0
VERTEX
  5
BE5
  8
0
 10
-1.3826418867483881
 20
-5.7924906050071172
 30
0.0
  0
VERTEX
  5
BE6
  8
0
 10
-2.7562272241133172
 20
-10.167977501831951
 30
0.0
 42
0.7660459440748996
  0
VERTEX
  5
BE7
  8
0
 10
-2.4141837562942068
 20
-10.635523841217941
 30
0.0
  0
VERTEX
  5
BE8
  8
0
 10
1.832706186540491
 20
-6.8303485721410757
 30
0.0
 42
-0.3419987131192184
  0
VERTEX
  5
BE9
  8
0
 10
1.953259031429212
 20
-6.851959023057872
 30
0.0
 42
0.7745966692401299
  0
VERTEX
  5
BEA
  8
0
 10
2.4681048871406972
 20
-6.5828238435410071
 30
0.0
 42
-0.3419987131192394
  0
VERTEX
  5
BEB
  8
0
 10
2.519167327488105
 20
-6.4715016661200471
 30
0.0
  0
SEQEND
  5
BEC
  8
0
  0
CIRCLE
  5
97D
  8
0
 10
0.0
 20
0.0
 30
0.0
 40
0.2
  0
ENDBLK
  5
97E
  8
0
  0
BLOCK
  8
0
  2
*U37
 70
     1
 10
0.0
 20
0.0
 30
0.0
  3
*U37
  1

  0
TEXT
  5
BA2
  8
SAPA_ARTIKELNR
 10
66.758918848382081
 20
42.703075878941348
 30
0.0
 40
3.5
  1
68057
 50
90.0
  7
ISO
  0
ENDBLK
  5
BA4
  8
0
  0
BLOCK
  8
0
  2
*U38
 70
     1
 10
0.0
 20
0.0
 30
0.0
  3
*U38
  1

  0
TEXT
  5
BB1
  8
MATT
 62
     2
 10
-14.68401014867495
 20
54.858791828855608
 30
0.0
 40
3.0
  1
120
 50
90.0
  7
ISO
  0
ENDBLK
  5
BB3
  8
0
  0
BLOCK
  8
0
  2
*U39
 70
     1
 10
0.0
 20
0.0
 30
0.0
  3
*U39
  1

  0
TEXT
  5
BB5
  8
MATT
 62
     2
 10
-14.632447090313001
 20
-11.636646217615059
 30
0.0
 40
3.0
  1
10-15
 50
90.0
  7
ISO
  0
ENDBLK
  5
BB7
  8
0
  0
BLOCK
  8
0
  2
*U40
 70
     1
 10
0.0
 20
0.0
 30
0.0
  3
*U40
  1

  0
TEXT
  5
DA0
  8
0
 10
269.13695666615928
 20
387.12121780868893
 30
0.0
 40
3.0
  1
22
 50
90.0
  7
BYGG-014203$0$ISO
  0
ENDBLK
  5
DA2
  8
0
  0
BLOCK
  8
0
  2
*U41
 70
     1
 10
0.0
 20
0.0
 30
0.0
  3
*U41
  1

  0
TEXT
  5
DA4
  8
0
 10
243.50583563664401
 20
406.8346351471406
 30
0.0
 40
3.0
  1
29
  7
BYGG-014203$0$ISO
  0
ENDBLK
  5
DA6
  8
0
  0
BLOCK
  8
0
  2
*U42
 70
     1
 10
0.0
 20
0.0
 30
0.0
  3
*U42
  1

  0
TEXT
  5
DA9
  8
0
 10
89.477352001818133
 20
536.91038923748056
 30
0.0
 40
3.0
  1
29.00259511
  7
BYGG-014203$0$ISO
  0
ENDBLK
  5
DAB
  8
0
  0
BLOCK
  8
0
  2
*U43
 70
     1
 10
0.0
 20
0.0
 30
0.0
  3
*U43
  1

  0
TEXT
  5
DAD
  8
0
 10
139.81857160131429
 20
500.42082458589999
 30
0.0
 40
3.0
  1
21.99913956
 50
90.0
  7
BYGG-014203$0$ISO
  0
ENDBLK
  5
DAF
  8
0
  0
BLOCK
  8
0
  2
*X44
 70
     1
 10
0.0
 20
0.0
 30
0.0
  3
*X44
  1

  0
LINE
  5
DB1
  8
0
 62
     0
 10
54.229406232361953
 20
-89.945132120652318
 30
0.0
 11
55.305604291028999
 21
-88.868934061985271
 31
0.0
  0
LINE
  5
DB2
  8
0
 62
     0
 10
54.005604291029037
 20
-89.04640204685154
 30
0.0
 11
55.305604291029049
 21
-87.746402046851529
 31
0.0
  0
LINE
  5
DB3
  8
0
 62
     0
 10
52.984342202094751
 20
-88.945132120652204
 30
0.0
 11
55.305604291028999
 21
-86.623870031717956
 31
0.0
  0
LINE
  5
DB4
  8
0
 62
     0
 10
54.005604291029037
 20
-86.801338016584282
 30
0.0
 11
55.305604291029049
 21
-85.501338016584313
 31
0.0
  0
LINE
  5
DB5
  8
0
 62
     0
 10
52.805604291029113
 20
-88.001338016584214
 30
0.0
 11
53.061810186961047
 21
-87.745132120652286
 31
0.0
  0
LINE
  5
DB6
  8
0
 62
     0
 10
53.139278171827357
 20
-86.54513212065234
 30
0.0
 11
54.339278171827459
 21
-85.345132120652238
 31
0.0
  0
LINE
  5
DB7
  8
0
 62
     0
 10
52.016746156693792
 20
-86.545132120652283
 30
0.0
 11
53.216746156693773
 21
-85.345132120652295
 31
0.0
  0
LINE
  5
DB8
  8
0
 62
     0
 10
50.894214141560099
 20
-86.54513212065234
 30
0.0
 11
52.094214141560201
 21
-85.345132120652238
 31
0.0
  0
LINE
  5
DB9
  8
0
 62
     0
 10
49.771682126426519
 20
-86.545132120652283
 30
0.0
 11
50.971682126426508
 21
-85.345132120652295
 31
0.0
  0
LINE
  5
DBA
  8
0
 62
     0
 10
48.649150111292784
 20
-86.545132120652283
 30
0.0
 11
49.849150111292772
 21
-85.345132120652295
 31
0.0
  0
LINE
  5
DBB
  8
0
 62
     0
 10
47.526618096159147
 20
-86.545132120652283
 30
0.0
 11
48.726618096159093
 21
-85.345132120652352
 31
0.0
  0
LINE
  5
DBC
  8
0
 62
     0
 10
46.404086081025532
 20
-86.545132120652283
 30
0.0
 11
47.604086081025507
 21
-85.345132120652295
 31
0.0
  0
LINE
  5
DBD
  8
0
 62
     0
 10
45.281554065891889
 20
-86.545132120652283
 30
0.0
 11
46.481554065891892
 21
-85.345132120652295
 31
0.0
  0
LINE
  5
DBE
  8
0
 62
     0
 10
40.481554065887728
 20
-91.345132120656444
 30
0.0
 11
40.905604291029071
 21
-90.921081895515101
 31
0.0
  0
LINE
  5
DBF
  8
0
 62
     0
 10
44.15902205075826
 20
-86.545132120652283
 30
0.0
 11
45.359022050758249
 21
-85.345132120652295
 31
0.0
  0
LINE
  5
DC0
  8
0
 62
     0
 10
39.405098739405389
 20
-91.299055432005161
 30
0.0
 11
40.905604291029071
 21
-89.798549880381458
 31
0.0
  0
LINE
  5
DC1
  8
0
 62
     0
 10
43.036490035624638
 20
-86.545132120652283
 30
0.0
 11
44.23649003562462
 21
-85.345132120652295
 31
0.0
  0
LINE
  5
DC2
  8
0
 62
     0
 10
39.181140398763148
 20
-90.400481757513774
 30
0.0
 11
40.905604291029071
 21
-88.676017865247843
 31
0.0
  0
LINE
  5
DC3
  8
0
 62
     0
 10
41.913958020491002
 20
-86.545132120652283
 30
0.0
 11
43.113958020490998
 21
-85.345132120652295
 31
0.0
  0
LINE
  5
DC4
  8
0
 62
     0
 10
38.69161040595742
 20
-89.767479735185873
 30
0.0
 11
40.713958020490963
 21
-87.745132120652329
 31
0.0
  0
LINE
  5
DC5
  8
0
 62
     0
 10
40.79142600535738
 20
-86.545132120652283
 30
0.0
 11
41.991426005357361
 21
-85.345132120652295
 31
0.0
  0
LINE
  5
DC6
  8
0
 62
     0
 10
37.980143421533398
 20
-89.356414704476265
 30
0.0
 11
39.591426005357327
 21
-87.745132120652329
 31
0.0
  0
LINE
  5
DC7
  8
0
 62
     0
 10
36.936137076386217
 20
-89.277889034489704
 30
0.0
 11
39.505604291029051
 21
-86.708421819846876
 31
0.0
  0
LINE
  5
DC8
  8
0
 62
     0
 10
39.668893990223637
 20
-86.545132120652283
 30
0.0
 11
40.868893990223683
 21
-85.345132120652238
 31
0.0
  0
LINE
  5
DC9
  8
0
 62
     0
 10
34.868893990219419
 20
-91.345132120656501
 30
0.0
 11
35.238361204862322
 21
-90.975664906013606
 31
0.0
  0
LINE
  5
DCA
  8
0
 62
     0
 10
33.74636197508579
 20
-91.345132120656501
 30
0.0
 11
39.746361975090053
 21
-85.345132120652238
 31
0.0
  0
LINE
  5
DCB
  8
0
 62
     0
 10
33.305604291028999
 20
-90.663357789579663
 30
0.0
 11
38.623829959956431
 21
-85.345132120652238
 31
0.0
  0
LINE
  5
DCC
  8
0
 62
     0
 10
33.305604291029063
 20
-89.540825774445977
 30
0.0
 11
37.501297944822738
 21
-85.345132120652295
 31
0.0
  0
LINE
  5
DCD
  8
0
 62
     0
 10
33.305604291029063
 20
-88.418293759312348
 30
0.0
 11
36.378765929689109
 21
-85.345132120652295
 31
0.0
  0
LINE
  5
DCE
  8
0
 62
     0
 10
33.305604291029063
 20
-87.295761744178705
 30
0.0
 11
35.25623391455548
 21
-85.345132120652295
 31
0.0
  0
LINE
  5
DCF
  8
0
 62
     0
 10
33.305604291029063
 20
-86.173229729045076
 30
0.0
 11
34.133701899421851
 21
-85.345132120652295
 31
0.0
  0
ENDBLK
  5
DD1
  8
0
  0
BLOCK
  8
0
  2
*X45
 70
     1
 10
0.0
 20
0.0
 30
0.0
  3
*X45
  1

  0
LINE
  5
DD3
  8
0
 62
     0
 10
55.106874217228267
 20
-89.945132120652318
 30
0.0
 11
55.305604291028942
 21
-89.746402046851628
 31
0.0
  0
LINE
  5
DD4
  8
0
 62
     0
 10
54.005604291029037
 20
-89.923870031717897
 30
0.0
 11
55.305604291028999
 21
-88.623870031717956
 31
0.0
  0
LINE
  5
DD5
  8
0
 62
     0
 10
53.861810186961122
 20
-88.945132120652204
 30
0.0
 11
55.305604291029049
 21
-87.501338016584327
 31
0.0
  0
LINE
  5
DD6
  8
0
 62
     0
 10
54.005604291029101
 20
-87.678806001450596
 30
0.0
 11
55.305604291028999
 21
-86.378806001450698
 31
0.0
  0
LINE
  5
DD7
  8
0
 62
     0
 10
52.805604291029049
 20
-88.878806001450656
 30
0.0
 11
53.939278171827418
 21
-87.745132120652286
 31
0.0
  0
LINE
  5
DD8
  8
0
 62
     0
 10
54.005604291029037
 20
-86.556273986317024
 30
0.0
 11
55.216746156693773
 21
-85.345132120652295
 31
0.0
  0
LINE
  5
DD9
  8
0
 62
     0
 10
52.805604291029113
 20
-87.756273986316955
 30
0.0
 11
52.816746156693853
 21
-87.745132120652215
 31
0.0
  0
LINE
  5
DDA
  8
0
 62
     0
 10
52.894214141560163
 20
-86.545132120652283
 30
0.0
 11
54.094214141560087
 21
-85.345132120652352
 31
0.0
  0
LINE
  5
DDB
  8
0
 62
     0
 10
51.771682126426519
 20
-86.545132120652283
 30
0.0
 11
52.971682126426522
 21
-85.345132120652295
 31
0.0
  0
LINE
  5
DDC
  8
0
 62
     0
 10
50.64915011129284
 20
-86.545132120652227
 30
0.0
 11
51.849150111292772
 21
-85.345132120652295
 31
0.0
  0
LINE
  5
DDD
  8
0
 62
     0
 10
49.526618096159147
 20
-86.545132120652283
 30
0.0
 11
50.726618096159143
 21
-85.345132120652295
 31
0.0
  0
LINE
  5
DDE
  8
0
 62
     0
 10
48.404086081025582
 20
-86.545132120652227
 30
0.0
 11
49.604086081025507
 21
-85.345132120652295
 31
0.0
  0
LINE
  5
DDF
  8
0
 62
     0
 10
47.281554065891889
 20
-86.545132120652283
 30
0.0
 11
48.481554065891892
 21
-85.345132120652295
 31
0.0
  0
LINE
  5
DE0
  8
0
 62
     0
 10
46.15902205075821
 20
-86.54513212065234
 30
0.0
 11
47.359022050758313
 21
-85.345132120652238
 31
0.0
  0
LINE
  5
DE1
  8
0
 62
     0
 10
45.036490035624638
 20
-86.545132120652283
 30
0.0
 11
46.23649003562462
 21
-85.345132120652295
 31
0.0
  0
LINE
  5
DE2
  8
0
 62
     0
 10
40.23649003562042
 20
-91.345132120656501
 30
0.0
 11
40.905604291029071
 21
-90.676017865247843
 31
0.0
  0
LINE
  5
DE3
  8
0
 62
     0
 10
43.913958020490952
 20
-86.54513212065234
 30
0.0
 11
45.113958020490941
 21
-85.345132120652352
 31
0.0
  0
LINE
  5
DE4
  8
0
 62
     0
 10
39.387687857194457
 20
-91.071402283948814
 30
0.0
 11
40.905604291029071
 21
-89.553485850114214
 31
0.0
  0
LINE
  5
DE5
  8
0
 62
     0
 10
42.791426005357373
 20
-86.545132120652283
 30
0.0
 11
43.991426005357368
 21
-85.345132120652295
 31
0.0
  0
LINE
  5
DE6
  8
0
 62
     0
 10
39.093303071742703
 20
-90.243255054266967
 30
0.0
 11
40.905604291029071
 21
-88.430953834980585
 31
0.0
  0
LINE
  5
DE7
  8
0
 62
     0
 10
41.66889399022363
 20
-86.545132120652283
 30
0.0
 11
42.868893990223633
 21
-85.345132120652295
 31
0.0
  0
LINE
  5
DE8
  8
0
 62
     0
 10
38.556031298839571
 20
-89.65799481203635
 30
0.0
 11
40.468893990223698
 21
-87.745132120652215
 31
0.0
  0
LINE
  5
DE9
  8
0
 62
     0
 10
40.546361975090001
 20
-86.545132120652283
 30
0.0
 11
41.746361975089989
 21
-85.345132120652295
 31
0.0
  0
LINE
  5
DEA
  8
0
 62
     0
 10
37.789783295283662
 20
-89.301710800458636
 30
0.0
 11
39.505604291029051
 21
-87.585889804713247
 31
0.0
  0
LINE
  5
DEB
  8
0
 62
     0
 10
36.60269957767435
 20
-89.366262502934319
 30
0.0
 11
40.62382995995636
 21
-85.345132120652295
 31
0.0
  0
LINE
  5
DEC
  8
0
 62
     0
 10
34.623829959952161
 20
-91.345132120656501
 30
0.0
 11
35.32673467330693
 21
-90.642227407301732
 31
0.0
  0
LINE
  5
DED
  8
0
 62
     0
 10
33.501297944818532
 20
-91.345132120656501
 30
0.0
 11
39.501297944822738
 21
-85.345132120652295
 31
0.0
  0
LINE
  5
DEE
  8
0
 62
     0
 10
33.305604291029063
 20
-90.418293759312334
 30
0.0
 11
38.378765929689109
 21
-85.345132120652295
 31
0.0
  0
LINE
  5
DEF
  8
0
 62
     0
 10
33.305604291029063
 20
-89.295761744178719
 30
0.0
 11
37.256233914555423
 21
-85.345132120652352
 31
0.0
  0
LINE
  5
DF0
  8
0
 62
     0
 10
33.305604291029063
 20
-88.17322972904509
 30
0.0
 11
36.133701899421851
 21
-85.345132120652295
 31
0.0
  0
LINE
  5
DF1
  8
0
 62
     0
 10
33.305604291028999
 20
-87.050697713911404
 30
0.0
 11
35.011169884288108
 21
-85.345132120652295
 31
0.0
  0
LINE
  5
DF2
  8
0
 62
     0
 10
33.305604291029063
 20
-85.928165698777718
 30
0.0
 11
33.888637869154479
 21
-85.345132120652295
 31
0.0
  0
ENDBLK
  5
DF4
  8
0
  0
BLOCK
  8
0
  2
*X46
 70
     1
 10
0.0
 20
0.0
 30
0.0
  3
*X46
  1

  0
LINE
  5
DF6
  8
0
 62
     0
 10
35.594962682495009
 20
-94.345132120652295
 30
0.0
 11
35.966797727491951
 21
-93.973297075655296
 31
0.0
  0
LINE
  5
DF7
  8
0
 62
     0
 10
34.472430667361273
 20
-94.345132120652295
 30
0.0
 11
35.906437889412473
 21
-92.911124898601088
 31
0.0
  0
LINE
  5
DF8
  8
0
 62
     0
 10
33.34989865222758
 20
-94.345132120652295
 30
0.0
 11
35.421815241569902
 21
-92.273215531310029
 31
0.0
  0
LINE
  5
DF9
  8
0
 62
     0
 10
33.305604291029063
 20
-93.266894466717204
 30
0.0
 11
35.205715902167128
 21
-91.366782855579103
 31
0.0
  0
LINE
  5
DFA
  8
0
 62
     0
 10
33.305604291028999
 20
-92.144362451583618
 30
0.0
 11
34.104834621956172
 21
-91.345132120656444
 31
0.0
  0
ENDBLK
  5
DFC
  8
0
  0
BLOCK
  8
0
  2
*X47
 70
     1
 10
0.0
 20
0.0
 30
0.0
  3
*X47
  1

  0
LINE
  5
E12
  8
0
 62
     0
 10
50.571658468930757
 20
-102.0882959025208
 30
0.0
 11
52.179061130015782
 21
-101.5942541136224
 31
0.0
  0
LINE
  5
E13
  8
0
 62
     0
 10
51.357736401057139
 20
-101.0162961402273
 30
0.0
 11
52.757148388407131
 21
-100.586181136455
 31
0.0
  0
LINE
  5
E14
  8
0
 62
     0
 10
50.084271492568348
 20
-101.4077007936602
 30
0.0
 11
50.937643233992219
 21
-101.14541349506651
 31
0.0
  0
LINE
  5
E15
  8
0
 62
     0
 10
51.859852504283538
 20
-100.0315732086402
 30
0.0
 11
53.33523564679831
 21
-99.578108159287609
 31
0.0
  0
LINE
  5
E16
  8
0
 62
     0
 10
51.686265480709501
 20
-99.254530399533095
 30
0.0
 11
53.109233654175618
 21
-98.817175305514482
 31
0.0
  0
LINE
  5
E17
  8
0
 62
     0
 10
46.042003830236517
 20
-100.9893173264925
 30
0.0
 11
46.496439372234533
 21
-100.84964470211339
 31
0.0
  0
LINE
  5
E18
  8
0
 62
     0
 10
50.857725891851373
 20
-98.67878994286707
 30
0.0
 11
52.166472155543879
 21
-98.276541420463701
 31
0.0
  0
LINE
  5
E19
  8
0
 62
     0
 10
45.099242331604891
 20
-100.4486834414417
 30
0.0
 11
48.095337319155298
 21
-99.527821380432314
 31
0.0
  0
LINE
  5
E1A
  8
0
 62
     0
 10
46.253201901666962
 20
-99.263613751550935
 30
0.0
 11
47.652613889016891
 21
-98.833498747778634
 31
0.0
  0
LINE
  5
E1B
  8
0
 62
     0
 10
49.914964393219911
 20
-98.138156057816246
 30
0.0
 11
51.223710656912317
 21
-97.735907535412878
 31
0.0
  0
LINE
  5
E1C
  8
0
 62
     0
 10
44.15648083297333
 20
-99.908049556390949
 30
0.0
 11
45.858557777063531
 21
-99.384909238996329
 31
0.0
  0
LINE
  5
E1D
  8
0
 62
     0
 10
46.831289160058013
 20
-98.255540774383604
 30
0.0
 11
50.280949158280627
 21
-97.195273650362125
 31
0.0
  0
LINE
  5
E1E
  8
0
 62
     0
 10
43.213719334341697
 20
-99.367415671340197
 30
0.0
 11
44.915089477141862
 21
-98.844492592215815
 31
0.0
  0
LINE
  5
E1F
  8
0
 62
     0
 10
47.555560467618527
 20
-97.202537531198544
 30
0.0
 11
49.140081936140859
 21
-96.715528370514292
 31
0.0
  0
LINE
  5
E20
  8
0
 62
     0
 10
42.270957835710192
 20
-98.826781786289345
 30
0.0
 11
43.972327978510343
 21
-98.303858707165006
 31
0.0
  0
LINE
  5
E21
  8
0
 62
     0
 10
41.328196337078559
 20
-98.286147901238564
 30
0.0
 11
43.02956647987866
 21
-97.763224822114211
 31
0.0
  0
LINE
  5
E22
  8
0
 62
     0
 10
40.385434838446884
 20
-97.745514016187784
 30
0.0
 11
42.086804981247148
 21
-97.222590937063387
 31
0.0
  0
LINE
  5
E23
  8
0
 62
     0
 10
39.442673339815371
 20
-97.204880131136946
 30
0.0
 11
41.14404348261553
 21
-96.681957052012592
 31
0.0
  0
LINE
  5
E24
  8
0
 62
     0
 10
38.509304190387361
 20
-96.661359469104355
 30
0.0
 11
40.201281983983897
 21
-96.141323166961797
 31
0.0
  0
LINE
  5
E25
  8
0
 62
     0
 10
37.967671513935159
 20
-95.997436998258593
 30
0.0
 11
39.26021871801408
 21
-95.60016732314952
 31
0.0
  0
LINE
  5
E26
  8
0
 62
     0
 10
37.782207197624018
 20
-95.224044723702093
 30
0.0
 11
39.033330482224642
 21
-94.839506859842103
 31
0.0
  0
LINE
  5
E27
  8
0
 62
     0
 10
37.637866624937317
 20
-94.438012898174179
 30
0.0
 11
38.888989909537941
 21
-94.053475034314204
 31
0.0
  0
LINE
  5
E28
  8
0
 62
     0
 10
37.493526052250559
 20
-93.651981072646265
 30
0.0
 11
38.744649336851133
 21
-93.267443208786304
 31
0.0
  0
LINE
  5
E29
  8
0
 62
     0
 10
36.408392883208649
 20
-93.155105703392934
 30
0.0
 11
39.037808371664831
 21
-92.346944087686069
 31
0.0
  0
LINE
  5
E2A
  8
0
 62
     0
 10
36.860716837955181
 20
-92.185686592499735
 30
0.0
 11
38.119091987427339
 21
-91.798919838280938
 31
0.0
  0
ENDBLK
  5
E2C
  8
0
  0
BLOCK
  8
0
  2
*X48
 70
     1
 10
0.0
 20
0.0
 30
0.0
  3
*X48
  1

  0
LINE
  5
E2E
  8
0
 62
     0
 10
36.226367341732903
 20
-91.771145684044285
 30
0.0
 11
37.360080870358217
 21
-91.293196574359513
 31
0.0
  0
LINE
  5
E2F
  8
0
 62
     0
 10
35.819584447614943
 20
-91.081233717023792
 30
0.0
 11
37.533401802008029
 21
-90.358725377824854
 31
0.0
  0
LINE
  5
E30
  8
0
 62
     0
 10
35.718010124620662
 20
-90.262652415860714
 30
0.0
 11
36.493644481630326
 21
-89.935661742279194
 31
0.0
  0
ENDBLK
  5
E32
  8
0
  0
BLOCK
  8
0
  2
*X49
 70
     1
 10
0.0
 20
0.0
 30
0.0
  3
*X49
  1

  0
LINE
  5
E34
  8
0
 62
     0
 10
37.533401802008029
 20
-90.358725377824854
 30
0.0
 11
37.78314450590392
 21
-90.253439253981895
 31
0.0
  0
LINE
  5
E35
  8
0
 62
     0
 10
36.493644481630326
 20
-89.935661742279194
 30
0.0
 11
38.206208141449679
 21
-89.213681933604207
 31
0.0
  0
LINE
  5
E36
  8
0
 62
     0
 10
36.105843315665993
 20
-89.237747489105999
 30
0.0
 11
37.977315622582132
 21
-88.448775230854096
 31
0.0
  0
ENDBLK
  5
E38
  8
0
  0
BLOCK
  8
0
  2
*X50
 70
     1
 10
0.0
 20
0.0
 30
0.0
  3
*X50
  1

  0
LINE
  5
E3A
  8
0
 62
     0
 10
38.167847197534279
 20
-91.695967466175688
 30
0.0
 11
39.301560726159437
 21
-91.218018356490987
 31
0.0
  0
LINE
  5
E3B
  8
0
 62
     0
 10
37.377832581052481
 20
-91.167617706787055
 30
0.0
 11
39.091649935445453
 21
-90.445109367588117
 31
0.0
  0
LINE
  5
E3C
  8
0
 62
     0
 10
37.800896216598119
 20
-90.127860386409424
 30
0.0
 11
38.576530573607897
 21
-89.800869712827847
 31
0.0
  0
ENDBLK
  5
E3E
  8
0
  0
BLOCK
  8
0
  2
*U51
 70
     1
 10
0.0
 20
0.0
 30
0.0
  3
*U51
  1

  0
SOLID
  5
E40
  8
0
  6
CONTINUOUS
 62
     6
 10
49.279792672714251
 20
-98.387917376201941
 30
0.0
 11
49.061015294387637
 21
-98.451471704979411
 31
0.0
 12
49.525737123909877
 22
-98.451471704979411
 32
0.0
 13
49.525737123909877
 23
-98.451471704979411
 33
0.0
210
0.0
220
0.0
230
1.0
  0
SOLID
  5
E41
  8
0
  6
CONTINUOUS
 62
     6
 10
49.061015294387637
 20
-98.451471704979411
 30
0.0
 11
49.035853818437417
 21
-98.458781056281154
 31
0.0
 12
49.538483226545722
 22
-98.458781056281154
 32
0.0
 13
49.538483226545722
 23
-98.458781056281154
 33
0.0
210
0.0
220
0.0
230
1.0
  0
SOLID
  5
E42
  8
0
  6
CONTINUOUS
 62
     6
 10
-49.061015294387637
 20
-98.451471704979411
 30
0.0
 11
-49.525737123909877
 21
-98.451471704979411
 31
0.0
 12
-49.538483226545722
 22
-98.458781056281154
 32
0.0
 13
-49.538483226545722
 23
-98.458781056281154
 33
0.0
210
0.0
220
0.0
230
-1.0
  0
SOLID
  5
E43
  8
0
  6
CONTINUOUS
 62
     6
 10
49.035853818437417
 20
-98.458781056281154
 30
0.0
 11
48.032582783093503
 21
-99.074600737520711
 31
0.0
 12
50.612354290912428
 22
-99.074600737520711
 32
0.0
 13
50.612354290912428
 23
-99.074600737520711
 33
0.0
210
0.0
220
0.0
230
1.0
  0
SOLID
  5
E44
  8
0
  6
CONTINUOUS
 62
     6
 10
-49.035853818437417
 20
-98.458781056281154
 30
0.0
 11
-49.538483226545722
 21
-98.458781056281154
 31
0.0
 12
-50.612354290912428
 22
-99.074600737520711
 32
0.0
 13
-50.612354290912428
 23
-99.074600737520711
 33
0.0
210
0.0
220
0.0
230
-1.0
  0
SOLID
  5
E45
  8
0
  6
CONTINUOUS
 62
     6
 10
48.032582783093503
 20
-99.074600737520711
 30
0.0
 11
47.964923662702233
 21
-99.159092422431627
 31
0.0
 12
50.759691536488582
 22
-99.159092422431627
 32
0.0
 13
50.759691536488582
 23
-99.159092422431627
 33
0.0
  0
SOLID
  5
E46
  8
0
  6
CONTINUOUS
 62
     6
 10
-48.032582783093503
 20
-99.074600737520711
 30
0.0
 11
-50.612354290912428
 21
-99.074600737520711
 31
0.0
 12
-50.759691536488582
 22
-99.159092422431627
 32
0.0
 13
-50.759691536488582
 23
-99.159092422431627
 33
0.0
210
0.0
220
0.0
230
-1.0
  0
SOLID
  5
E47
  8
0
  6
CONTINUOUS
 62
     6
 10
47.964923662702233
 20
-99.159092422431627
 30
0.0
 11
47.964981779123548
 21
-99.162987469119287
 31
0.0
 12
50.766483748656619
 22
-99.162987469119287
 32
0.0
 13
50.766483748656619
 23
-99.162987469119287
 33
0.0
  0
SOLID
  5
E48
  8
0
  6
CONTINUOUS
 62
     6
 10
-47.964923662702233
 20
-99.159092422431627
 30
0.0
 11
-50.759691536488582
 21
-99.159092422431627
 31
0.0
 12
-50.766483748656619
 22
-99.162987469119287
 32
0.0
 13
-50.766483748656619
 23
-99.162987469119287
 33
0.0
210
0.0
220
0.0
230
-1.0
  0
SOLID
  5
E49
  8
0
  6
CONTINUOUS
 62
     6
 10
47.964981779123548
 20
-99.162987469119287
 30
0.0
 11
47.966538536866892
 21
-99.267323626678063
 31
0.0
 12
50.87018056135085
 22
-99.267323626678063
 32
0.0
 13
50.87018056135085
 23
-99.267323626678063
 33
0.0
210
0.0
220
0.0
230
1.0
  0
SOLID
  5
E4A
  8
0
  6
CONTINUOUS
 62
     6
 10
-47.964981779123548
 20
-99.162987469119287
 30
0.0
 11
-50.766483748656619
 21
-99.162987469119287
 31
0.0
 12
-50.87018056135085
 22
-99.267323626678063
 32
0.0
 13
-50.87018056135085
 23
-99.267323626678063
 33
0.0
210
0.0
220
0.0
230
-1.0
  0
SOLID
  5
E4B
  8
0
  6
CONTINUOUS
 62
     6
 10
47.966538536866892
 20
-99.267323626678063
 30
0.0
 11
48.031072880515552
 21
-99.343160229258061
 31
0.0
 12
50.945552456934351
 22
-99.343160229258061
 32
0.0
 13
50.945552456934351
 23
-99.343160229258061
 33
0.0
210
0.0
220
0.0
230
1.0
  0
SOLID
  5
E4C
  8
0
  6
CONTINUOUS
 62
     6
 10
-47.966538536866892
 20
-99.267323626678063
 30
0.0
 11
-50.87018056135085
 21
-99.267323626678063
 31
0.0
 12
-50.945552456934351
 22
-99.343160229258061
 32
0.0
 13
-50.945552456934351
 23
-99.343160229258061
 33
0.0
210
0.0
220
0.0
230
-1.0
  0
SOLID
  5
E4D
  8
0
  6
CONTINUOUS
 62
     6
 10
48.031072880515552
 20
-99.343160229258061
 30
0.0
 11
48.036688310396691
 21
-99.349759120641068
 31
0.0
 12
50.947214470910318
 22
-99.349759120641068
 32
0.0
 13
50.947214470910318
 23
-99.349759120641068
 33
0.0
  0
SOLID
  5
E4E
  8
0
  6
CONTINUOUS
 62
     6
 10
-48.031072880515552
 20
-99.343160229258061
 30
0.0
 11
-50.945552456934351
 21
-99.343160229258061
 31
0.0
 12
-50.947214470910318
 22
-99.349759120641068
 32
0.0
 13
-50.947214470910318
 23
-99.349759120641068
 33
0.0
210
0.0
220
0.0
230
-1.0
  0
SOLID
  5
E4F
  8
0
  6
CONTINUOUS
 62
     6
 10
48.036688310396691
 20
-99.349759120641068
 30
0.0
 11
48.314283143951108
 21
-99.508948028496064
 31
0.0
 12
50.987308203981158
 22
-99.508948028496064
 32
0.0
 13
50.987308203981158
 23
-99.508948028496064
 33
0.0
210
0.0
220
0.0
230
1.0
  0
SOLID
  5
E50
  8
0
  6
CONTINUOUS
 62
     6
 10
-48.036688310396691
 20
-99.349759120641068
 30
0.0
 11
-50.947214470910318
 21
-99.349759120641068
 31
0.0
 12
-50.987308203981158
 22
-99.508948028496064
 32
0.0
 13
-50.987308203981158
 23
-99.508948028496064
 33
0.0
210
0.0
220
0.0
230
-1.0
  0
SOLID
  5
E51
  8
0
  6
CONTINUOUS
 62
     6
 10
48.314283143951108
 20
-99.508948028496064
 30
0.0
 11
48.268095340969637
 21
-99.589490672161887
 31
0.0
 12
51.007593884054401
 22
-99.589490672161887
 32
0.0
 13
51.007593884054401
 23
-99.589490672161887
 33
0.0
  0
SOLID
  5
E52
  8
0
  6
CONTINUOUS
 62
     6
 10
-48.314283143951108
 20
-99.508948028496064
 30
0.0
 11
-50.987308203981158
 21
-99.508948028496064
 31
0.0
 12
-51.007593884054401
 22
-99.589490672161887
 32
0.0
 13
-51.007593884054401
 23
-99.589490672161887
 33
0.0
210
0.0
220
0.0
230
-1.0
  0
SOLID
  5
E53
  8
0
  6
CONTINUOUS
 62
     6
 10
48.268095340969637
 20
-99.589490672161887
 30
0.0
 11
48.182499420224786
 21
-99.738753492620489
 31
0.0
 12
51.004449041859161
 22
-99.738753492620489
 32
0.0
 13
51.004449041859161
 23
-99.738753492620489
 33
0.0
210
0.0
220
0.0
230
1.0
  0
SOLID
  5
E54
  8
0
  6
CONTINUOUS
 62
     6
 10
-48.268095340969637
 20
-99.589490672161887
 30
0.0
 11
-51.007593884054401
 21
-99.589490672161887
 31
0.0
 12
-51.004449041859161
 22
-99.738753492620489
 32
0.0
 13
-51.004449041859161
 23
-99.738753492620489
 33
0.0
210
0.0
220
0.0
230
-1.0
  0
SOLID
  5
E55
  8
0
  6
CONTINUOUS
 62
     6
 10
48.182499420224786
 20
-99.738753492620489
 30
0.0
 11
48.17245403039437
 21
-99.81622974181245
 31
0.0
 12
51.002816682395242
 22
-99.81622974181245
 32
0.0
 13
51.002816682395242
 23
-99.81622974181245
 33
0.0
210
0.0
220
0.0
230
1.0
  0
SOLID
  5
E56
  8
0
  6
CONTINUOUS
 62
     6
 10
-48.182499420224786
 20
-99.738753492620489
 30
0.0
 11
-51.004449041859161
 21
-99.738753492620489
 31
0.0
 12
-51.002816682395242
 22
-99.81622974181245
 32
0.0
 13
-51.002816682395242
 23
-99.81622974181245
 33
0.0
210
0.0
220
0.0
230
-1.0
  0
SOLID
  5
E57
  8
0
  6
CONTINUOUS
 62
     6
 10
48.17245403039437
 20
-99.81622974181245
 30
0.0
 11
48.142744980298282
 21
-99.888485201039344
 31
0.0
 12
51.001294320588642
 22
-99.888485201039344
 32
0.0
 13
51.001294320588642
 23
-99.888485201039344
 33
0.0
210
0.0
220
0.0
230
1.0
  0
SOLID
  5
E58
  8
0
  6
CONTINUOUS
 62
     6
 10
-48.17245403039437
 20
-99.81622974181245
 30
0.0
 11
-51.002816682395242
 21
-99.81622974181245
 31
0.0
 12
-51.001294320588642
 22
-99.888485201039344
 32
0.0
 13
-51.001294320588642
 23
-99.888485201039344
 33
0.0
210
0.0
220
0.0
230
-1.0
  0
SOLID
  5
E59
  8
0
  6
CONTINUOUS
 62
     6
 10
48.142744980298282
 20
-99.888485201039344
 30
0.0
 11
47.994508142413572
 21
-100.14698173131779
 31
0.0
 12
50.99584801592119
 22
-100.14698173131779
 32
0.0
 13
50.99584801592119
 23
-100.14698173131779
 33
0.0
210
0.0
220
0.0
230
1.0
  0
SOLID
  5
E5A
  8
0
  6
CONTINUOUS
 62
     6
 10
-48.142744980298282
 20
-99.888485201039344
 30
0.0
 11
-51.001294320588642
 21
-99.888485201039344
 31
0.0
 12
-50.99584801592119
 22
-100.14698173131779
 32
0.0
 13
-50.99584801592119
 23
-100.14698173131779
 33
0.0
210
0.0
220
0.0
230
-1.0
  0
SOLID
  5
E5B
  8
0
  6
CONTINUOUS
 62
     6
 10
47.014662817061698
 20
-100.14698173131779
 30
0.0
 11
46.963913520128159
 21
-100.23547874298229
 31
0.0
 12
47.168984582027299
 22
-100.23547874298229
 32
0.0
 13
47.168984582027299
 23
-100.23547874298229
 33
0.0
210
0.0
220
0.0
230
1.0
  0
SOLID
  5
E5C
  8
0
  6
CONTINUOUS
 62
     6
 10
47.994508142413572
 20
-100.14698173131779
 30
0.0
 11
47.943758845480019
 21
-100.23547874298229
 31
0.0
 12
50.993983458253183
 22
-100.23547874298229
 32
0.0
 13
50.993983458253183
 23
-100.23547874298229
 33
0.0
210
0.0
220
0.0
230
1.0
  0
SOLID
  5
E5D
  8
0
  6
CONTINUOUS
 62
     6
 10
-47.994508142413572
 20
-100.14698173131779
 30
0.0
 11
-50.99584801592119
 21
-100.14698173131779
 31
0.0
 12
-50.993983458253183
 22
-100.23547874298229
 32
0.0
 13
-50.993983458253183
 23
-100.23547874298229
 33
0.0
210
0.0
220
0.0
230
-1.0
  0
SOLID
  5
E5E
  8
0
  6
CONTINUOUS
 62
     6
 10
46.963913520128159
 20
-100.23547874298229
 30
0.0
 11
46.928281974363983
 21
-100.2976133046738
 31
0.0
 12
47.277335305348302
 22
-100.2976133046738
 32
0.0
 13
47.277335305348302
 23
-100.2976133046738
 33
0.0
210
0.0
220
0.0
230
1.0
  0
SOLID
  5
E5F
  8
0
  6
CONTINUOUS
 62
     6
 10
-46.963913520128159
 20
-100.23547874298229
 30
0.0
 11
-47.168984582027299
 21
-100.23547874298229
 31
0.0
 12
-47.277335305348302
 22
-100.2976133046738
 32
0.0
 13
-47.277335305348302
 23
-100.2976133046738
 33
0.0
210
0.0
220
0.0
230
-1.0
  0
SOLID
  5
E60
  8
0
  6
CONTINUOUS
 62
     6
 10
47.943758845480019
 20
-100.23547874298229
 30
0.0
 11
47.896400896948499
 21
-100.2976133046738
 31
0.0
 12
50.99267433525263
 22
-100.2976133046738
 32
0.0
 13
50.99267433525263
 23
-100.2976133046738
 33
0.0
210
0.0
220
0.0
230
1.0
  0
SOLID
  5
E61
  8
0
  6
CONTINUOUS
 62
     6
 10
-47.943758845480019
 20
-100.23547874298229
 30
0.0
 11
-50.993983458253183
 21
-100.23547874298229
 31
0.0
 12
-50.99267433525263
 22
-100.2976133046738
 32
0.0
 13
-50.99267433525263
 23
-100.2976133046738
 33
0.0
210
0.0
220
0.0
230
-1.0
  0
SOLID
  5
E62
  8
0
  6
CONTINUOUS
 62
     6
 10
46.928281974363983
 20
-100.2976133046738
 30
0.0
 11
46.900870740064981
 21
-100.34541322443771
 31
0.0
 12
47.36068917057419
 22
-100.34541322443771
 32
0.0
 13
47.36068917057419
 23
-100.34541322443771
 33
0.0
  0
SOLID
  5
E63
  8
0
  6
CONTINUOUS
 62
     6
 10
-46.928281974363983
 20
-100.2976133046738
 30
0.0
 11
-47.277335305348302
 21
-100.2976133046738
 31
0.0
 12
-47.36068917057419
 22
-100.34541322443771
 32
0.0
 13
-47.36068917057419
 23
-100.34541322443771
 33
0.0
210
0.0
220
0.0
230
-1.0
  0
SOLID
  5
E64
  8
0
  6
CONTINUOUS
 62
     6
 10
47.896400896948499
 20
-100.2976133046738
 30
0.0
 11
47.834605697165038
 21
-100.34541322443771
 31
0.0
 12
50.991667231111492
 22
-100.34541322443771
 32
0.0
 13
50.991667231111492
 23
-100.34541322443771
 33
0.0
210
0.0
220
0.0
230
1.0
  0
SOLID
  5
E65
  8
0
  6
CONTINUOUS
 62
     6
 10
-47.896400896948499
 20
-100.2976133046738
 30
0.0
 11
-50.99267433525263
 21
-100.2976133046738
 31
0.0
 12
-50.991667231111492
 22
-100.34541322443771
 32
0.0
 13
-50.991667231111492
 23
-100.34541322443771
 33
0.0
210
0.0
220
0.0
230
-1.0
  0
SOLID
  5
E66
  8
0
  6
CONTINUOUS
 62
     6
 10
46.900870740064981
 20
-100.34541322443771
 30
0.0
 11
46.783589782396298
 21
-100.5499286543248
 31
0.0
 12
47.717324739496277
 22
-100.5499286543248
 32
0.0
 13
47.717324739496277
 23
-100.5499286543248
 33
0.0
210
0.0
220
0.0
230
1.0
  0
SOLID
  5
E67
  8
0
  6
CONTINUOUS
 62
     6
 10
-46.900870740064981
 20
-100.34541322443771
 30
0.0
 11
-47.36068917057419
 21
-100.34541322443771
 31
0.0
 12
-47.717324739496277
 22
-100.5499286543248
 32
0.0
 13
-47.717324739496277
 23
-100.5499286543248
 33
0.0
210
0.0
220
0.0
230
-1.0
  0
SOLID
  5
E68
  8
0
  6
CONTINUOUS
 62
     6
 10
47.834605697165038
 20
-100.34541322443771
 30
0.0
 11
47.717324739496277
 21
-100.5499286543248
 31
0.0
 12
50.987358262866692
 22
-100.5499286543248
 32
0.0
 13
50.987358262866692
 23
-100.5499286543248
 33
0.0
210
0.0
220
0.0
230
1.0
  0
SOLID
  5
E69
  8
0
  6
CONTINUOUS
 62
     6
 10
-47.834605697165038
 20
-100.34541322443771
 30
0.0
 11
-50.991667231111492
 21
-100.34541322443771
 31
0.0
 12
-50.987358262866692
 22
-100.5499286543248
 32
0.0
 13
-50.987358262866692
 23
-100.5499286543248
 33
0.0
210
0.0
220
0.0
230
-1.0
  0
SOLID
  5
E6A
  8
0
  6
CONTINUOUS
 62
     6
 10
46.783589782396298
 20
-100.5499286543248
 30
0.0
 11
46.673065315283033
 21
-100.7426620643688
 31
0.0
 12
50.98329753187906
 22
-100.7426620643688
 32
0.0
 13
50.98329753187906
 23
-100.7426620643688
 33
0.0
210
0.0
220
0.0
230
1.0
  0
SOLID
  5
E6B
  8
0
  6
CONTINUOUS
 62
     6
 10
-46.783589782396298
 20
-100.5499286543248
 30
0.0
 11
-50.987358262866692
 21
-100.5499286543248
 31
0.0
 12
-50.98329753187906
 22
-100.7426620643688
 32
0.0
 13
-50.98329753187906
 23
-100.7426620643688
 33
0.0
210
0.0
220
0.0
230
-1.0
  0
SOLID
  5
E6C
  8
0
  6
CONTINUOUS
 62
     6
 10
46.673065315283033
 20
-100.7426620643688
 30
0.0
 11
46.659438922028897
 21
-100.76642387301681
 31
0.0
 12
50.452016710742768
 22
-100.76642387301681
 32
0.0
 13
50.452016710742768
 23
-100.76642387301681
 33
0.0
210
0.0
220
0.0
230
1.0
  0
SOLID
  5
E6D
  8
0
  6
CONTINUOUS
 62
     6
 10
-46.673065315283033
 20
-100.7426620643688
 30
0.0
 11
-50.465643103996896
 21
-100.7426620643688
 31
0.0
 12
-50.452016710742768
 22
-100.76642387301681
 32
0.0
 13
-50.452016710742768
 23
-100.76642387301681
 33
0.0
210
0.0
220
0.0
230
-1.0
  0
SOLID
  5
E6E
  8
0
  6
CONTINUOUS
 62
     6
 10
50.465643103996896
 20
-100.7426620643688
 30
0.0
 11
50.507079127432839
 21
-100.76642387301681
 31
0.0
 12
50.982796890538893
 22
-100.76642387301681
 32
0.0
 13
50.982796890538893
 23
-100.76642387301681
 33
0.0
210
0.0
220
0.0
230
1.0
  0
SOLID
  5
E6F
  8
0
  6
CONTINUOUS
 62
     6
 10
-50.465643103996896
 20
-100.7426620643688
 30
0.0
 11
-50.98329753187906
 21
-100.7426620643688
 31
0.0
 12
-50.982796890538893
 22
-100.76642387301681
 32
0.0
 13
-50.982796890538893
 23
-100.76642387301681
 33
0.0
210
0.0
220
0.0
230
-1.0
  0
SOLID
  5
E70
  8
0
  6
CONTINUOUS
 62
     6
 10
46.659438922028897
 20
-100.76642387301681
 30
0.0
 11
46.601480274475293
 21
-100.8674926053646
 31
0.0
 12
50.394058063189142
 22
-100.8674926053646
 32
0.0
 13
50.394058063189142
 23
-100.8674926053646
 33
0.0
210
0.0
220
0.0
230
1.0
  0
SOLID
  5
E71
  8
0
  6
CONTINUOUS
 62
     6
 10
-46.659438922028897
 20
-100.76642387301681
 30
0.0
 11
-50.452016710742768
 21
-100.76642387301681
 31
0.0
 12
-50.394058063189142
 22
-100.8674926053646
 32
0.0
 13
-50.394058063189142
 23
-100.8674926053646
 33
0.0
210
0.0
220
0.0
230
-1.0
  0
SOLID
  5
E72
  8
0
  6
CONTINUOUS
 62
     6
 10
50.507079127432839
 20
-100.76642387301681
 30
0.0
 11
50.683323554961078
 21
-100.8674926053646
 31
0.0
 12
50.944044952099567
 22
-100.8674926053646
 32
0.0
 13
50.944044952099567
 23
-100.8674926053646
 33
0.0
210
0.0
220
0.0
230
1.0
  0
SOLID
  5
E73
  8
0
  6
CONTINUOUS
 62
     6
 10
-50.507079127432839
 20
-100.76642387301681
 30
0.0
 11
-50.982796890538893
 21
-100.76642387301681
 31
0.0
 12
-50.944044952099567
 22
-100.8674926053646
 32
0.0
 13
-50.944044952099567
 23
-100.8674926053646
 33
0.0
210
0.0
220
0.0
230
-1.0
  0
SOLID
  5
E74
  8
0
  6
CONTINUOUS
 62
     6
 10
46.601480274475293
 20
-100.8674926053646
 30
0.0
 11
46.581777202822593
 21
-100.9018509722235
 31
0.0
 12
50.374354991536443
 22
-100.9018509722235
 32
0.0
 13
50.374354991536443
 23
-100.9018509722235
 33
0.0
210
0.0
220
0.0
230
1.0
  0
SOLID
  5
E75
  8
0
  6
CONTINUOUS
 62
     6
 10
-46.601480274475293
 20
-100.8674926053646
 30
0.0
 11
-50.394058063189142
 21
-100.8674926053646
 31
0.0
 12
-50.374354991536443
 22
-100.9018509722235
 32
0.0
 13
-50.374354991536443
 23
-100.9018509722235
 33
0.0
210
0.0
220
0.0
230
-1.0
  0
SOLID
  5
E76
  8
0
  6
CONTINUOUS
 62
     6
 10
50.683323554961078
 20
-100.8674926053646
 30
0.0
 11
50.743237937551939
 21
-100.9018509722235
 31
0.0
 12
50.88326794041371
 22
-100.9018509722235
 32
0.0
 13
50.88326794041371
 23
-100.9018509722235
 33
0.0
210
0.0
220
0.0
230
1.0
  0
SOLID
  5
E77
  8
0
  6
CONTINUOUS
 62
     6
 10
-50.683323554961078
 20
-100.8674926053646
 30
0.0
 11
-50.944044952099567
 21
-100.8674926053646
 31
0.0
 12
-50.88326794041371
 22
-100.9018509722235
 32
0.0
 13
-50.88326794041371
 23
-100.9018509722235
 33
0.0
210
0.0
220
0.0
230
-1.0
  0
SOLID
  5
E78
  8
0
  6
CONTINUOUS
 62
     6
 10
46.581777202822593
 20
-100.9018509722235
 30
0.0
 11
46.570932699299739
 21
-100.92076170030739
 31
0.0
 12
50.363510488013603
 22
-100.92076170030739
 32
0.0
 13
50.363510488013603
 23
-100.92076170030739
 33
0.0
210
0.0
220
0.0
230
1.0
  0
SOLID
  5
E79
  8
0
  6
CONTINUOUS
 62
     6
 10
-46.581777202822593
 20
-100.9018509722235
 30
0.0
 11
-50.374354991536443
 21
-100.9018509722235
 31
0.0
 12
-50.363510488013603
 22
-100.92076170030739
 32
0.0
 13
-50.363510488013603
 23
-100.92076170030739
 33
0.0
210
0.0
220
0.0
230
-1.0
  0
SOLID
  5
E7A
  8
0
  6
CONTINUOUS
 62
     6
 10
-50.743237937551939
 20
-100.9018509722235
 30
0.0
 11
-50.88326794041371
 21
-100.9018509722235
 31
0.0
 12
-50.849816480207231
 22
-100.92076170030739
 32
0.0
 13
-50.849816480207231
 23
-100.92076170030739
 33
0.0
210
0.0
220
0.0
230
-1.0
  0
SOLID
  5
E7B
  8
0
  6
CONTINUOUS
 62
     6
 10
46.570932699299739
 20
-100.92076170030739
 30
0.0
 11
46.541281591556661
 21
-100.9724675284934
 31
0.0
 12
50.333859380270511
 22
-100.9724675284934
 32
0.0
 13
50.333859380270511
 23
-100.9724675284934
 33
0.0
210
0.0
220
0.0
230
1.0
  0
SOLID
  5
E7C
  8
0
  6
CONTINUOUS
 62
     6
 10
-46.570932699299739
 20
-100.92076170030739
 30
0.0
 11
-50.363510488013603
 21
-100.92076170030739
 31
0.0
 12
-50.333859380270511
 22
-100.9724675284934
 32
0.0
 13
-50.333859380270511
 23
-100.9724675284934
 33
0.0
210
0.0
220
0.0
230
-1.0
  0
SOLID
  5
E7D
  8
0
  6
CONTINUOUS
 62
     6
 10
46.541281591556661
 20
-100.9724675284934
 30
0.0
 11
46.517197480016229
 21
-101.01446558617511
 31
0.0
 12
50.279564762669111
 22
-101.01446558617511
 32
0.0
 13
50.279564762669111
 23
-101.01446558617511
 33
0.0
  0
SOLID
  5
E7E
  8
0
  6
CONTINUOUS
 62
     6
 10
-46.541281591556661
 20
-100.9724675284934
 30
0.0
 11
-50.333859380270511
 21
-100.9724675284934
 31
0.0
 12
-50.279564762669111
 22
-101.01446558617511
 32
0.0
 13
-50.279564762669111
 23
-101.01446558617511
 33
0.0
210
0.0
220
0.0
230
-1.0
  0
SOLID
  5
E7F
  8
0
  6
CONTINUOUS
 62
     6
 10
46.517197480016229
 20
-101.01446558617511
 30
0.0
 11
46.527314811435247
 21
-101.0202674482573
 31
0.0
 12
50.272064180487128
 22
-101.0202674482573
 32
0.0
 13
50.272064180487128
 23
-101.0202674482573
 33
0.0
210
0.0
220
0.0
230
1.0
  0
SOLID
  5
E80
  8
0
  6
CONTINUOUS
 62
     6
 10
-46.517197480016229
 20
-101.01446558617511
 30
0.0
 11
-50.279564762669111
 21
-101.01446558617511
 31
0.0
 12
-50.272064180487128
 22
-101.0202674482573
 32
0.0
 13
-50.272064180487128
 23
-101.0202674482573
 33
0.0
210
0.0
220
0.0
230
-1.0
  0
SOLID
  5
E81
  8
0
  6
CONTINUOUS
 62
     6
 10
46.527314811435247
 20
-101.0202674482573
 30
0.0
 11
46.635665534756228
 21
-101.08240200994879
 31
0.0
 12
50.224706231955658
 22
-101.08240200994879
 32
0.0
 13
50.224706231955658
 23
-101.08240200994879
 33
0.0
210
0.0
220
0.0
230
1.0
  0
SOLID
  5
E82
  8
0
  6
CONTINUOUS
 62
     6
 10
-46.527314811435247
 20
-101.0202674482573
 30
0.0
 11
-50.272064180487128
 21
-101.0202674482573
 31
0.0
 12
-50.224706231955658
 22
-101.08240200994879
 32
0.0
 13
-50.224706231955658
 23
-101.08240200994879
 33
0.0
210
0.0
220
0.0
230
-1.0
  0
SOLID
  5
E83
  8
0
  6
CONTINUOUS
 62
     6
 10
46.635665534756228
 20
-101.08240200994879
 30
0.0
 11
47.240755523866987
 21
-101.4293955518924
 31
0.0
 12
50.025720097137061
 22
-101.4293955518924
 32
0.0
 13
50.025720097137061
 23
-101.4293955518924
 33
0.0
210
0.0
220
0.0
230
1.0
  0
SOLID
  5
E84
  8
0
  6
CONTINUOUS
 62
     6
 10
-46.635665534756228
 20
-101.08240200994879
 30
0.0
 11
-50.224706231955658
 21
-101.08240200994879
 31
0.0
 12
-50.025720097137061
 22
-101.4293955518924
 32
0.0
 13
-50.025720097137061
 23
-101.4293955518924
 33
0.0
210
0.0
220
0.0
230
-1.0
  0
SOLID
  5
E85
  8
0
  6
CONTINUOUS
 62
     6
 10
47.240755523866987
 20
-101.4293955518924
 30
0.0
 11
47.36675514562338
 21
-101.50165101111941
 31
0.0
 12
49.996011047040938
 22
-101.50165101111941
 32
0.0
 13
49.996011047040938
 23
-101.50165101111941
 33
0.0
210
0.0
220
0.0
230
1.0
  0
SOLID
  5
E86
  8
0
  6
CONTINUOUS
 62
     6
 10
-47.240755523866987
 20
-101.4293955518924
 30
0.0
 11
-50.025720097137061
 21
-101.4293955518924
 31
0.0
 12
-49.996011047040938
 22
-101.50165101111941
 32
0.0
 13
-49.996011047040938
 23
-101.50165101111941
 33
0.0
210
0.0
220
0.0
230
-1.0
  0
SOLID
  5
E87
  8
0
  6
CONTINUOUS
 62
     6
 10
47.36675514562338
 20
-101.50165101111941
 30
0.0
 11
47.501858820802298
 21
-101.5791272603114
 31
0.0
 12
49.9859656572105
 22
-101.5791272603114
 32
0.0
 13
49.9859656572105
 23
-101.5791272603114
 33
0.0
  0
SOLID
  5
E88
  8
0
  6
CONTINUOUS
 62
     6
 10
-47.36675514562338
 20
-101.50165101111941
 30
0.0
 11
-49.996011047040938
 21
-101.50165101111941
 31
0.0
 12
-49.9859656572105
 22
-101.5791272603114
 32
0.0
 13
-49.9859656572105
 23
-101.5791272603114
 33
0.0
210
0.0
220
0.0
230
-1.0
  0
SOLID
  5
E89
  8
0
  6
CONTINUOUS
 62
     6
 10
47.501858820802298
 20
-101.5791272603114
 30
0.0
 11
47.858494389723063
 21
-101.78364269019769
 31
0.0
 12
49.868684699542243
 22
-101.78364269019769
 32
0.0
 13
49.868684699542243
 23
-101.78364269019769
 33
0.0
210
0.0
220
0.0
230
1.0
  0
SOLID
  5
E8A
  8
0
  6
CONTINUOUS
 62
     6
 10
-47.501858820802298
 20
-101.5791272603114
 30
0.0
 11
-49.9859656572105
 21
-101.5791272603114
 31
0.0
 12
-49.868684699542243
 22
-101.78364269019769
 32
0.0
 13
-49.868684699542243
 23
-101.78364269019769
 33
0.0
210
0.0
220
0.0
230
-1.0
  0
SOLID
  5
E8B
  8
0
  6
CONTINUOUS
 62
     6
 10
47.858494389723063
 20
-101.78364269019769
 30
0.0
 11
55.15403360907311
 21
-105.96732617475099
 31
0.0
 12
57.164223918892603
 22
-105.96732617475099
 32
0.0
 13
57.164223918892603
 23
-105.96732617475099
 33
0.0
210
0.0
220
0.0
230
1.0
  0
SOLID
  5
E8C
  8
0
  6
CONTINUOUS
 62
     6
 10
-47.858494389723063
 20
-101.78364269019769
 30
0.0
 11
-49.868684699542243
 21
-101.78364269019769
 31
0.0
 12
-57.164223918892603
 22
-105.96732617475099
 32
0.0
 13
-57.164223918892603
 23
-105.96732617475099
 33
0.0
210
0.0
220
0.0
230
-1.0
  0
SOLID
  5
E8D
  8
0
  6
CONTINUOUS
 62
     6
 10
-55.15403360907311
 20
-105.96732617475099
 30
0.0
 11
-57.164223918892603
 21
-105.96732617475099
 31
0.0
 12
-56.666758581846963
 22
-106.83481002960851
 32
0.0
 13
-56.666758581846963
 23
-106.83481002960851
 33
0.0
210
0.0
220
0.0
230
-1.0
  0
LINE
  5
E8E
  8
0
  6
CONTINUOUS
 62
     6
 10
49.279792672714251
 20
-98.387917376201941
 30
0.0
 11
49.061015294387637
 21
-98.451471704979411
 31
0.0
  0
LINE
  5
E8F
  8
0
  6
CONTINUOUS
 62
     6
 10
49.525737123909877
 20
-98.451471704979411
 30
0.0
 11
49.279792672714251
 21
-98.387917376201941
 31
0.0
  0
LINE
  5
E90
  8
0
  6
CONTINUOUS
 62
     6
 10
49.061015294387637
 20
-98.451471704979411
 30
0.0
 11
49.035853818437417
 21
-98.458781056281154
 31
0.0
  0
LINE
  5
E91
  8
0
  6
CONTINUOUS
 62
     6
 10
49.525737123909877
 20
-98.451471704979411
 30
0.0
 11
49.538483226545722
 21
-98.458781056281154
 31
0.0
  0
LINE
  5
E92
  8
0
  6
CONTINUOUS
 62
     6
 10
49.035853818437417
 20
-98.458781056281154
 30
0.0
 11
48.032582783093503
 21
-99.074600737520711
 31
0.0
  0
LINE
  5
E93
  8
0
  6
CONTINUOUS
 62
     6
 10
49.538483226545722
 20
-98.458781056281154
 30
0.0
 11
50.612354290912428
 21
-99.074600737520711
 31
0.0
  0
LINE
  5
E94
  8
0
  6
CONTINUOUS
 62
     6
 10
48.032582783093503
 20
-99.074600737520711
 30
0.0
 11
47.964923662702233
 21
-99.159092422431627
 31
0.0
  0
LINE
  5
E95
  8
0
  6
CONTINUOUS
 62
     6
 10
50.612354290912428
 20
-99.074600737520711
 30
0.0
 11
50.759691536488582
 21
-99.159092422431627
 31
0.0
  0
LINE
  5
E96
  8
0
  6
CONTINUOUS
 62
     6
 10
47.964923662702233
 20
-99.159092422431627
 30
0.0
 11
47.964981779123548
 21
-99.162987469119287
 31
0.0
  0
LINE
  5
E97
  8
0
  6
CONTINUOUS
 62
     6
 10
50.759691536488582
 20
-99.159092422431627
 30
0.0
 11
50.766483748656619
 21
-99.162987469119287
 31
0.0
  0
LINE
  5
E98
  8
0
  6
CONTINUOUS
 62
     6
 10
47.964981779123548
 20
-99.162987469119287
 30
0.0
 11
47.966538536866892
 21
-99.267323626678063
 31
0.0
  0
LINE
  5
E99
  8
0
  6
CONTINUOUS
 62
     6
 10
50.766483748656619
 20
-99.162987469119287
 30
0.0
 11
50.87018056135085
 21
-99.267323626678063
 31
0.0
  0
LINE
  5
E9A
  8
0
  6
CONTINUOUS
 62
     6
 10
47.966538536866892
 20
-99.267323626678063
 30
0.0
 11
48.031072880515552
 21
-99.343160229258061
 31
0.0
  0
LINE
  5
E9B
  8
0
  6
CONTINUOUS
 62
     6
 10
50.87018056135085
 20
-99.267323626678063
 30
0.0
 11
50.945552456934351
 21
-99.343160229258061
 31
0.0
  0
LINE
  5
E9C
  8
0
  6
CONTINUOUS
 62
     6
 10
48.031072880515552
 20
-99.343160229258061
 30
0.0
 11
48.036688310396691
 21
-99.349759120641068
 31
0.0
  0
LINE
  5
E9D
  8
0
  6
CONTINUOUS
 62
     6
 10
50.945552456934351
 20
-99.343160229258061
 30
0.0
 11
50.947214470910318
 21
-99.349759120641068
 31
0.0
  0
LINE
  5
E9E
  8
0
  6
CONTINUOUS
 62
     6
 10
48.036688310396691
 20
-99.349759120641068
 30
0.0
 11
48.314283143951108
 21
-99.508948028496064
 31
0.0
  0
LINE
  5
E9F
  8
0
  6
CONTINUOUS
 62
     6
 10
50.947214470910318
 20
-99.349759120641068
 30
0.0
 11
50.987308203981158
 21
-99.508948028496064
 31
0.0
  0
LINE
  5
EA0
  8
0
  6
CONTINUOUS
 62
     6
 10
48.314283143951108
 20
-99.508948028496064
 30
0.0
 11
48.268095340969637
 21
-99.589490672161887
 31
0.0
  0
LINE
  5
EA1
  8
0
  6
CONTINUOUS
 62
     6
 10
50.987308203981158
 20
-99.508948028496064
 30
0.0
 11
51.007593884054401
 21
-99.589490672161887
 31
0.0
  0
LINE
  5
EA2
  8
0
  6
CONTINUOUS
 62
     6
 10
48.268095340969637
 20
-99.589490672161887
 30
0.0
 11
48.182499420224786
 21
-99.738753492620489
 31
0.0
  0
LINE
  5
EA3
  8
0
  6
CONTINUOUS
 62
     6
 10
51.007593884054401
 20
-99.589490672161887
 30
0.0
 11
51.004449041859161
 21
-99.738753492620489
 31
0.0
  0
LINE
  5
EA4
  8
0
  6
CONTINUOUS
 62
     6
 10
48.182499420224786
 20
-99.738753492620489
 30
0.0
 11
48.17245403039437
 21
-99.81622974181245
 31
0.0
  0
LINE
  5
EA5
  8
0
  6
CONTINUOUS
 62
     6
 10
51.004449041859161
 20
-99.738753492620489
 30
0.0
 11
51.002816682395242
 21
-99.81622974181245
 31
0.0
  0
LINE
  5
EA6
  8
0
  6
CONTINUOUS
 62
     6
 10
48.17245403039437
 20
-99.81622974181245
 30
0.0
 11
48.142744980298282
 21
-99.888485201039344
 31
0.0
  0
LINE
  5
EA7
  8
0
  6
CONTINUOUS
 62
     6
 10
51.002816682395242
 20
-99.81622974181245
 30
0.0
 11
51.001294320588642
 21
-99.888485201039344
 31
0.0
  0
LINE
  5
EA8
  8
0
  6
CONTINUOUS
 62
     6
 10
48.142744980298282
 20
-99.888485201039344
 30
0.0
 11
47.994508142413572
 21
-100.14698173131779
 31
0.0
  0
LINE
  5
EA9
  8
0
  6
CONTINUOUS
 62
     6
 10
51.001294320588642
 20
-99.888485201039344
 30
0.0
 11
50.99584801592119
 21
-100.14698173131779
 31
0.0
  0
LINE
  5
EAA
  8
0
  6
CONTINUOUS
 62
     6
 10
47.014662817061698
 20
-100.14698173131779
 30
0.0
 11
46.963913520128159
 21
-100.23547874298229
 31
0.0
  0
LINE
  5
EAB
  8
0
  6
CONTINUOUS
 62
     6
 10
47.168984582027299
 20
-100.23547874298229
 30
0.0
 11
47.014662817061698
 21
-100.14698173131779
 31
0.0
  0
LINE
  5
EAC
  8
0
  6
CONTINUOUS
 62
     6
 10
47.994508142413572
 20
-100.14698173131779
 30
0.0
 11
47.943758845480019
 21
-100.23547874298229
 31
0.0
  0
LINE
  5
EAD
  8
0
  6
CONTINUOUS
 62
     6
 10
50.99584801592119
 20
-100.14698173131779
 30
0.0
 11
50.993983458253183
 21
-100.23547874298229
 31
0.0
  0
LINE
  5
EAE
  8
0
  6
CONTINUOUS
 62
     6
 10
46.963913520128159
 20
-100.23547874298229
 30
0.0
 11
46.928281974363983
 21
-100.2976133046738
 31
0.0
  0
LINE
  5
EAF
  8
0
  6
CONTINUOUS
 62
     6
 10
47.168984582027299
 20
-100.23547874298229
 30
0.0
 11
47.277335305348302
 21
-100.2976133046738
 31
0.0
  0
LINE
  5
EB0
  8
0
  6
CONTINUOUS
 62
     6
 10
47.943758845480019
 20
-100.23547874298229
 30
0.0
 11
47.896400896948499
 21
-100.2976133046738
 31
0.0
  0
LINE
  5
EB1
  8
0
  6
CONTINUOUS
 62
     6
 10
50.993983458253183
 20
-100.23547874298229
 30
0.0
 11
50.99267433525263
 21
-100.2976133046738
 31
0.0
  0
LINE
  5
EB2
  8
0
  6
CONTINUOUS
 62
     6
 10
46.928281974363983
 20
-100.2976133046738
 30
0.0
 11
46.900870740064981
 21
-100.34541322443771
 31
0.0
  0
LINE
  5
EB3
  8
0
  6
CONTINUOUS
 62
     6
 10
47.277335305348302
 20
-100.2976133046738
 30
0.0
 11
47.36068917057419
 21
-100.34541322443771
 31
0.0
  0
LINE
  5
EB4
  8
0
  6
CONTINUOUS
 62
     6
 10
47.896400896948499
 20
-100.2976133046738
 30
0.0
 11
47.834605697165038
 21
-100.34541322443771
 31
0.0
  0
LINE
  5
EB5
  8
0
  6
CONTINUOUS
 62
     6
 10
50.99267433525263
 20
-100.2976133046738
 30
0.0
 11
50.991667231111492
 21
-100.34541322443771
 31
0.0
  0
LINE
  5
EB6
  8
0
  6
CONTINUOUS
 62
     6
 10
46.900870740064981
 20
-100.34541322443771
 30
0.0
 11
46.783589782396298
 21
-100.5499286543248
 31
0.0
  0
LINE
  5
EB7
  8
0
  6
CONTINUOUS
 62
     6
 10
50.991667231111492
 20
-100.34541322443771
 30
0.0
 11
50.987358262866692
 21
-100.5499286543248
 31
0.0
  0
LINE
  5
EB8
  8
0
  6
CONTINUOUS
 62
     6
 10
46.783589782396298
 20
-100.5499286543248
 30
0.0
 11
46.673065315283033
 21
-100.7426620643688
 31
0.0
  0
LINE
  5
EB9
  8
0
  6
CONTINUOUS
 62
     6
 10
50.987358262866692
 20
-100.5499286543248
 30
0.0
 11
50.98329753187906
 21
-100.7426620643688
 31
0.0
  0
LINE
  5
EBA
  8
0
  6
CONTINUOUS
 62
     6
 10
46.673065315283033
 20
-100.7426620643688
 30
0.0
 11
46.659438922028897
 21
-100.76642387301681
 31
0.0
  0
LINE
  5
EBB
  8
0
  6
CONTINUOUS
 62
     6
 10
50.98329753187906
 20
-100.7426620643688
 30
0.0
 11
50.982796890538893
 21
-100.76642387301681
 31
0.0
  0
LINE
  5
EBC
  8
0
  6
CONTINUOUS
 62
     6
 10
46.659438922028897
 20
-100.76642387301681
 30
0.0
 11
46.601480274475293
 21
-100.8674926053646
 31
0.0
  0
LINE
  5
EBD
  8
0
  6
CONTINUOUS
 62
     6
 10
50.452016710742768
 20
-100.76642387301681
 30
0.0
 11
50.394058063189142
 21
-100.8674926053646
 31
0.0
  0
LINE
  5
EBE
  8
0
  6
CONTINUOUS
 62
     6
 10
50.507079127432839
 20
-100.76642387301681
 30
0.0
 11
50.683323554961078
 21
-100.8674926053646
 31
0.0
  0
LINE
  5
EBF
  8
0
  6
CONTINUOUS
 62
     6
 10
50.982796890538893
 20
-100.76642387301681
 30
0.0
 11
50.944044952099567
 21
-100.8674926053646
 31
0.0
  0
LINE
  5
EC0
  8
0
  6
CONTINUOUS
 62
     6
 10
46.601480274475293
 20
-100.8674926053646
 30
0.0
 11
46.581777202822593
 21
-100.9018509722235
 31
0.0
  0
LINE
  5
EC1
  8
0
  6
CONTINUOUS
 62
     6
 10
50.394058063189142
 20
-100.8674926053646
 30
0.0
 11
50.374354991536443
 21
-100.9018509722235
 31
0.0
  0
LINE
  5
EC2
  8
0
  6
CONTINUOUS
 62
     6
 10
50.683323554961078
 20
-100.8674926053646
 30
0.0
 11
50.743237937551939
 21
-100.9018509722235
 31
0.0
  0
LINE
  5
EC3
  8
0
  6
CONTINUOUS
 62
     6
 10
50.944044952099567
 20
-100.8674926053646
 30
0.0
 11
50.88326794041371
 21
-100.9018509722235
 31
0.0
  0
LINE
  5
EC4
  8
0
  6
CONTINUOUS
 62
     6
 10
46.581777202822593
 20
-100.9018509722235
 30
0.0
 11
46.570932699299739
 21
-100.92076170030739
 31
0.0
  0
LINE
  5
EC5
  8
0
  6
CONTINUOUS
 62
     6
 10
50.374354991536443
 20
-100.9018509722235
 30
0.0
 11
50.363510488013603
 21
-100.92076170030739
 31
0.0
  0
LINE
  5
EC6
  8
0
  6
CONTINUOUS
 62
     6
 10
50.88326794041371
 20
-100.9018509722235
 30
0.0
 11
50.849816480207231
 21
-100.92076170030739
 31
0.0
  0
LINE
  5
EC7
  8
0
  6
CONTINUOUS
 62
     6
 10
50.849816480207231
 20
-100.92076170030739
 30
0.0
 11
50.743237937551939
 21
-100.9018509722235
 31
0.0
  0
LINE
  5
EC8
  8
0
  6
CONTINUOUS
 62
     6
 10
46.570932699299739
 20
-100.92076170030739
 30
0.0
 11
46.541281591556661
 21
-100.9724675284934
 31
0.0
  0
LINE
  5
EC9
  8
0
  6
CONTINUOUS
 62
     6
 10
50.363510488013603
 20
-100.92076170030739
 30
0.0
 11
50.333859380270511
 21
-100.9724675284934
 31
0.0
  0
LINE
  5
ECA
  8
0
  6
CONTINUOUS
 62
     6
 10
46.541281591556661
 20
-100.9724675284934
 30
0.0
 11
46.517197480016229
 21
-101.01446558617511
 31
0.0
  0
LINE
  5
ECB
  8
0
  6
CONTINUOUS
 62
     6
 10
50.333859380270511
 20
-100.9724675284934
 30
0.0
 11
50.279564762669111
 21
-101.01446558617511
 31
0.0
  0
LINE
  5
ECC
  8
0
  6
CONTINUOUS
 62
     6
 10
46.517197480016229
 20
-101.01446558617511
 30
0.0
 11
46.527314811435247
 21
-101.0202674482573
 31
0.0
  0
LINE
  5
ECD
  8
0
  6
CONTINUOUS
 62
     6
 10
50.279564762669111
 20
-101.01446558617511
 30
0.0
 11
50.272064180487128
 21
-101.0202674482573
 31
0.0
  0
LINE
  5
ECE
  8
0
  6
CONTINUOUS
 62
     6
 10
46.527314811435247
 20
-101.0202674482573
 30
0.0
 11
46.635665534756228
 21
-101.08240200994879
 31
0.0
  0
LINE
  5
ECF
  8
0
  6
CONTINUOUS
 62
     6
 10
50.272064180487128
 20
-101.0202674482573
 30
0.0
 11
50.224706231955658
 21
-101.08240200994879
 31
0.0
  0
LINE
  5
ED0
  8
0
  6
CONTINUOUS
 62
     6
 10
46.635665534756228
 20
-101.08240200994879
 30
0.0
 11
47.240755523866987
 21
-101.4293955518924
 31
0.0
  0
LINE
  5
ED1
  8
0
  6
CONTINUOUS
 62
     6
 10
50.224706231955658
 20
-101.08240200994879
 30
0.0
 11
50.025720097137061
 21
-101.4293955518924
 31
0.0
  0
LINE
  5
ED2
  8
0
  6
CONTINUOUS
 62
     6
 10
47.240755523866987
 20
-101.4293955518924
 30
0.0
 11
47.36675514562338
 21
-101.50165101111941
 31
0.0
  0
LINE
  5
ED3
  8
0
  6
CONTINUOUS
 62
     6
 10
50.025720097137061
 20
-101.4293955518924
 30
0.0
 11
49.996011047040938
 21
-101.50165101111941
 31
0.0
  0
LINE
  5
ED4
  8
0
  6
CONTINUOUS
 62
     6
 10
47.36675514562338
 20
-101.50165101111941
 30
0.0
 11
47.501858820802298
 21
-101.5791272603114
 31
0.0
  0
LINE
  5
ED5
  8
0
  6
CONTINUOUS
 62
     6
 10
49.996011047040938
 20
-101.50165101111941
 30
0.0
 11
49.9859656572105
 21
-101.5791272603114
 31
0.0
  0
LINE
  5
ED6
  8
0
  6
CONTINUOUS
 62
     6
 10
47.501858820802298
 20
-101.5791272603114
 30
0.0
 11
47.858494389723063
 21
-101.78364269019769
 31
0.0
  0
LINE
  5
ED7
  8
0
  6
CONTINUOUS
 62
     6
 10
49.9859656572105
 20
-101.5791272603114
 30
0.0
 11
49.868684699542243
 21
-101.78364269019769
 31
0.0
  0
LINE
  5
ED8
  8
0
  6
CONTINUOUS
 62
     6
 10
47.858494389723063
 20
-101.78364269019769
 30
0.0
 11
55.15403360907311
 21
-105.96732617475099
 31
0.0
  0
LINE
  5
ED9
  8
0
  6
CONTINUOUS
 62
     6
 10
49.868684699542243
 20
-101.78364269019769
 30
0.0
 11
57.164223918892603
 21
-105.96732617475099
 31
0.0
  0
LINE
  5
EDA
  8
0
  6
CONTINUOUS
 62
     6
 10
57.164223918892603
 20
-105.96732617475099
 30
0.0
 11
56.666758581846963
 21
-106.83481002960851
 31
0.0
  0
LINE
  5
EDB
  8
0
  6
CONTINUOUS
 62
     6
 10
56.666758581846963
 20
-106.83481002960851
 30
0.0
 11
55.15403360907311
 21
-105.96732617475099
 31
0.0
  0
ENDBLK
  5
EDD
  8
0
  0
BLOCK
  8
0
  2
*U52
 70
     1
 10
0.0
 20
0.0
 30
0.0
  3
*U52
  1

  0
TEXT
  5
FE4
  8
0
 62
     2
 10
190.89256628367221
 20
659.2717623260628
 30
0.0
 40
3.0
  1
60
 50
90.0
  7
BYGG-014565$0$ISO
  0
ENDBLK
  5
FE6
  8
0
  0
BLOCK
  8
0
  2
*U53
 70
     1
 10
0.0
 20
0.0
 30
0.0
  3
*U53
  1

  0
TEXT
  5
FE8
  8
0
 62
     2
 10
113.7344761310633
 20
618.04985164983123
 30
0.0
 40
3.0
  1
120
  7
BYGG-014565$0$ISO
  0
ENDBLK
  5
FEA
  8
0
  0
BLOCK
  8
0
  2
*U54
 70
     1
 10
0.0
 20
0.0
 30
0.0
  3
*U54
  1

  0
TEXT
  5
FED
  8
0
 10
66.188644406388434
 20
104.90706299443001
 30
0.0
 40
3.0
  1
22
 50
90.0
  7
BYGG-014203$0$ISO
  0
ENDBLK
  5
FEF
  8
0
  0
BLOCK
  8
0
  2
*U55
 70
     1
 10
0.0
 20
0.0
 30
0.0
  3
*U55
  1

  0
TEXT
  5
FF1
  8
0
 10
40.557523376873263
 20
124.6204803328818
 30
0.0
 40
3.0
  1
29
  7
BYGG-014203$0$ISO
  0
ENDBLK
  5
FF3
  8
0
  0
BLOCK
  8
0
  2
*U56
 70
     1
 10
0.0
 20
0.0
 30
0.0
  3
*U56
  1

  0
TEXT
  5
FF5
  8
0
 62
     2
 10
29.718000835851839
 20
-16.54715913134012
 30
0.0
 40
3.0
  1
60
  7
BYGG-014565$0$ISO
  0
ENDBLK
  5
FF7
  8
0
  0
BLOCK
  8
0
  2
*U57
 70
     1
 10
0.0
 20
0.0
 30
0.0
  3
*U57
  1

  0
TEXT
  5
FF9
  8
0
 62
     2
 10
-13.50450039156097
 20
54.908568816544481
 30
0.0
 40
3.0
  1
120
 50
90.0
  7
BYGG-014565$0$ISO
  0
ENDBLK
  5
FFB
  8
0
  0
BLOCK
  8
0
  2
*U58
 70
     1
 10
0.0
 20
0.0
 30
0.0
  3
*U58
  1

  0
SOLID
  5
124D
  8
SAPA_FOGBAND
  6
CONTINUOUS
 62
     6
 10
33.167853036364178
 20
-6.3795105090242341
 30
0.0
 11
32.949075658037557
 21
-6.4430648378016988
 31
0.0
 12
33.413797487559812
 22
-6.4430648378016988
 32
0.0
 13
33.413797487559812
 23
-6.4430648378016988
 33
0.0
210
0.0
220
0.0
230
1.0
  0
SOLID
  5
124E
  8
SAPA_FOGBAND
  6
CONTINUOUS
 62
     6
 10
32.949075658037557
 20
-6.4430648378016988
 30
0.0
 11
32.923914182087351
 21
-6.4503741891034556
 31
0.0
 12
33.426543590195642
 22
-6.4503741891034556
 32
0.0
 13
33.426543590195642
 23
-6.4503741891034556
 33
0.0
210
0.0
220
0.0
230
1.0
  0
SOLID
  5
124F
  8
SAPA_FOGBAND
  6
CONTINUOUS
 62
     6
 10
-32.949075658037557
 20
-6.4430648378016988
 30
0.0
 11
-33.413797487559812
 21
-6.4430648378016988
 31
0.0
 12
-33.426543590195642
 22
-6.4503741891034556
 32
0.0
 13
-33.426543590195642
 23
-6.4503741891034556
 33
0.0
210
0.0
220
0.0
230
-1.0
  0
SOLID
  5
1250
  8
SAPA_FOGBAND
  6
CONTINUOUS
 62
     6
 10
32.923914182087351
 20
-6.4503741891034556
 30
0.0
 11
31.92064314674343
 21
-7.0661938703429987
 31
0.0
 12
34.500414654562363
 22
-7.0661938703429987
 32
0.0
 13
34.500414654562363
 23
-7.0661938703429987
 33
0.0
210
0.0
220
0.0
230
1.0
  0
SOLID
  5
1251
  8
SAPA_FOGBAND
  6
CONTINUOUS
 62
     6
 10
-32.923914182087351
 20
-6.4503741891034556
 30
0.0
 11
-33.426543590195642
 21
-6.4503741891034556
 31
0.0
 12
-34.500414654562363
 22
-7.0661938703429987
 32
0.0
 13
-34.500414654562363
 23
-7.0661938703429987
 33
0.0
210
0.0
220
0.0
230
-1.0
  0
SOLID
  5
1252
  8
SAPA_FOGBAND
  6
CONTINUOUS
 62
     6
 10
31.92064314674343
 20
-7.0661938703429987
 30
0.0
 11
31.852984026352161
 21
-7.1506855552539079
 31
0.0
 12
34.647751900138502
 22
-7.1506855552539079
 32
0.0
 13
34.647751900138502
 23
-7.1506855552539079
 33
0.0
  0
SOLID
  5
1253
  8
SAPA_FOGBAND
  6
CONTINUOUS
 62
     6
 10
-31.92064314674343
 20
-7.0661938703429987
 30
0.0
 11
-34.500414654562363
 21
-7.0661938703429987
 31
0.0
 12
-34.647751900138502
 22
-7.1506855552539079
 32
0.0
 13
-34.647751900138502
 23
-7.1506855552539079
 33
0.0
210
0.0
220
0.0
230
-1.0
  0
SOLID
  5
1254
  8
SAPA_FOGBAND
  6
CONTINUOUS
 62
     6
 10
31.852984026352161
 20
-7.1506855552539079
 30
0.0
 11
31.853042142773479
 21
-7.1545806019415741
 31
0.0
 12
34.65454411230656
 22
-7.1545806019415741
 32
0.0
 13
34.65454411230656
 23
-7.1545806019415741
 33
0.0
210
0.0
220
0.0
230
1.0
  0
SOLID
  5
1255
  8
SAPA_FOGBAND
  6
CONTINUOUS
 62
     6
 10
-31.852984026352161
 20
-7.1506855552539079
 30
0.0
 11
-34.647751900138502
 21
-7.1506855552539079
 31
0.0
 12
-34.65454411230656
 22
-7.1545806019415741
 32
0.0
 13
-34.65454411230656
 23
-7.1545806019415741
 33
0.0
210
0.0
220
0.0
230
-1.0
  0
SOLID
  5
1256
  8
SAPA_FOGBAND
  6
CONTINUOUS
 62
     6
 10
31.853042142773479
 20
-7.1545806019415741
 30
0.0
 11
31.85459890051682
 21
-7.2589167595003579
 31
0.0
 12
34.758240925000777
 22
-7.2589167595003579
 32
0.0
 13
34.758240925000777
 23
-7.2589167595003579
 33
0.0
210
0.0
220
0.0
230
1.0
  0
SOLID
  5
1257
  8
SAPA_FOGBAND
  6
CONTINUOUS
 62
     6
 10
-31.853042142773479
 20
-7.1545806019415741
 30
0.0
 11
-34.65454411230656
 21
-7.1545806019415741
 31
0.0
 12
-34.758240925000777
 22
-7.2589167595003579
 32
0.0
 13
-34.758240925000777
 23
-7.2589167595003579
 33
0.0
210
0.0
220
0.0
230
-1.0
  0
SOLID
  5
1258
  8
SAPA_FOGBAND
  6
CONTINUOUS
 62
     6
 10
31.85459890051682
 20
-7.2589167595003579
 30
0.0
 11
31.919133244165479
 21
-7.3347533620803489
 31
0.0
 12
34.833612820584278
 22
-7.3347533620803489
 32
0.0
 13
34.833612820584278
 23
-7.3347533620803489
 33
0.0
210
0.0
220
0.0
230
1.0
  0
SOLID
  5
1259
  8
SAPA_FOGBAND
  6
CONTINUOUS
 62
     6
 10
-31.85459890051682
 20
-7.2589167595003579
 30
0.0
 11
-34.758240925000777
 21
-7.2589167595003579
 31
0.0
 12
-34.833612820584278
 22
-7.3347533620803489
 32
0.0
 13
-34.833612820584278
 23
-7.3347533620803489
 33
0.0
210
0.0
220
0.0
230
-1.0
  0
SOLID
  5
125A
  8
SAPA_FOGBAND
  6
CONTINUOUS
 62
     6
 10
31.919133244165479
 20
-7.3347533620803489
 30
0.0
 11
31.924748674046612
 21
-7.3413522534633548
 31
0.0
 12
34.835274834560252
 22
-7.3413522534633548
 32
0.0
 13
34.835274834560252
 23
-7.3413522534633548
 33
0.0
210
0.0
220
0.0
230
1.0
  0
SOLID
  5
125B
  8
SAPA_FOGBAND
  6
CONTINUOUS
 62
     6
 10
-31.919133244165479
 20
-7.3347533620803489
 30
0.0
 11
-34.833612820584278
 21
-7.3347533620803489
 31
0.0
 12
-34.835274834560252
 22
-7.3413522534633548
 32
0.0
 13
-34.835274834560252
 23
-7.3413522534633548
 33
0.0
210
0.0
220
0.0
230
-1.0
  0
SOLID
  5
125C
  8
SAPA_FOGBAND
  6
CONTINUOUS
 62
     6
 10
31.924748674046612
 20
-7.3413522534633548
 30
0.0
 11
32.202343507601043
 21
-7.5005411613183517
 31
0.0
 12
34.875368567631092
 22
-7.5005411613183517
 32
0.0
 13
34.875368567631092
 23
-7.5005411613183517
 33
0.0
210
0.0
220
0.0
230
1.0
  0
SOLID
  5
125D
  8
SAPA_FOGBAND
  6
CONTINUOUS
 62
     6
 10
-31.924748674046612
 20
-7.3413522534633548
 30
0.0
 11
-34.835274834560252
 21
-7.3413522534633548
 31
0.0
 12
-34.875368567631092
 22
-7.5005411613183517
 32
0.0
 13
-34.875368567631092
 23
-7.5005411613183517
 33
0.0
210
0.0
220
0.0
230
-1.0
  0
SOLID
  5
125E
  8
SAPA_FOGBAND
  6
CONTINUOUS
 62
     6
 10
32.202343507601043
 20
-7.5005411613183517
 30
0.0
 11
32.156155704619572
 21
-7.5810838049841598
 31
0.0
 12
34.895654247704329
 22
-7.5810838049841598
 32
0.0
 13
34.895654247704329
 23
-7.5810838049841598
 33
0.0
  0
SOLID
  5
125F
  8
SAPA_FOGBAND
  6
CONTINUOUS
 62
     6
 10
-32.202343507601043
 20
-7.5005411613183517
 30
0.0
 11
-34.875368567631092
 21
-7.5005411613183517
 31
0.0
 12
-34.895654247704329
 22
-7.5810838049841598
 32
0.0
 13
-34.895654247704329
 23
-7.5810838049841598
 33
0.0
210
0.0
220
0.0
230
-1.0
  0
SOLID
  5
1260
  8
SAPA_FOGBAND
  6
CONTINUOUS
 62
     6
 10
32.156155704619572
 20
-7.5810838049841598
 30
0.0
 11
32.070559783874707
 21
-7.7303466254427766
 31
0.0
 12
34.892509405509102
 22
-7.7303466254427766
 32
0.0
 13
34.892509405509102
 23
-7.7303466254427766
 33
0.0
210
0.0
220
0.0
230
1.0
  0
SOLID
  5
1261
  8
SAPA_FOGBAND
  6
CONTINUOUS
 62
     6
 10
-32.156155704619572
 20
-7.5810838049841598
 30
0.0
 11
-34.895654247704329
 21
-7.5810838049841598
 31
0.0
 12
-34.892509405509102
 22
-7.7303466254427766
 32
0.0
 13
-34.892509405509102
 23
-7.7303466254427766
 33
0.0
210
0.0
220
0.0
230
-1.0
  0
SOLID
  5
1262
  8
SAPA_FOGBAND
  6
CONTINUOUS
 62
     6
 10
32.070559783874707
 20
-7.7303466254427766
 30
0.0
 11
32.060514394044297
 21
-7.8078228746347431
 31
0.0
 12
34.890877046045183
 22
-7.8078228746347431
 32
0.0
 13
34.890877046045183
 23
-7.8078228746347431
 33
0.0
  0
SOLID
  5
1263
  8
SAPA_FOGBAND
  6
CONTINUOUS
 62
     6
 10
-32.070559783874707
 20
-7.7303466254427766
 30
0.0
 11
-34.892509405509102
 21
-7.7303466254427766
 31
0.0
 12
-34.890877046045183
 22
-7.8078228746347431
 32
0.0
 13
-34.890877046045183
 23
-7.8078228746347431
 33
0.0
210
0.0
220
0.0
230
-1.0
  0
SOLID
  5
1264
  8
SAPA_FOGBAND
  6
CONTINUOUS
 62
     6
 10
32.060514394044297
 20
-7.8078228746347431
 30
0.0
 11
32.030805343948202
 21
-7.8800783338616318
 31
0.0
 12
34.889354684238569
 22
-7.8800783338616318
 32
0.0
 13
34.889354684238569
 23
-7.8800783338616318
 33
0.0
  0
SOLID
  5
1265
  8
SAPA_FOGBAND
  6
CONTINUOUS
 62
     6
 10
-32.060514394044297
 20
-7.8078228746347431
 30
0.0
 11
-34.890877046045183
 21
-7.8078228746347431
 31
0.0
 12
-34.889354684238569
 22
-7.8800783338616318
 32
0.0
 13
-34.889354684238569
 23
-7.8800783338616318
 33
0.0
210
0.0
220
0.0
230
-1.0
  0
SOLID
  5
1266
  8
SAPA_FOGBAND
  6
CONTINUOUS
 62
     6
 10
32.030805343948202
 20
-7.8800783338616318
 30
0.0
 11
31.8825685060635
 21
-8.1385748641400824
 31
0.0
 12
34.883908379571118
 22
-8.1385748641400824
 32
0.0
 13
34.883908379571118
 23
-8.1385748641400824
 33
0.0
  0
SOLID
  5
1267
  8
SAPA_FOGBAND
  6
CONTINUOUS
 62
     6
 10
-32.030805343948202
 20
-7.8800783338616318
 30
0.0
 11
-34.889354684238569
 21
-7.8800783338616318
 31
0.0
 12
-34.883908379571118
 22
-8.1385748641400824
 32
0.0
 13
-34.883908379571118
 23
-8.1385748641400824
 33
0.0
210
0.0
220
0.0
230
-1.0
  0
SOLID
  5
1268
  8
SAPA_FOGBAND
  6
CONTINUOUS
 62
     6
 10
30.902723180711629
 20
-8.1385748641400824
 30
0.0
 11
30.85197388377809
 21
-8.2270718758045973
 31
0.0
 12
31.05704494567723
 22
-8.2270718758045973
 32
0.0
 13
31.05704494567723
 23
-8.2270718758045973
 33
0.0
210
0.0
220
0.0
230
1.0
  0
SOLID
  5
1269
  8
SAPA_FOGBAND
  6
CONTINUOUS
 62
     6
 10
31.8825685060635
 20
-8.1385748641400824
 30
0.0
 11
31.83181920912995
 21
-8.2270718758045973
 31
0.0
 12
34.88204382190311
 22
-8.2270718758045973
 32
0.0
 13
34.88204382190311
 23
-8.2270718758045973
 33
0.0
210
0.0
220
0.0
230
1.0
  0
SOLID
  5
126A
  8
SAPA_FOGBAND
  6
CONTINUOUS
 62
     6
 10
-31.8825685060635
 20
-8.1385748641400824
 30
0.0
 11
-34.883908379571118
 21
-8.1385748641400824
 31
0.0
 12
-34.88204382190311
 22
-8.2270718758045973
 32
0.0
 13
-34.88204382190311
 23
-8.2270718758045973
 33
0.0
210
0.0
220
0.0
230
-1.0
  0
SOLID
  5
126B
  8
SAPA_FOGBAND
  6
CONTINUOUS
 62
     6
 10
30.85197388377809
 20
-8.2270718758045973
 30
0.0
 11
30.816342338013911
 21
-8.2892064374961105
 31
0.0
 12
31.165395668998251
 22
-8.2892064374961105
 32
0.0
 13
31.165395668998251
 23
-8.2892064374961105
 33
0.0
  0
SOLID
  5
126C
  8
SAPA_FOGBAND
  6
CONTINUOUS
 62
     6
 10
-30.85197388377809
 20
-8.2270718758045973
 30
0.0
 11
-31.05704494567723
 21
-8.2270718758045973
 31
0.0
 12
-31.165395668998251
 22
-8.2892064374961105
 32
0.0
 13
-31.165395668998251
 23
-8.2892064374961105
 33
0.0
210
0.0
220
0.0
230
-1.0
  0
SOLID
  5
126D
  8
SAPA_FOGBAND
  6
CONTINUOUS
 62
     6
 10
31.83181920912995
 20
-8.2270718758045973
 30
0.0
 11
31.78446126059843
 21
-8.2892064374961105
 31
0.0
 12
34.880734698902558
 22
-8.2892064374961105
 32
0.0
 13
34.880734698902558
 23
-8.2892064374961105
 33
0.0
210
0.0
220
0.0
230
1.0
  0
SOLID
  5
126E
  8
SAPA_FOGBAND
  6
CONTINUOUS
 62
     6
 10
-31.83181920912995
 20
-8.2270718758045973
 30
0.0
 11
-34.88204382190311
 21
-8.2270718758045973
 31
0.0
 12
-34.880734698902558
 22
-8.2892064374961105
 32
0.0
 13
-34.880734698902558
 23
-8.2892064374961105
 33
0.0
210
0.0
220
0.0
230
-1.0
  0
SOLID
  5
126F
  8
SAPA_FOGBAND
  6
CONTINUOUS
 62
     6
 10
30.816342338013911
 20
-8.2892064374961105
 30
0.0
 11
30.788931103714919
 21
-8.3370063572599946
 31
0.0
 12
31.248749534224132
 22
-8.3370063572599946
 32
0.0
 13
31.248749534224132
 23
-8.3370063572599946
 33
0.0
210
0.0
220
0.0
230
1.0
  0
SOLID
  5
1270
  8
SAPA_FOGBAND
  6
CONTINUOUS
 62
     6
 10
-30.816342338013911
 20
-8.2892064374961105
 30
0.0
 11
-31.165395668998251
 21
-8.2892064374961105
 31
0.0
 12
-31.248749534224132
 22
-8.3370063572599946
 32
0.0
 13
-31.248749534224132
 23
-8.3370063572599946
 33
0.0
210
0.0
220
0.0
230
-1.0
  0
SOLID
  5
1271
  8
SAPA_FOGBAND
  6
CONTINUOUS
 62
     6
 10
31.78446126059843
 20
-8.2892064374961105
 30
0.0
 11
31.722666060814969
 21
-8.3370063572599946
 31
0.0
 12
34.87972759476142
 22
-8.3370063572599946
 32
0.0
 13
34.87972759476142
 23
-8.3370063572599946
 33
0.0
210
0.0
220
0.0
230
1.0
  0
SOLID
  5
1272
  8
SAPA_FOGBAND
  6
CONTINUOUS
 62
     6
 10
-31.78446126059843
 20
-8.2892064374961105
 30
0.0
 11
-34.880734698902558
 21
-8.2892064374961105
 31
0.0
 12
-34.87972759476142
 22
-8.3370063572599946
 32
0.0
 13
-34.87972759476142
 23
-8.3370063572599946
 33
0.0
210
0.0
220
0.0
230
-1.0
  0
SOLID
  5
1273
  8
SAPA_FOGBAND
  6
CONTINUOUS
 62
     6
 10
30.788931103714919
 20
-8.3370063572599946
 30
0.0
 11
30.67165014604624
 21
-8.5415217871471043
 31
0.0
 12
31.605385103146212
 22
-8.5415217871471043
 32
0.0
 13
31.605385103146212
 23
-8.5415217871471043
 33
0.0
  0
SOLID
  5
1274
  8
SAPA_FOGBAND
  6
CONTINUOUS
 62
     6
 10
-30.788931103714919
 20
-8.3370063572599946
 30
0.0
 11
-31.248749534224132
 21
-8.3370063572599946
 31
0.0
 12
-31.605385103146212
 22
-8.5415217871471043
 32
0.0
 13
-31.605385103146212
 23
-8.5415217871471043
 33
0.0
210
0.0
220
0.0
230
-1.0
  0
SOLID
  5
1275
  8
SAPA_FOGBAND
  6
CONTINUOUS
 62
     6
 10
31.722666060814969
 20
-8.3370063572599946
 30
0.0
 11
31.605385103146212
 21
-8.5415217871471043
 31
0.0
 12
34.87541862651662
 22
-8.5415217871471043
 32
0.0
 13
34.87541862651662
 23
-8.5415217871471043
 33
0.0
210
0.0
220
0.0
230
1.0
  0
SOLID
  5
1276
  8
SAPA_FOGBAND
  6
CONTINUOUS
 62
     6
 10
-31.722666060814969
 20
-8.3370063572599946
 30
0.0
 11
-34.87972759476142
 21
-8.3370063572599946
 31
0.0
 12
-34.87541862651662
 22
-8.5415217871471043
 32
0.0
 13
-34.87541862651662
 23
-8.5415217871471043
 33
0.0
210
0.0
220
0.0
230
-1.0
  0
SOLID
  5
1277
  8
SAPA_FOGBAND
  6
CONTINUOUS
 62
     6
 10
30.67165014604624
 20
-8.5415217871471043
 30
0.0
 11
30.56112567893296
 21
-8.7342551971911462
 31
0.0
 12
34.871357895528988
 22
-8.7342551971911462
 32
0.0
 13
34.871357895528988
 23
-8.7342551971911462
 33
0.0
  0
SOLID
  5
1278
  8
SAPA_FOGBAND
  6
CONTINUOUS
 62
     6
 10
-30.67165014604624
 20
-8.5415217871471043
 30
0.0
 11
-34.87541862651662
 21
-8.5415217871471043
 31
0.0
 12
-34.871357895528988
 22
-8.7342551971911462
 32
0.0
 13
-34.871357895528988
 23
-8.7342551971911462
 33
0.0
210
0.0
220
0.0
230
-1.0
  0
SOLID
  5
1279
  8
SAPA_FOGBAND
  6
CONTINUOUS
 62
     6
 10
30.56112567893296
 20
-8.7342551971911462
 30
0.0
 11
30.547499285678839
 21
-8.7580170058391502
 31
0.0
 12
34.340077074392703
 22
-8.7580170058391502
 32
0.0
 13
34.340077074392703
 23
-8.7580170058391502
 33
0.0
210
0.0
220
0.0
230
1.0
  0
SOLID
  5
127A
  8
SAPA_FOGBAND
  6
CONTINUOUS
 62
     6
 10
-30.56112567893296
 20
-8.7342551971911462
 30
0.0
 11
-34.353703467646831
 21
-8.7342551971911462
 31
0.0
 12
-34.340077074392703
 22
-8.7580170058391502
 32
0.0
 13
-34.340077074392703
 23
-8.7580170058391502
 33
0.0
210
0.0
220
0.0
230
-1.0
  0
SOLID
  5
127B
  8
SAPA_FOGBAND
  6
CONTINUOUS
 62
     6
 10
34.353703467646831
 20
-8.7342551971911462
 30
0.0
 11
34.39513949108278
 21
-8.7580170058391502
 31
0.0
 12
34.87085725418882
 22
-8.7580170058391502
 32
0.0
 13
34.87085725418882
 23
-8.7580170058391502
 33
0.0
210
0.0
220
0.0
230
1.0
  0
SOLID
  5
127C
  8
SAPA_FOGBAND
  6
CONTINUOUS
 62
     6
 10
-34.353703467646831
 20
-8.7342551971911462
 30
0.0
 11
-34.871357895528988
 21
-8.7342551971911462
 31
0.0
 12
-34.87085725418882
 22
-8.7580170058391502
 32
0.0
 13
-34.87085725418882
 23
-8.7580170058391502
 33
0.0
210
0.0
220
0.0
230
-1.0
  0
SOLID
  5
127D
  8
SAPA_FOGBAND
  6
CONTINUOUS
 62
     6
 10
30.547499285678839
 20
-8.7580170058391502
 30
0.0
 11
30.48954063812522
 21
-8.8590857381869093
 31
0.0
 12
34.28211842683907
 22
-8.8590857381869093
 32
0.0
 13
34.28211842683907
 23
-8.8590857381869093
 33
0.0
210
0.0
220
0.0
230
1.0
  0
SOLID
  5
127E
  8
SAPA_FOGBAND
  6
CONTINUOUS
 62
     6
 10
-30.547499285678839
 20
-8.7580170058391502
 30
0.0
 11
-34.340077074392703
 21
-8.7580170058391502
 31
0.0
 12
-34.28211842683907
 22
-8.8590857381869093
 32
0.0
 13
-34.28211842683907
 23
-8.8590857381869093
 33
0.0
210
0.0
220
0.0
230
-1.0
  0
SOLID
  5
127F
  8
SAPA_FOGBAND
  6
CONTINUOUS
 62
     6
 10
34.39513949108278
 20
-8.7580170058391502
 30
0.0
 11
34.571383918611012
 21
-8.8590857381869093
 31
0.0
 12
34.832105315749487
 22
-8.8590857381869093
 32
0.0
 13
34.832105315749487
 23
-8.8590857381869093
 33
0.0
210
0.0
220
0.0
230
1.0
  0
SOLID
  5
1280
  8
SAPA_FOGBAND
  6
CONTINUOUS
 62
     6
 10
-34.39513949108278
 20
-8.7580170058391502
 30
0.0
 11
-34.87085725418882
 21
-8.7580170058391502
 31
0.0
 12
-34.832105315749487
 22
-8.8590857381869093
 32
0.0
 13
-34.832105315749487
 23
-8.8590857381869093
 33
0.0
210
0.0
220
0.0
230
-1.0
  0
SOLID
  5
1281
  8
SAPA_FOGBAND
  6
CONTINUOUS
 62
     6
 10
30.48954063812522
 20
-8.8590857381869093
 30
0.0
 11
30.469837566472521
 21
-8.8934441050458304
 31
0.0
 12
34.262415355186377
 22
-8.8934441050458304
 32
0.0
 13
34.262415355186377
 23
-8.8934441050458304
 33
0.0
210
0.0
220
0.0
230
1.0
  0
SOLID
  5
1282
  8
SAPA_FOGBAND
  6
CONTINUOUS
 62
     6
 10
-30.48954063812522
 20
-8.8590857381869093
 30
0.0
 11
-34.28211842683907
 21
-8.8590857381869093
 31
0.0
 12
-34.262415355186377
 22
-8.8934441050458304
 32
0.0
 13
-34.262415355186377
 23
-8.8934441050458304
 33
0.0
210
0.0
220
0.0
230
-1.0
  0
SOLID
  5
1283
  8
SAPA_FOGBAND
  6
CONTINUOUS
 62
     6
 10
34.571383918611012
 20
-8.8590857381869093
 30
0.0
 11
34.631298301201873
 21
-8.8934441050458304
 31
0.0
 12
34.771328304063651
 22
-8.8934441050458304
 32
0.0
 13
34.771328304063651
 23
-8.8934441050458304
 33
0.0
210
0.0
220
0.0
230
1.0
  0
SOLID
  5
1284
  8
SAPA_FOGBAND
  6
CONTINUOUS
 62
     6
 10
-34.571383918611012
 20
-8.8590857381869093
 30
0.0
 11
-34.832105315749487
 21
-8.8590857381869093
 31
0.0
 12
-34.771328304063651
 22
-8.8934441050458304
 32
0.0
 13
-34.771328304063651
 23
-8.8934441050458304
 33
0.0
210
0.0
220
0.0
230
-1.0
  0
SOLID
  5
1285
  8
SAPA_FOGBAND
  6
CONTINUOUS
 62
     6
 10
30.469837566472521
 20
-8.8934441050458304
 30
0.0
 11
30.45899306294967
 21
-8.9123548331296973
 31
0.0
 12
34.25157085166353
 22
-8.9123548331296973
 32
0.0
 13
34.25157085166353
 23
-8.9123548331296973
 33
0.0
210
0.0
220
0.0
230
1.0
  0
SOLID
  5
1286
  8
SAPA_FOGBAND
  6
CONTINUOUS
 62
     6
 10
-30.469837566472521
 20
-8.8934441050458304
 30
0.0
 11
-34.262415355186377
 21
-8.8934441050458304
 31
0.0
 12
-34.25157085166353
 22
-8.9123548331296973
 32
0.0
 13
-34.25157085166353
 23
-8.9123548331296973
 33
0.0
210
0.0
220
0.0
230
-1.0
  0
SOLID
  5
1287
  8
SAPA_FOGBAND
  6
CONTINUOUS
 62
     6
 10
-34.631298301201873
 20
-8.8934441050458304
 30
0.0
 11
-34.771328304063651
 21
-8.8934441050458304
 31
0.0
 12
-34.737876843857158
 22
-8.9123548331296973
 32
0.0
 13
-34.737876843857158
 23
-8.9123548331296973
 33
0.0
210
0.0
220
0.0
230
-1.0
  0
SOLID
  5
1288
  8
SAPA_FOGBAND
  6
CONTINUOUS
 62
     6
 10
30.45899306294967
 20
-8.9123548331296973
 30
0.0
 11
30.429341955206588
 21
-8.964060661315699
 31
0.0
 12
34.221919743920438
 22
-8.964060661315699
 32
0.0
 13
34.221919743920438
 23
-8.964060661315699
 33
0.0
210
0.0
220
0.0
230
1.0
  0
SOLID
  5
1289
  8
SAPA_FOGBAND
  6
CONTINUOUS
 62
     6
 10
-30.45899306294967
 20
-8.9123548331296973
 30
0.0
 11
-34.25157085166353
 21
-8.9123548331296973
 31
0.0
 12
-34.221919743920438
 22
-8.964060661315699
 32
0.0
 13
-34.221919743920438
 23
-8.964060661315699
 33
0.0
210
0.0
220
0.0
230
-1.0
  0
SOLID
  5
128A
  8
SAPA_FOGBAND
  6
CONTINUOUS
 62
     6
 10
30.429341955206588
 20
-8.964060661315699
 30
0.0
 11
30.40525784366616
 21
-9.0060587189974513
 31
0.0
 12
34.167625126319052
 22
-9.0060587189974513
 32
0.0
 13
34.167625126319052
 23
-9.0060587189974513
 33
0.0
210
0.0
220
0.0
230
1.0
  0
SOLID
  5
128B
  8
SAPA_FOGBAND
  6
CONTINUOUS
 62
     6
 10
-30.429341955206588
 20
-8.964060661315699
 30
0.0
 11
-34.221919743920438
 21
-8.964060661315699
 31
0.0
 12
-34.167625126319052
 22
-9.0060587189974513
 32
0.0
 13
-34.167625126319052
 23
-9.0060587189974513
 33
0.0
210
0.0
220
0.0
230
-1.0
  0
SOLID
  5
128C
  8
SAPA_FOGBAND
  6
CONTINUOUS
 62
     6
 10
30.40525784366616
 20
-9.0060587189974513
 30
0.0
 11
30.415375175085181
 21
-9.0118605810795902
 31
0.0
 12
34.160124544137062
 22
-9.0118605810795902
 32
0.0
 13
34.160124544137062
 23
-9.0118605810795902
 33
0.0
  0
SOLID
  5
128D
  8
SAPA_FOGBAND
  6
CONTINUOUS
 62
     6
 10
-30.40525784366616
 20
-9.0060587189974513
 30
0.0
 11
-34.167625126319052
 21
-9.0060587189974513
 31
0.0
 12
-34.160124544137062
 22
-9.0118605810795902
 32
0.0
 13
-34.160124544137062
 23
-9.0118605810795902
 33
0.0
210
0.0
220
0.0
230
-1.0
  0
SOLID
  5
128E
  8
SAPA_FOGBAND
  6
CONTINUOUS
 62
     6
 10
30.415375175085181
 20
-9.0118605810795902
 30
0.0
 11
30.523725898406159
 21
-9.0739951427710821
 31
0.0
 12
34.112766595605592
 22
-9.0739951427710821
 32
0.0
 13
34.112766595605592
 23
-9.0739951427710821
 33
0.0
210
0.0
220
0.0
230
1.0
  0
SOLID
  5
128F
  8
SAPA_FOGBAND
  6
CONTINUOUS
 62
     6
 10
-30.415375175085181
 20
-9.0118605810795902
 30
0.0
 11
-34.160124544137062
 21
-9.0118605810795902
 31
0.0
 12
-34.112766595605592
 22
-9.0739951427710821
 32
0.0
 13
-34.112766595605592
 23
-9.0739951427710821
 33
0.0
210
0.0
220
0.0
230
-1.0
  0
SOLID
  5
1290
  8
SAPA_FOGBAND
  6
CONTINUOUS
 62
     6
 10
30.523725898406159
 20
-9.0739951427710821
 30
0.0
 11
31.128815887516929
 21
-9.4209886847147573
 31
0.0
 12
33.913780460786988
 22
-9.4209886847147573
 32
0.0
 13
33.913780460786988
 23
-9.4209886847147573
 33
0.0
210
0.0
220
0.0
230
1.0
  0
SOLID
  5
1291
  8
SAPA_FOGBAND
  6
CONTINUOUS
 62
     6
 10
-30.523725898406159
 20
-9.0739951427710821
 30
0.0
 11
-34.112766595605592
 21
-9.0739951427710821
 31
0.0
 12
-33.913780460786988
 22
-9.4209886847147573
 32
0.0
 13
-33.913780460786988
 23
-9.4209886847147573
 33
0.0
210
0.0
220
0.0
230
-1.0
  0
SOLID
  5
1292
  8
SAPA_FOGBAND
  6
CONTINUOUS
 62
     6
 10
31.128815887516929
 20
-9.4209886847147573
 30
0.0
 11
31.254815509273321
 21
-9.4932441439416841
 31
0.0
 12
33.884071410690872
 22
-9.4932441439416841
 32
0.0
 13
33.884071410690872
 23
-9.4932441439416841
 33
0.0
210
0.0
220
0.0
230
1.0
  0
SOLID
  5
1293
  8
SAPA_FOGBAND
  6
CONTINUOUS
 62
     6
 10
-31.128815887516929
 20
-9.4209886847147573
 30
0.0
 11
-33.913780460786988
 21
-9.4209886847147573
 31
0.0
 12
-33.884071410690872
 22
-9.4932441439416841
 32
0.0
 13
-33.884071410690872
 23
-9.4932441439416841
 33
0.0
210
0.0
220
0.0
230
-1.0
  0
SOLID
  5
1294
  8
SAPA_FOGBAND
  6
CONTINUOUS
 62
     6
 10
31.254815509273321
 20
-9.4932441439416841
 30
0.0
 11
31.389919184452239
 21
-9.5707203931336977
 31
0.0
 12
33.874026020860427
 22
-9.5707203931336977
 32
0.0
 13
33.874026020860427
 23
-9.5707203931336977
 33
0.0
  0
SOLID
  5
1295
  8
SAPA_FOGBAND
  6
CONTINUOUS
 62
     6
 10
-31.254815509273321
 20
-9.4932441439416841
 30
0.0
 11
-33.884071410690872
 21
-9.4932441439416841
 31
0.0
 12
-33.874026020860427
 22
-9.5707203931336977
 32
0.0
 13
-33.874026020860427
 23
-9.5707203931336977
 33
0.0
210
0.0
220
0.0
230
-1.0
  0
SOLID
  5
1296
  8
SAPA_FOGBAND
  6
CONTINUOUS
 62
     6
 10
31.389919184452239
 20
-9.5707203931336977
 30
0.0
 11
31.74655475337299
 21
-9.77523582302004
 31
0.0
 12
33.75674506319217
 22
-9.77523582302004
 32
0.0
 13
33.75674506319217
 23
-9.77523582302004
 33
0.0
210
0.0
220
0.0
230
1.0
  0
SOLID
  5
1297
  8
SAPA_FOGBAND
  6
CONTINUOUS
 62
     6
 10
-31.389919184452239
 20
-9.5707203931336977
 30
0.0
 11
-33.874026020860427
 21
-9.5707203931336977
 31
0.0
 12
-33.75674506319217
 22
-9.77523582302004
 32
0.0
 13
-33.75674506319217
 23
-9.77523582302004
 33
0.0
210
0.0
220
0.0
230
-1.0
  0
SOLID
  5
1298
  8
SAPA_FOGBAND
  6
CONTINUOUS
 62
     6
 10
31.74655475337299
 20
-9.77523582302004
 30
0.0
 11
39.042093972723038
 21
-13.95891930757335
 31
0.0
 12
41.052284282542523
 22
-13.95891930757335
 32
0.0
 13
41.052284282542523
 23
-13.95891930757335
 33
0.0
210
0.0
220
0.0
230
1.0
  0
SOLID
  5
1299
  8
SAPA_FOGBAND
  6
CONTINUOUS
 62
     6
 10
-31.74655475337299
 20
-9.77523582302004
 30
0.0
 11
-33.75674506319217
 21
-9.77523582302004
 31
0.0
 12
-41.052284282542523
 22
-13.95891930757335
 32
0.0
 13
-41.052284282542523
 23
-13.95891930757335
 33
0.0
210
0.0
220
0.0
230
-1.0
  0
SOLID
  5
129A
  8
SAPA_FOGBAND
  6
CONTINUOUS
 62
     6
 10
-39.042093972723038
 20
-13.95891930757335
 30
0.0
 11
-41.052284282542523
 21
-13.95891930757335
 31
0.0
 12
-40.554818945496883
 22
-14.826403162430781
 32
0.0
 13
-40.554818945496883
 23
-14.826403162430781
 33
0.0
210
0.0
220
0.0
230
-1.0
  0
LINE
  5
129B
  8
SAPA_FOGBAND
  6
CONTINUOUS
 62
     6
 10
33.167853036364178
 20
-6.3795105090242341
 30
0.0
 11
32.949075658037557
 21
-6.4430648378016988
 31
0.0
  0
LINE
  5
129C
  8
SAPA_FOGBAND
  6
CONTINUOUS
 62
     6
 10
33.413797487559812
 20
-6.4430648378016988
 30
0.0
 11
33.167853036364178
 21
-6.3795105090242341
 31
0.0
  0
LINE
  5
129D
  8
SAPA_FOGBAND
  6
CONTINUOUS
 62
     6
 10
32.949075658037557
 20
-6.4430648378016988
 30
0.0
 11
32.923914182087351
 21
-6.4503741891034556
 31
0.0
  0
LINE
  5
129E
  8
SAPA_FOGBAND
  6
CONTINUOUS
 62
     6
 10
33.413797487559812
 20
-6.4430648378016988
 30
0.0
 11
33.426543590195642
 21
-6.4503741891034556
 31
0.0
  0
LINE
  5
129F
  8
SAPA_FOGBAND
  6
CONTINUOUS
 62
     6
 10
32.923914182087351
 20
-6.4503741891034556
 30
0.0
 11
31.92064314674343
 21
-7.0661938703429987
 31
0.0
  0
LINE
  5
12A0
  8
SAPA_FOGBAND
  6
CONTINUOUS
 62
     6
 10
33.426543590195642
 20
-6.4503741891034556
 30
0.0
 11
34.500414654562363
 21
-7.0661938703429987
 31
0.0
  0
LINE
  5
12A1
  8
SAPA_FOGBAND
  6
CONTINUOUS
 62
     6
 10
31.92064314674343
 20
-7.0661938703429987
 30
0.0
 11
31.852984026352161
 21
-7.1506855552539079
 31
0.0
  0
LINE
  5
12A2
  8
SAPA_FOGBAND
  6
CONTINUOUS
 62
     6
 10
34.500414654562363
 20
-7.0661938703429987
 30
0.0
 11
34.647751900138502
 21
-7.1506855552539079
 31
0.0
  0
LINE
  5
12A3
  8
SAPA_FOGBAND
  6
CONTINUOUS
 62
     6
 10
31.852984026352161
 20
-7.1506855552539079
 30
0.0
 11
31.853042142773479
 21
-7.1545806019415741
 31
0.0
  0
LINE
  5
12A4
  8
SAPA_FOGBAND
  6
CONTINUOUS
 62
     6
 10
34.647751900138502
 20
-7.1506855552539079
 30
0.0
 11
34.65454411230656
 21
-7.1545806019415741
 31
0.0
  0
LINE
  5
12A5
  8
SAPA_FOGBAND
  6
CONTINUOUS
 62
     6
 10
31.853042142773479
 20
-7.1545806019415741
 30
0.0
 11
31.85459890051682
 21
-7.2589167595003579
 31
0.0
  0
LINE
  5
12A6
  8
SAPA_FOGBAND
  6
CONTINUOUS
 62
     6
 10
34.65454411230656
 20
-7.1545806019415741
 30
0.0
 11
34.758240925000777
 21
-7.2589167595003579
 31
0.0
  0
LINE
  5
12A7
  8
SAPA_FOGBAND
  6
CONTINUOUS
 62
     6
 10
31.85459890051682
 20
-7.2589167595003579
 30
0.0
 11
31.919133244165479
 21
-7.3347533620803489
 31
0.0
  0
LINE
  5
12A8
  8
SAPA_FOGBAND
  6
CONTINUOUS
 62
     6
 10
34.758240925000777
 20
-7.2589167595003579
 30
0.0
 11
34.833612820584278
 21
-7.3347533620803489
 31
0.0
  0
LINE
  5
12A9
  8
SAPA_FOGBAND
  6
CONTINUOUS
 62
     6
 10
31.919133244165479
 20
-7.3347533620803489
 30
0.0
 11
31.924748674046612
 21
-7.3413522534633548
 31
0.0
  0
LINE
  5
12AA
  8
SAPA_FOGBAND
  6
CONTINUOUS
 62
     6
 10
34.833612820584278
 20
-7.3347533620803489
 30
0.0
 11
34.835274834560252
 21
-7.3413522534633548
 31
0.0
  0
LINE
  5
12AB
  8
SAPA_FOGBAND
  6
CONTINUOUS
 62
     6
 10
31.924748674046612
 20
-7.3413522534633548
 30
0.0
 11
32.202343507601043
 21
-7.5005411613183517
 31
0.0
  0
LINE
  5
12AC
  8
SAPA_FOGBAND
  6
CONTINUOUS
 62
     6
 10
34.835274834560252
 20
-7.3413522534633548
 30
0.0
 11
34.875368567631092
 21
-7.5005411613183517
 31
0.0
  0
LINE
  5
12AD
  8
SAPA_FOGBAND
  6
CONTINUOUS
 62
     6
 10
32.202343507601043
 20
-7.5005411613183517
 30
0.0
 11
32.156155704619572
 21
-7.5810838049841598
 31
0.0
  0
LINE
  5
12AE
  8
SAPA_FOGBAND
  6
CONTINUOUS
 62
     6
 10
34.875368567631092
 20
-7.5005411613183517
 30
0.0
 11
34.895654247704329
 21
-7.5810838049841598
 31
0.0
  0
LINE
  5
12AF
  8
SAPA_FOGBAND
  6
CONTINUOUS
 62
     6
 10
32.156155704619572
 20
-7.5810838049841598
 30
0.0
 11
32.070559783874707
 21
-7.7303466254427766
 31
0.0
  0
LINE
  5
12B0
  8
SAPA_FOGBAND
  6
CONTINUOUS
 62
     6
 10
34.895654247704329
 20
-7.5810838049841598
 30
0.0
 11
34.892509405509102
 21
-7.7303466254427766
 31
0.0
  0
LINE
  5
12B1
  8
SAPA_FOGBAND
  6
CONTINUOUS
 62
     6
 10
32.070559783874707
 20
-7.7303466254427766
 30
0.0
 11
32.060514394044297
 21
-7.8078228746347431
 31
0.0
  0
LINE
  5
12B2
  8
SAPA_FOGBAND
  6
CONTINUOUS
 62
     6
 10
34.892509405509102
 20
-7.7303466254427766
 30
0.0
 11
34.890877046045183
 21
-7.8078228746347431
 31
0.0
  0
LINE
  5
12B3
  8
SAPA_FOGBAND
  6
CONTINUOUS
 62
     6
 10
32.060514394044297
 20
-7.8078228746347431
 30
0.0
 11
32.030805343948202
 21
-7.8800783338616318
 31
0.0
  0
LINE
  5
12B4
  8
SAPA_FOGBAND
  6
CONTINUOUS
 62
     6
 10
34.890877046045183
 20
-7.8078228746347431
 30
0.0
 11
34.889354684238569
 21
-7.8800783338616318
 31
0.0
  0
LINE
  5
12B5
  8
SAPA_FOGBAND
  6
CONTINUOUS
 62
     6
 10
32.030805343948202
 20
-7.8800783338616318
 30
0.0
 11
31.8825685060635
 21
-8.1385748641400824
 31
0.0
  0
LINE
  5
12B6
  8
SAPA_FOGBAND
  6
CONTINUOUS
 62
     6
 10
34.889354684238569
 20
-7.8800783338616318
 30
0.0
 11
34.883908379571118
 21
-8.1385748641400824
 31
0.0
  0
LINE
  5
12B7
  8
SAPA_FOGBAND
  6
CONTINUOUS
 62
     6
 10
30.902723180711629
 20
-8.1385748641400824
 30
0.0
 11
30.85197388377809
 21
-8.2270718758045973
 31
0.0
  0
LINE
  5
12B8
  8
SAPA_FOGBAND
  6
CONTINUOUS
 62
     6
 10
31.05704494567723
 20
-8.2270718758045973
 30
0.0
 11
30.902723180711629
 21
-8.1385748641400824
 31
0.0
  0
LINE
  5
12B9
  8
SAPA_FOGBAND
  6
CONTINUOUS
 62
     6
 10
31.8825685060635
 20
-8.1385748641400824
 30
0.0
 11
31.83181920912995
 21
-8.2270718758045973
 31
0.0
  0
LINE
  5
12BA
  8
SAPA_FOGBAND
  6
CONTINUOUS
 62
     6
 10
34.883908379571118
 20
-8.1385748641400824
 30
0.0
 11
34.88204382190311
 21
-8.2270718758045973
 31
0.0
  0
LINE
  5
12BB
  8
SAPA_FOGBAND
  6
CONTINUOUS
 62
     6
 10
30.85197388377809
 20
-8.2270718758045973
 30
0.0
 11
30.816342338013911
 21
-8.2892064374961105
 31
0.0
  0
LINE
  5
12BC
  8
SAPA_FOGBAND
  6
CONTINUOUS
 62
     6
 10
31.05704494567723
 20
-8.2270718758045973
 30
0.0
 11
31.165395668998251
 21
-8.2892064374961105
 31
0.0
  0
LINE
  5
12BD
  8
SAPA_FOGBAND
  6
CONTINUOUS
 62
     6
 10
31.83181920912995
 20
-8.2270718758045973
 30
0.0
 11
31.78446126059843
 21
-8.2892064374961105
 31
0.0
  0
LINE
  5
12BE
  8
SAPA_FOGBAND
  6
CONTINUOUS
 62
     6
 10
34.88204382190311
 20
-8.2270718758045973
 30
0.0
 11
34.880734698902558
 21
-8.2892064374961105
 31
0.0
  0
LINE
  5
12BF
  8
SAPA_FOGBAND
  6
CONTINUOUS
 62
     6
 10
30.816342338013911
 20
-8.2892064374961105
 30
0.0
 11
30.788931103714919
 21
-8.3370063572599946
 31
0.0
  0
LINE
  5
12C0
  8
SAPA_FOGBAND
  6
CONTINUOUS
 62
     6
 10
31.165395668998251
 20
-8.2892064374961105
 30
0.0
 11
31.248749534224132
 21
-8.3370063572599946
 31
0.0
  0
LINE
  5
12C1
  8
SAPA_FOGBAND
  6
CONTINUOUS
 62
     6
 10
31.78446126059843
 20
-8.2892064374961105
 30
0.0
 11
31.722666060814969
 21
-8.3370063572599946
 31
0.0
  0
LINE
  5
12C2
  8
SAPA_FOGBAND
  6
CONTINUOUS
 62
     6
 10
34.880734698902558
 20
-8.2892064374961105
 30
0.0
 11
34.87972759476142
 21
-8.3370063572599946
 31
0.0
  0
LINE
  5
12C3
  8
SAPA_FOGBAND
  6
CONTINUOUS
 62
     6
 10
30.788931103714919
 20
-8.3370063572599946
 30
0.0
 11
30.67165014604624
 21
-8.5415217871471043
 31
0.0
  0
LINE
  5
12C4
  8
SAPA_FOGBAND
  6
CONTINUOUS
 62
     6
 10
34.87972759476142
 20
-8.3370063572599946
 30
0.0
 11
34.87541862651662
 21
-8.5415217871471043
 31
0.0
  0
LINE
  5
12C5
  8
SAPA_FOGBAND
  6
CONTINUOUS
 62
     6
 10
30.67165014604624
 20
-8.5415217871471043
 30
0.0
 11
30.56112567893296
 21
-8.7342551971911462
 31
0.0
  0
LINE
  5
12C6
  8
SAPA_FOGBAND
  6
CONTINUOUS
 62
     6
 10
34.87541862651662
 20
-8.5415217871471043
 30
0.0
 11
34.871357895528988
 21
-8.7342551971911462
 31
0.0
  0
LINE
  5
12C7
  8
SAPA_FOGBAND
  6
CONTINUOUS
 62
     6
 10
30.56112567893296
 20
-8.7342551971911462
 30
0.0
 11
30.547499285678839
 21
-8.7580170058391502
 31
0.0
  0
LINE
  5
12C8
  8
SAPA_FOGBAND
  6
CONTINUOUS
 62
     6
 10
34.871357895528988
 20
-8.7342551971911462
 30
0.0
 11
34.87085725418882
 21
-8.7580170058391502
 31
0.0
  0
LINE
  5
12C9
  8
SAPA_FOGBAND
  6
CONTINUOUS
 62
     6
 10
30.547499285678839
 20
-8.7580170058391502
 30
0.0
 11
30.48954063812522
 21
-8.8590857381869093
 31
0.0
  0
LINE
  5
12CA
  8
SAPA_FOGBAND
  6
CONTINUOUS
 62
     6
 10
34.340077074392703
 20
-8.7580170058391502
 30
0.0
 11
34.28211842683907
 21
-8.8590857381869093
 31
0.0
  0
LINE
  5
12CB
  8
SAPA_FOGBAND
  6
CONTINUOUS
 62
     6
 10
34.39513949108278
 20
-8.7580170058391502
 30
0.0
 11
34.571383918611012
 21
-8.8590857381869093
 31
0.0
  0
LINE
  5
12CC
  8
SAPA_FOGBAND
  6
CONTINUOUS
 62
     6
 10
34.87085725418882
 20
-8.7580170058391502
 30
0.0
 11
34.832105315749487
 21
-8.8590857381869093
 31
0.0
  0
LINE
  5
12CD
  8
SAPA_FOGBAND
  6
CONTINUOUS
 62
     6
 10
30.48954063812522
 20
-8.8590857381869093
 30
0.0
 11
30.469837566472521
 21
-8.8934441050458304
 31
0.0
  0
LINE
  5
12CE
  8
SAPA_FOGBAND
  6
CONTINUOUS
 62
     6
 10
34.28211842683907
 20
-8.8590857381869093
 30
0.0
 11
34.262415355186377
 21
-8.8934441050458304
 31
0.0
  0
LINE
  5
12CF
  8
SAPA_FOGBAND
  6
CONTINUOUS
 62
     6
 10
34.571383918611012
 20
-8.8590857381869093
 30
0.0
 11
34.631298301201873
 21
-8.8934441050458304
 31
0.0
  0
LINE
  5
12D0
  8
SAPA_FOGBAND
  6
CONTINUOUS
 62
     6
 10
34.832105315749487
 20
-8.8590857381869093
 30
0.0
 11
34.771328304063651
 21
-8.8934441050458304
 31
0.0
  0
LINE
  5
12D1
  8
SAPA_FOGBAND
  6
CONTINUOUS
 62
     6
 10
30.469837566472521
 20
-8.8934441050458304
 30
0.0
 11
30.45899306294967
 21
-8.9123548331296973
 31
0.0
  0
LINE
  5
12D2
  8
SAPA_FOGBAND
  6
CONTINUOUS
 62
     6
 10
34.262415355186377
 20
-8.8934441050458304
 30
0.0
 11
34.25157085166353
 21
-8.9123548331296973
 31
0.0
  0
LINE
  5
12D3
  8
SAPA_FOGBAND
  6
CONTINUOUS
 62
     6
 10
34.771328304063651
 20
-8.8934441050458304
 30
0.0
 11
34.737876843857158
 21
-8.9123548331296973
 31
0.0
  0
LINE
  5
12D4
  8
SAPA_FOGBAND
  6
CONTINUOUS
 62
     6
 10
34.737876843857158
 20
-8.9123548331296973
 30
0.0
 11
34.631298301201873
 21
-8.8934441050458304
 31
0.0
  0
LINE
  5
12D5
  8
SAPA_FOGBAND
  6
CONTINUOUS
 62
     6
 10
30.45899306294967
 20
-8.9123548331296973
 30
0.0
 11
30.429341955206588
 21
-8.964060661315699
 31
0.0
  0
LINE
  5
12D6
  8
SAPA_FOGBAND
  6
CONTINUOUS
 62
     6
 10
34.25157085166353
 20
-8.9123548331296973
 30
0.0
 11
34.221919743920438
 21
-8.964060661315699
 31
0.0
  0
LINE
  5
12D7
  8
SAPA_FOGBAND
  6
CONTINUOUS
 62
     6
 10
30.429341955206588
 20
-8.964060661315699
 30
0.0
 11
30.40525784366616
 21
-9.0060587189974513
 31
0.0
  0
LINE
  5
12D8
  8
SAPA_FOGBAND
  6
CONTINUOUS
 62
     6
 10
34.221919743920438
 20
-8.964060661315699
 30
0.0
 11
34.167625126319052
 21
-9.0060587189974513
 31
0.0
  0
LINE
  5
12D9
  8
SAPA_FOGBAND
  6
CONTINUOUS
 62
     6
 10
30.40525784366616
 20
-9.0060587189974513
 30
0.0
 11
30.415375175085181
 21
-9.0118605810795902
 31
0.0
  0
LINE
  5
12DA
  8
SAPA_FOGBAND
  6
CONTINUOUS
 62
     6
 10
34.167625126319052
 20
-9.0060587189974513
 30
0.0
 11
34.160124544137062
 21
-9.0118605810795902
 31
0.0
  0
LINE
  5
12DB
  8
SAPA_FOGBAND
  6
CONTINUOUS
 62
     6
 10
30.415375175085181
 20
-9.0118605810795902
 30
0.0
 11
30.523725898406159
 21
-9.0739951427710821
 31
0.0
  0
LINE
  5
12DC
  8
SAPA_FOGBAND
  6
CONTINUOUS
 62
     6
 10
34.160124544137062
 20
-9.0118605810795902
 30
0.0
 11
34.112766595605592
 21
-9.0739951427710821
 31
0.0
  0
LINE
  5
12DD
  8
SAPA_FOGBAND
  6
CONTINUOUS
 62
     6
 10
30.523725898406159
 20
-9.0739951427710821
 30
0.0
 11
31.128815887516929
 21
-9.4209886847147573
 31
0.0
  0
LINE
  5
12DE
  8
SAPA_FOGBAND
  6
CONTINUOUS
 62
     6
 10
34.112766595605592
 20
-9.0739951427710821
 30
0.0
 11
33.913780460786988
 21
-9.4209886847147573
 31
0.0
  0
LINE
  5
12DF
  8
SAPA_FOGBAND
  6
CONTINUOUS
 62
     6
 10
31.128815887516929
 20
-9.4209886847147573
 30
0.0
 11
31.254815509273321
 21
-9.4932441439416841
 31
0.0
  0
LINE
  5
12E0
  8
SAPA_FOGBAND
  6
CONTINUOUS
 62
     6
 10
33.913780460786988
 20
-9.4209886847147573
 30
0.0
 11
33.884071410690872
 21
-9.4932441439416841
 31
0.0
  0
LINE
  5
12E1
  8
SAPA_FOGBAND
  6
CONTINUOUS
 62
     6
 10
31.254815509273321
 20
-9.4932441439416841
 30
0.0
 11
31.389919184452239
 21
-9.5707203931336977
 31
0.0
  0
LINE
  5
12E2
  8
SAPA_FOGBAND
  6
CONTINUOUS
 62
     6
 10
33.884071410690872
 20
-9.4932441439416841
 30
0.0
 11
33.874026020860427
 21
-9.5707203931336977
 31
0.0
  0
LINE
  5
12E3
  8
SAPA_FOGBAND
  6
CONTINUOUS
 62
     6
 10
31.389919184452239
 20
-9.5707203931336977
 30
0.0
 11
31.74655475337299
 21
-9.77523582302004
 31
0.0
  0
LINE
  5
12E4
  8
SAPA_FOGBAND
  6
CONTINUOUS
 62
     6
 10
33.874026020860427
 20
-9.5707203931336977
 30
0.0
 11
33.75674506319217
 21
-9.77523582302004
 31
0.0
  0
LINE
  5
12E5
  8
SAPA_FOGBAND
  6
CONTINUOUS
 62
     6
 10
31.74655475337299
 20
-9.77523582302004
 30
0.0
 11
39.042093972723038
 21
-13.95891930757335
 31
0.0
  0
LINE
  5
12E6
  8
SAPA_FOGBAND
  6
CONTINUOUS
 62
     6
 10
33.75674506319217
 20
-9.77523582302004
 30
0.0
 11
41.052284282542523
 21
-13.95891930757335
 31
0.0
  0
LINE
  5
12E7
  8
SAPA_FOGBAND
  6
CONTINUOUS
 62
     6
 10
41.052284282542523
 20
-13.95891930757335
 30
0.0
 11
40.554818945496883
 21
-14.826403162430781
 31
0.0
  0
LINE
  5
12E8
  8
SAPA_FOGBAND
  6
CONTINUOUS
 62
     6
 10
40.554818945496883
 20
-14.826403162430781
 30
0.0
 11
39.042093972723038
 21
-13.95891930757335
 31
0.0
  0
ENDBLK
  5
12EA
  8
0
  0
BLOCK
  8
0
  2
*X59
 70
     1
 10
0.0
 20
0.0
 30
0.0
  3
*X59
  1

  0
LINE
  5
12EC
  8
0
 62
     0
 10
22.055907561184139
 20
0.3124394010020239
 30
0.0
 11
23.18962108980935
 21
0.7903885106867392
 31
0.0
  0
LINE
  5
12ED
  8
0
 62
     0
 10
21.26589294470244
 20
0.840789160390699
 30
0.0
 11
22.979710299095359
 21
1.5632974995895941
 31
0.0
  0
LINE
  5
12EE
  8
0
 62
     0
 10
21.688956580248089
 20
1.8805464807683441
 30
0.0
 11
22.46459093725775
 21
2.2075371543498359
 31
0.0
  0
ENDBLK
  5
12F0
  8
0
  0
BLOCK
  8
0
  2
*X60
 70
     1
 10
0.0
 20
0.0
 30
0.0
  3
*X60
  1

  0
LINE
  5
12F2
  8
0
 62
     0
 10
21.421462165657939
 20
1.6496814893528431
 30
0.0
 11
21.671204869553829
 21
1.7549676131958161
 31
0.0
  0
LINE
  5
12F3
  8
0
 62
     0
 10
20.38170484528024
 20
2.0727451248985171
 30
0.0
 11
22.094268505099588
 21
2.7947249335735189
 31
0.0
  0
LINE
  5
12F4
  8
0
 62
     0
 10
19.993903679315849
 20
2.7706593780716839
 30
0.0
 11
21.865375986232099
 21
3.5596316363236151
 31
0.0
  0
ENDBLK
  5
12F6
  8
0
  0
BLOCK
  8
0
  2
*X61
 70
     1
 10
0.0
 20
0.0
 30
0.0
  3
*X61
  1

  0
LINE
  5
12F8
  8
0
 62
     0
 10
20.114427705382809
 20
0.2372611831334552
 30
0.0
 11
21.248141234008191
 21
0.7152102928182558
 31
0.0
  0
LINE
  5
12F9
  8
0
 62
     0
 10
19.707644811264849
 20
0.9271731501539193
 30
0.0
 11
21.421462165657939
 21
1.6496814893528431
 31
0.0
  0
LINE
  5
12FA
  8
0
 62
     0
 10
19.606070488270571
 20
1.7457544513169969
 30
0.0
 11
20.38170484528024
 21
2.0727451248985171
 31
0.0
  0
ENDBLK
  5
12FC
  8
0
  0
BLOCK
  8
0
  2
*X62
 70
     1
 10
0.0
 20
0.0
 30
0.0
  3
*X62
  1

  0
LINE
  5
12FE
  8
0
 62
     0
 10
34.459718832580677
 20
-10.079889035343109
 30
0.0
 11
36.067121493665702
 21
-9.5858472464447573
 31
0.0
  0
LINE
  5
12FF
  8
0
 62
     0
 10
35.245796764707052
 20
-9.007889273049642
 30
0.0
 11
36.645208752057052
 21
-8.5777742692773131
 31
0.0
  0
LINE
  5
1300
  8
0
 62
     0
 10
33.972331856218261
 20
-9.3992939264825281
 30
0.0
 11
34.825703597642189
 21
-9.1370066278887805
 31
0.0
  0
LINE
  5
1301
  8
0
 62
     0
 10
35.747912867933451
 20
-8.0231663414625132
 30
0.0
 11
37.22329601044823
 21
-7.5697012921098974
 31
0.0
  0
LINE
  5
1302
  8
0
 62
     0
 10
35.574325844359407
 20
-7.246123532355397
 30
0.0
 11
36.997294017825539
 21
-6.808768438336755
 31
0.0
  0
LINE
  5
1303
  8
0
 62
     0
 10
29.930064193886491
 20
-8.9809104593148561
 30
0.0
 11
30.384499735884511
 21
-8.8412378349357539
 31
0.0
  0
LINE
  5
1304
  8
0
 62
     0
 10
34.745786255501343
 20
-6.6703830756893288
 30
0.0
 11
36.054532519193913
 21
-6.2681345532859316
 31
0.0
  0
LINE
  5
1305
  8
0
 62
     0
 10
28.987302695254812
 20
-8.4402765742640611
 30
0.0
 11
31.983397682805219
 21
-7.5194145132545884
 31
0.0
  0
LINE
  5
1306
  8
0
 62
     0
 10
30.141262265316868
 20
-7.255206884373222
 30
0.0
 11
31.5406742526668
 21
-6.8250918806009224
 31
0.0
  0
LINE
  5
1307
  8
0
 62
     0
 10
33.803024756869831
 20
-6.1297491906385337
 30
0.0
 11
35.11177102056223
 21
-5.727500668235165
 31
0.0
  0
LINE
  5
1308
  8
0
 62
     0
 10
28.044541196623239
 20
-7.8996426892132368
 30
0.0
 11
29.746618140713451
 21
-7.3765023718186171
 31
0.0
  0
LINE
  5
1309
  8
0
 62
     0
 10
30.71934952370793
 20
-6.2471339072058916
 30
0.0
 11
34.169009521930597
 21
-5.1868667831843993
 31
0.0
  0
LINE
  5
130A
  8
0
 62
     0
 10
27.10177969799167
 20
-7.3590088041624417
 30
0.0
 11
28.803149840791828
 21
-6.836085725038088
 31
0.0
  0
LINE
  5
130B
  8
0
 62
     0
 10
31.4436208312685
 20
-5.194130664020804
 30
0.0
 11
33.028142299790829
 21
-4.7071215033365661
 31
0.0
  0
LINE
  5
130C
  8
0
 62
     0
 10
26.159018199360052
 20
-6.818374919111676
 30
0.0
 11
27.86038834216026
 21
-6.295451839987293
 31
0.0
  0
LINE
  5
130D
  8
0
 62
     0
 10
25.216256700728479
 20
-6.2777410340608517
 30
0.0
 11
26.917626843528641
 21
-5.7548179549364704
 31
0.0
  0
LINE
  5
130E
  8
0
 62
     0
 10
24.27349520209685
 20
-5.7371071490100567
 30
0.0
 11
25.974865344897069
 21
-5.2141840698856754
 31
0.0
  0
LINE
  5
130F
  8
0
 62
     0
 10
23.330733703465292
 20
-5.1964732639592341
 30
0.0
 11
25.0321038462655
 21
-4.6735501848348511
 31
0.0
  0
LINE
  5
1310
  8
0
 62
     0
 10
22.397364554037271
 20
-4.6529526019266418
 30
0.0
 11
24.089342347633821
 21
-4.1329162997840854
 31
0.0
  0
LINE
  5
1311
  8
0
 62
     0
 10
21.855731877585072
 20
-3.98903013108088
 30
0.0
 11
23.14827908166399
 21
-3.5917604559717802
 31
0.0
  0
LINE
  5
1312
  8
0
 62
     0
 10
21.670267561273931
 20
-3.2156378565243808
 30
0.0
 11
22.921390845874551
 21
-2.8310999926644049
 31
0.0
  0
LINE
  5
1313
  8
0
 62
     0
 10
21.52592698858723
 20
-2.4296060309964949
 30
0.0
 11
22.77705027318785
 21
-2.045068167136491
 31
0.0
  0
LINE
  5
1314
  8
0
 62
     0
 10
21.381586415900468
 20
-1.6435742054685529
 30
0.0
 11
22.632709700501088
 21
-1.259036341608549
 31
0.0
  0
LINE
  5
1315
  8
0
 62
     0
 10
20.296453246858619
 20
-1.1466988362151931
 30
0.0
 11
22.92586873531474
 21
-0.338537220508357
 31
0.0
  0
LINE
  5
1316
  8
0
 62
     0
 10
20.74877720160509
 20
-0.1772797253219949
 30
0.0
 11
22.007152351077309
 21
0.2094870288968025
 31
0.0
  0
ENDBLK
  5
1318
  8
0
  0
BLOCK
  8
0
  2
*X63
 70
     1
 10
0.0
 20
0.0
 30
0.0
  3
*X63
  1

  0
LINE
  5
132E
  8
0
 62
     0
 10
19.483023046144861
 20
-2.336725253474583
 30
0.0
 11
19.85485809114175
 21
-1.9648902084776401
 31
0.0
  0
LINE
  5
132F
  8
0
 62
     0
 10
18.360491031011179
 20
-2.3367252534745262
 30
0.0
 11
19.794498253062379
 21
-0.9027180314233191
 31
0.0
  0
LINE
  5
1330
  8
0
 62
     0
 10
17.23795901587761
 20
-2.3367252534745262
 30
0.0
 11
19.309875605219808
 21
-0.2648086641323175
 31
0.0
  0
LINE
  5
1331
  8
0
 62
     0
 10
17.193664654678969
 20
-1.258487599539478
 30
0.0
 11
19.093776265817041
 21
0.6416240115985943
 31
0.0
  0
LINE
  5
1332
  8
0
 62
     0
 10
17.193664654678908
 20
-0.1359555844059059
 30
0.0
 11
17.992894985606078
 21
0.6632747465212674
 31
0.0
  0
ENDBLK
  5
1334
  8
0
  0
BLOCK
  8
0
  2
*X64
 70
     1
 10
0.0
 20
0.0
 30
0.0
  3
*X64
  1

  0
LINE
  5
1336
  8
0
 62
     0
 10
38.99493458087818
 20
2.0632747465253942
 30
0.0
 11
39.193664654678862
 21
2.262004820326069
 31
0.0
  0
LINE
  5
1337
  8
0
 62
     0
 10
37.893664654678837
 20
2.0845368354596872
 30
0.0
 11
39.193664654678912
 21
3.3845368354597549
 31
0.0
  0
LINE
  5
1338
  8
0
 62
     0
 10
37.749870550611028
 20
3.063274746525507
 30
0.0
 11
39.193664654678969
 21
4.5070688505933836
 31
0.0
  0
LINE
  5
1339
  8
0
 62
     0
 10
37.893664654679021
 20
4.329600865727115
 30
0.0
 11
39.193664654678912
 21
5.6296008657270127
 31
0.0
  0
LINE
  5
133A
  8
0
 62
     0
 10
36.693664654678969
 20
3.12960086572707
 30
0.0
 11
37.827338535477338
 21
4.2632747465254388
 31
0.0
  0
LINE
  5
133B
  8
0
 62
     0
 10
37.893664654678958
 20
5.4521328808606881
 30
0.0
 11
39.104806520343693
 21
6.6632747465254161
 31
0.0
  0
LINE
  5
133C
  8
0
 62
     0
 10
36.693664654678912
 20
4.2521328808606418
 30
0.0
 11
36.704806520343773
 21
4.2632747465254957
 31
0.0
  0
LINE
  5
133D
  8
0
 62
     0
 10
36.782274505210133
 20
5.4632747465254852
 30
0.0
 11
37.982274505210107
 21
6.6632747465254729
 31
0.0
  0
LINE
  5
133E
  8
0
 62
     0
 10
35.659742490076439
 20
5.4632747465254283
 30
0.0
 11
36.859742490076428
 21
6.6632747465254161
 31
0.0
  0
LINE
  5
133F
  8
0
 62
     0
 10
34.537210474942754
 20
5.4632747465254852
 30
0.0
 11
35.737210474942692
 21
6.6632747465254161
 31
0.0
  0
LINE
  5
1340
  8
0
 62
     0
 10
33.414678459809132
 20
5.4632747465254852
 30
0.0
 11
34.614678459809113
 21
6.6632747465254729
 31
0.0
  0
LINE
  5
1341
  8
0
 62
     0
 10
32.292146444675502
 20
5.4632747465254852
 30
0.0
 11
33.492146444675427
 21
6.6632747465254161
 31
0.0
  0
LINE
  5
1342
  8
0
 62
     0
 10
31.169614429541809
 20
5.4632747465254283
 30
0.0
 11
32.369614429541798
 21
6.6632747465254161
 31
0.0
  0
LINE
  5
1343
  8
0
 62
     0
 10
30.047082414408241
 20
5.4632747465254852
 30
0.0
 11
31.247082414408229
 21
6.6632747465254729
 31
0.0
  0
LINE
  5
1344
  8
0
 62
     0
 10
28.924550399274551
 20
5.4632747465254283
 30
0.0
 11
30.12455039927454
 21
6.6632747465254161
 31
0.0
  0
LINE
  5
1345
  8
0
 62
     0
 10
24.12455039927039
 20
0.6632747465212674
 30
0.0
 11
24.793664654678992
 21
1.3323890019298681
 31
0.0
  0
LINE
  5
1346
  8
0
 62
     0
 10
27.802018384140862
 20
5.4632747465253706
 30
0.0
 11
29.002018384140971
 21
6.6632747465254729
 31
0.0
  0
LINE
  5
1347
  8
0
 62
     0
 10
23.275748220844381
 20
0.9370045832288838
 30
0.0
 11
24.793664654678992
 21
2.454921017063497
 31
0.0
  0
LINE
  5
1348
  8
0
 62
     0
 10
26.679486369007289
 20
5.4632747465254283
 30
0.0
 11
27.879486369007282
 21
6.6632747465254161
 31
0.0
  0
LINE
  5
1349
  8
0
 62
     0
 10
22.981363435392609
 20
1.765151812910744
 30
0.0
 11
24.793664654678992
 21
3.5774530321971261
 31
0.0
  0
LINE
  5
134A
  8
0
 62
     0
 10
25.556954353873611
 20
5.4632747465254852
 30
0.0
 11
26.756954353873599
 21
6.6632747465254729
 31
0.0
  0
LINE
  5
134B
  8
0
 62
     0
 10
22.44409166248948
 20
2.3504120551413621
 30
0.0
 11
24.356954353873618
 21
4.2632747465254957
 31
0.0
  0
LINE
  5
134C
  8
0
 62
     0
 10
24.434422338739981
 20
5.4632747465254852
 30
0.0
 11
25.63442233873997
 21
6.6632747465254729
 31
0.0
  0
LINE
  5
134D
  8
0
 62
     0
 10
21.677843658933568
 20
2.7066960667190751
 30
0.0
 11
23.393664654678961
 21
4.4225170624644639
 31
0.0
  0
LINE
  5
134E
  8
0
 62
     0
 10
20.4907599413242
 20
2.6421443642433351
 30
0.0
 11
24.511890323606281
 21
6.6632747465254161
 31
0.0
  0
LINE
  5
134F
  8
0
 62
     0
 10
18.511890323602071
 20
0.6632747465212106
 30
0.0
 11
19.2147950369569
 21
1.366179459876036
 31
0.0
  0
LINE
  5
1350
  8
0
 62
     0
 10
17.389358308468442
 20
0.6632747465212106
 30
0.0
 11
23.389358308472652
 21
6.6632747465254161
 31
0.0
  0
LINE
  5
1351
  8
0
 62
     0
 10
17.193664654678908
 20
1.5901131078653059
 30
0.0
 11
22.266826293339019
 21
6.6632747465254161
 31
0.0
  0
LINE
  5
1352
  8
0
 62
     0
 10
17.193664654678908
 20
2.7126451229989348
 30
0.0
 11
21.14429427820539
 21
6.6632747465254161
 31
0.0
  0
LINE
  5
1353
  8
0
 62
     0
 10
17.193664654678969
 20
3.8351771381326212
 30
0.0
 11
20.021762263071761
 21
6.6632747465254161
 31
0.0
  0
LINE
  5
1354
  8
0
 62
     0
 10
17.193664654678908
 20
4.9577091532663067
 30
0.0
 11
18.899230247938021
 21
6.6632747465254161
 31
0.0
  0
LINE
  5
1355
  8
0
 62
     0
 10
17.193664654678908
 20
6.0802411683999358
 30
0.0
 11
17.776698232804449
 21
6.6632747465254729
 31
0.0
  0
ENDBLK
  5
1357
  8
0
  0
BLOCK
  8
0
  2
*X65
 70
     1
 10
0.0
 20
0.0
 30
0.0
  3
*X65
  1

  0
LINE
  5
1359
  8
0
 62
     0
 10
38.117466596011923
 20
2.0632747465253942
 30
0.0
 11
39.193664654678969
 21
3.1394728051924399
 31
0.0
  0
LINE
  5
135A
  8
0
 62
     0
 10
37.893664654678958
 20
2.9620048203261709
 30
0.0
 11
39.193664654678862
 21
4.2620048203260694
 31
0.0
  0
LINE
  5
135B
  8
0
 62
     0
 10
36.872402565744672
 20
3.063274746525507
 30
0.0
 11
39.193664654678912
 21
5.3845368354597554
 31
0.0
  0
LINE
  5
135C
  8
0
 62
     0
 10
37.893664654678958
 20
5.2070688505934291
 30
0.0
 11
39.193664654678969
 21
6.5070688505933836
 31
0.0
  0
LINE
  5
135D
  8
0
 62
     0
 10
36.693664654678912
 20
4.0070688505933836
 30
0.0
 11
36.949870550610967
 21
4.2632747465254388
 31
0.0
  0
LINE
  5
135E
  8
0
 62
     0
 10
37.027338535477377
 20
5.4632747465254852
 30
0.0
 11
38.227338535477372
 21
6.6632747465254729
 31
0.0
  0
LINE
  5
135F
  8
0
 62
     0
 10
35.904806520343698
 20
5.4632747465254283
 30
0.0
 11
37.104806520343743
 21
6.6632747465254729
 31
0.0
  0
LINE
  5
1360
  8
0
 62
     0
 10
34.782274505210133
 20
5.4632747465254852
 30
0.0
 11
35.982274505210121
 21
6.6632747465254729
 31
0.0
  0
LINE
  5
1361
  8
0
 62
     0
 10
33.659742490076439
 20
5.4632747465254283
 30
0.0
 11
34.859742490076428
 21
6.6632747465254161
 31
0.0
  0
LINE
  5
1362
  8
0
 62
     0
 10
32.537210474942697
 20
5.4632747465254283
 30
0.0
 11
33.737210474942692
 21
6.6632747465254161
 31
0.0
  0
LINE
  5
1363
  8
0
 62
     0
 10
31.414678459809121
 20
5.4632747465254852
 30
0.0
 11
32.61467845980912
 21
6.6632747465254729
 31
0.0
  0
LINE
  5
1364
  8
0
 62
     0
 10
30.292146444675438
 20
5.4632747465254283
 30
0.0
 11
31.492146444675431
 21
6.6632747465254161
 31
0.0
  0
LINE
  5
1365
  8
0
 62
     0
 10
29.169614429541809
 20
5.4632747465254283
 30
0.0
 11
30.369614429541802
 21
6.6632747465254161
 31
0.0
  0
LINE
  5
1366
  8
0
 62
     0
 10
24.369614429537648
 20
0.6632747465212674
 30
0.0
 11
24.793664654678992
 21
1.0873249716626101
 31
0.0
  0
LINE
  5
1367
  8
0
 62
     0
 10
28.04708241440818
 20
5.4632747465254283
 30
0.0
 11
29.247082414408169
 21
6.6632747465254161
 31
0.0
  0
LINE
  5
1368
  8
0
 62
     0
 10
23.293159103055299
 20
0.7093514351725503
 30
0.0
 11
24.793664654678938
 21
2.2098569867961819
 31
0.0
  0
LINE
  5
1369
  8
0
 62
     0
 10
26.924550399274551
 20
5.4632747465254283
 30
0.0
 11
28.12455039927454
 21
6.6632747465254161
 31
0.0
  0
LINE
  5
136A
  8
0
 62
     0
 10
23.069200762413061
 20
1.607925109663938
 30
0.0
 11
24.793664654678992
 21
3.3323890019298679
 31
0.0
  0
LINE
  5
136B
  8
0
 62
     0
 10
25.802018384140929
 20
5.4632747465254283
 30
0.0
 11
27.002018384140911
 21
6.6632747465254161
 31
0.0
  0
LINE
  5
136C
  8
0
 62
     0
 10
22.579670769607329
 20
2.240927131991838
 30
0.0
 11
24.60201838414093
 21
4.2632747465254388
 31
0.0
  0
LINE
  5
136D
  8
0
 62
     0
 10
24.679486369007289
 20
5.4632747465254283
 30
0.0
 11
25.879486369007282
 21
6.6632747465254161
 31
0.0
  0
LINE
  5
136E
  8
0
 62
     0
 10
21.868203785183258
 20
2.65199216270139
 30
0.0
 11
23.479486369007301
 21
4.2632747465254388
 31
0.0
  0
LINE
  5
136F
  8
0
 62
     0
 10
20.82419744003613
 20
2.7305178326880082
 30
0.0
 11
23.393664654678961
 21
5.2999850473308348
 31
0.0
  0
LINE
  5
1370
  8
0
 62
     0
 10
23.556954353873611
 20
5.4632747465254852
 30
0.0
 11
24.756954353873599
 21
6.6632747465254729
 31
0.0
  0
LINE
  5
1371
  8
0
 62
     0
 10
18.756954353869389
 20
0.6632747465212674
 30
0.0
 11
19.126421568512232
 21
1.032741961164106
 31
0.0
  0
LINE
  5
1372
  8
0
 62
     0
 10
17.6344223387357
 20
0.6632747465212106
 30
0.0
 11
23.63442233873997
 21
6.6632747465254729
 31
0.0
  0
LINE
  5
1373
  8
0
 62
     0
 10
17.193664654678908
 20
1.3450490775980479
 30
0.0
 11
22.511890323606341
 21
6.6632747465254729
 31
0.0
  0
LINE
  5
1374
  8
0
 62
     0
 10
17.193664654678908
 20
2.467581092731677
 30
0.0
 11
21.389358308472708
 21
6.6632747465254729
 31
0.0
  0
LINE
  5
1375
  8
0
 62
     0
 10
17.193664654678908
 20
3.5901131078653061
 30
0.0
 11
20.266826293339079
 21
6.6632747465254729
 31
0.0
  0
LINE
  5
1376
  8
0
 62
     0
 10
17.193664654678969
 20
4.7126451229989916
 30
0.0
 11
19.14429427820545
 21
6.6632747465254729
 31
0.0
  0
LINE
  5
1377
  8
0
 62
     0
 10
17.193664654678969
 20
5.8351771381326207
 30
0.0
 11
18.021762263071761
 21
6.6632747465254161
 31
0.0
  0
ENDBLK
  5
1379
  8
0
  0
BLOCK
  8
0
  2
*U66
 70
     1
 10
0.0
 20
0.0
 30
0.0
  3
*U66
  1

  0
SOLID
  5
13B1
  8
SAPA_FOGBAND
  6
CONTINUOUS
 62
     6
 10
33.167853036364178
 20
-6.3795105090242341
 30
0.0
 11
32.949075658037557
 21
-6.4430648378016988
 31
0.0
 12
33.413797487559812
 22
-6.4430648378016988
 32
0.0
 13
33.413797487559812
 23
-6.4430648378016988
 33
0.0
210
0.0
220
0.0
230
1.0
  0
SOLID
  5
13B2
  8
SAPA_FOGBAND
  6
CONTINUOUS
 62
     6
 10
32.949075658037557
 20
-6.4430648378016988
 30
0.0
 11
32.923914182087351
 21
-6.4503741891034556
 31
0.0
 12
33.426543590195642
 22
-6.4503741891034556
 32
0.0
 13
33.426543590195642
 23
-6.4503741891034556
 33
0.0
210
0.0
220
0.0
230
1.0
  0
SOLID
  5
13B3
  8
SAPA_FOGBAND
  6
CONTINUOUS
 62
     6
 10
-32.949075658037557
 20
-6.4430648378016988
 30
0.0
 11
-33.413797487559812
 21
-6.4430648378016988
 31
0.0
 12
-33.426543590195642
 22
-6.4503741891034556
 32
0.0
 13
-33.426543590195642
 23
-6.4503741891034556
 33
0.0
210
0.0
220
0.0
230
-1.0
  0
SOLID
  5
13B4
  8
SAPA_FOGBAND
  6
CONTINUOUS
 62
     6
 10
32.923914182087351
 20
-6.4503741891034556
 30
0.0
 11
31.92064314674343
 21
-7.0661938703429987
 31
0.0
 12
34.500414654562363
 22
-7.0661938703429987
 32
0.0
 13
34.500414654562363
 23
-7.0661938703429987
 33
0.0
210
0.0
220
0.0
230
1.0
  0
SOLID
  5
13B5
  8
SAPA_FOGBAND
  6
CONTINUOUS
 62
     6
 10
-32.923914182087351
 20
-6.4503741891034556
 30
0.0
 11
-33.426543590195642
 21
-6.4503741891034556
 31
0.0
 12
-34.500414654562363
 22
-7.0661938703429987
 32
0.0
 13
-34.500414654562363
 23
-7.0661938703429987
 33
0.0
210
0.0
220
0.0
230
-1.0
  0
SOLID
  5
13B6
  8
SAPA_FOGBAND
  6
CONTINUOUS
 62
     6
 10
31.92064314674343
 20
-7.0661938703429987
 30
0.0
 11
31.852984026352161
 21
-7.1506855552539079
 31
0.0
 12
34.647751900138502
 22
-7.1506855552539079
 32
0.0
 13
34.647751900138502
 23
-7.1506855552539079
 33
0.0
  0
SOLID
  5
13B7
  8
SAPA_FOGBAND
  6
CONTINUOUS
 62
     6
 10
-31.92064314674343
 20
-7.0661938703429987
 30
0.0
 11
-34.500414654562363
 21
-7.0661938703429987
 31
0.0
 12
-34.647751900138502
 22
-7.1506855552539079
 32
0.0
 13
-34.647751900138502
 23
-7.1506855552539079
 33
0.0
210
0.0
220
0.0
230
-1.0
  0
SOLID
  5
13B8
  8
SAPA_FOGBAND
  6
CONTINUOUS
 62
     6
 10
31.852984026352161
 20
-7.1506855552539079
 30
0.0
 11
31.853042142773479
 21
-7.1545806019415741
 31
0.0
 12
34.65454411230656
 22
-7.1545806019415741
 32
0.0
 13
34.65454411230656
 23
-7.1545806019415741
 33
0.0
210
0.0
220
0.0
230
1.0
  0
SOLID
  5
13B9
  8
SAPA_FOGBAND
  6
CONTINUOUS
 62
     6
 10
-31.852984026352161
 20
-7.1506855552539079
 30
0.0
 11
-34.647751900138502
 21
-7.1506855552539079
 31
0.0
 12
-34.65454411230656
 22
-7.1545806019415741
 32
0.0
 13
-34.65454411230656
 23
-7.1545806019415741
 33
0.0
210
0.0
220
0.0
230
-1.0
  0
SOLID
  5
13BA
  8
SAPA_FOGBAND
  6
CONTINUOUS
 62
     6
 10
31.853042142773479
 20
-7.1545806019415741
 30
0.0
 11
31.85459890051682
 21
-7.2589167595003579
 31
0.0
 12
34.758240925000777
 22
-7.2589167595003579
 32
0.0
 13
34.758240925000777
 23
-7.2589167595003579
 33
0.0
210
0.0
220
0.0
230
1.0
  0
SOLID
  5
13BB
  8
SAPA_FOGBAND
  6
CONTINUOUS
 62
     6
 10
-31.853042142773479
 20
-7.1545806019415741
 30
0.0
 11
-34.65454411230656
 21
-7.1545806019415741
 31
0.0
 12
-34.758240925000777
 22
-7.2589167595003579
 32
0.0
 13
-34.758240925000777
 23
-7.2589167595003579
 33
0.0
210
0.0
220
0.0
230
-1.0
  0
SOLID
  5
13BC
  8
SAPA_FOGBAND
  6
CONTINUOUS
 62
     6
 10
31.85459890051682
 20
-7.2589167595003579
 30
0.0
 11
31.919133244165479
 21
-7.3347533620803489
 31
0.0
 12
34.833612820584278
 22
-7.3347533620803489
 32
0.0
 13
34.833612820584278
 23
-7.3347533620803489
 33
0.0
210
0.0
220
0.0
230
1.0
  0
SOLID
  5
13BD
  8
SAPA_FOGBAND
  6
CONTINUOUS
 62
     6
 10
-31.85459890051682
 20
-7.2589167595003579
 30
0.0
 11
-34.758240925000777
 21
-7.2589167595003579
 31
0.0
 12
-34.833612820584278
 22
-7.3347533620803489
 32
0.0
 13
-34.833612820584278
 23
-7.3347533620803489
 33
0.0
210
0.0
220
0.0
230
-1.0
  0
SOLID
  5
13BE
  8
SAPA_FOGBAND
  6
CONTINUOUS
 62
     6
 10
31.919133244165479
 20
-7.3347533620803489
 30
0.0
 11
31.924748674046612
 21
-7.3413522534633548
 31
0.0
 12
34.835274834560252
 22
-7.3413522534633548
 32
0.0
 13
34.835274834560252
 23
-7.3413522534633548
 33
0.0
210
0.0
220
0.0
230
1.0
  0
SOLID
  5
13BF
  8
SAPA_FOGBAND
  6
CONTINUOUS
 62
     6
 10
-31.919133244165479
 20
-7.3347533620803489
 30
0.0
 11
-34.833612820584278
 21
-7.3347533620803489
 31
0.0
 12
-34.835274834560252
 22
-7.3413522534633548
 32
0.0
 13
-34.835274834560252
 23
-7.3413522534633548
 33
0.0
210
0.0
220
0.0
230
-1.0
  0
SOLID
  5
13C0
  8
SAPA_FOGBAND
  6
CONTINUOUS
 62
     6
 10
31.924748674046612
 20
-7.3413522534633548
 30
0.0
 11
32.202343507601043
 21
-7.5005411613183517
 31
0.0
 12
34.875368567631092
 22
-7.5005411613183517
 32
0.0
 13
34.875368567631092
 23
-7.5005411613183517
 33
0.0
210
0.0
220
0.0
230
1.0
  0
SOLID
  5
13C1
  8
SAPA_FOGBAND
  6
CONTINUOUS
 62
     6
 10
-31.924748674046612
 20
-7.3413522534633548
 30
0.0
 11
-34.835274834560252
 21
-7.3413522534633548
 31
0.0
 12
-34.875368567631092
 22
-7.5005411613183517
 32
0.0
 13
-34.875368567631092
 23
-7.5005411613183517
 33
0.0
210
0.0
220
0.0
230
-1.0
  0
SOLID
  5
13C2
  8
SAPA_FOGBAND
  6
CONTINUOUS
 62
     6
 10
32.202343507601043
 20
-7.5005411613183517
 30
0.0
 11
32.156155704619572
 21
-7.5810838049841598
 31
0.0
 12
34.895654247704329
 22
-7.5810838049841598
 32
0.0
 13
34.895654247704329
 23
-7.5810838049841598
 33
0.0
  0
SOLID
  5
13C3
  8
SAPA_FOGBAND
  6
CONTINUOUS
 62
     6
 10
-32.202343507601043
 20
-7.5005411613183517
 30
0.0
 11
-34.875368567631092
 21
-7.5005411613183517
 31
0.0
 12
-34.895654247704329
 22
-7.5810838049841598
 32
0.0
 13
-34.895654247704329
 23
-7.5810838049841598
 33
0.0
210
0.0
220
0.0
230
-1.0
  0
SOLID
  5
13C4
  8
SAPA_FOGBAND
  6
CONTINUOUS
 62
     6
 10
32.156155704619572
 20
-7.5810838049841598
 30
0.0
 11
32.070559783874707
 21
-7.7303466254427766
 31
0.0
 12
34.892509405509102
 22
-7.7303466254427766
 32
0.0
 13
34.892509405509102
 23
-7.7303466254427766
 33
0.0
210
0.0
220
0.0
230
1.0
  0
SOLID
  5
13C5
  8
SAPA_FOGBAND
  6
CONTINUOUS
 62
     6
 10
-32.156155704619572
 20
-7.5810838049841598
 30
0.0
 11
-34.895654247704329
 21
-7.5810838049841598
 31
0.0
 12
-34.892509405509102
 22
-7.7303466254427766
 32
0.0
 13
-34.892509405509102
 23
-7.7303466254427766
 33
0.0
210
0.0
220
0.0
230
-1.0
  0
SOLID
  5
13C6
  8
SAPA_FOGBAND
  6
CONTINUOUS
 62
     6
 10
32.070559783874707
 20
-7.7303466254427766
 30
0.0
 11
32.060514394044297
 21
-7.8078228746347431
 31
0.0
 12
34.890877046045183
 22
-7.8078228746347431
 32
0.0
 13
34.890877046045183
 23
-7.8078228746347431
 33
0.0
  0
SOLID
  5
13C7
  8
SAPA_FOGBAND
  6
CONTINUOUS
 62
     6
 10
-32.070559783874707
 20
-7.7303466254427766
 30
0.0
 11
-34.892509405509102
 21
-7.7303466254427766
 31
0.0
 12
-34.890877046045183
 22
-7.8078228746347431
 32
0.0
 13
-34.890877046045183
 23
-7.8078228746347431
 33
0.0
210
0.0
220
0.0
230
-1.0
  0
SOLID
  5
13C8
  8
SAPA_FOGBAND
  6
CONTINUOUS
 62
     6
 10
32.060514394044297
 20
-7.8078228746347431
 30
0.0
 11
32.030805343948202
 21
-7.8800783338616318
 31
0.0
 12
34.889354684238569
 22
-7.8800783338616318
 32
0.0
 13
34.889354684238569
 23
-7.8800783338616318
 33
0.0
  0
SOLID
  5
13C9
  8
SAPA_FOGBAND
  6
CONTINUOUS
 62
     6
 10
-32.060514394044297
 20
-7.8078228746347431
 30
0.0
 11
-34.890877046045183
 21
-7.8078228746347431
 31
0.0
 12
-34.889354684238569
 22
-7.8800783338616318
 32
0.0
 13
-34.889354684238569
 23
-7.8800783338616318
 33
0.0
210
0.0
220
0.0
230
-1.0
  0
SOLID
  5
13CA
  8
SAPA_FOGBAND
  6
CONTINUOUS
 62
     6
 10
32.030805343948202
 20
-7.8800783338616318
 30
0.0
 11
31.8825685060635
 21
-8.1385748641400824
 31
0.0
 12
34.883908379571118
 22
-8.1385748641400824
 32
0.0
 13
34.883908379571118
 23
-8.1385748641400824
 33
0.0
  0
SOLID
  5
13CB
  8
SAPA_FOGBAND
  6
CONTINUOUS
 62
     6
 10
-32.030805343948202
 20
-7.8800783338616318
 30
0.0
 11
-34.889354684238569
 21
-7.8800783338616318
 31
0.0
 12
-34.883908379571118
 22
-8.1385748641400824
 32
0.0
 13
-34.883908379571118
 23
-8.1385748641400824
 33
0.0
210
0.0
220
0.0
230
-1.0
  0
SOLID
  5
13CC
  8
SAPA_FOGBAND
  6
CONTINUOUS
 62
     6
 10
30.902723180711629
 20
-8.1385748641400824
 30
0.0
 11
30.85197388377809
 21
-8.2270718758045973
 31
0.0
 12
31.05704494567723
 22
-8.2270718758045973
 32
0.0
 13
31.05704494567723
 23
-8.2270718758045973
 33
0.0
210
0.0
220
0.0
230
1.0
  0
SOLID
  5
13CD
  8
SAPA_FOGBAND
  6
CONTINUOUS
 62
     6
 10
31.8825685060635
 20
-8.1385748641400824
 30
0.0
 11
31.83181920912995
 21
-8.2270718758045973
 31
0.0
 12
34.88204382190311
 22
-8.2270718758045973
 32
0.0
 13
34.88204382190311
 23
-8.2270718758045973
 33
0.0
210
0.0
220
0.0
230
1.0
  0
SOLID
  5
13CE
  8
SAPA_FOGBAND
  6
CONTINUOUS
 62
     6
 10
-31.8825685060635
 20
-8.1385748641400824
 30
0.0
 11
-34.883908379571118
 21
-8.1385748641400824
 31
0.0
 12
-34.88204382190311
 22
-8.2270718758045973
 32
0.0
 13
-34.88204382190311
 23
-8.2270718758045973
 33
0.0
210
0.0
220
0.0
230
-1.0
  0
SOLID
  5
13CF
  8
SAPA_FOGBAND
  6
CONTINUOUS
 62
     6
 10
30.85197388377809
 20
-8.2270718758045973
 30
0.0
 11
30.816342338013911
 21
-8.2892064374961105
 31
0.0
 12
31.165395668998251
 22
-8.2892064374961105
 32
0.0
 13
31.165395668998251
 23
-8.2892064374961105
 33
0.0
  0
SOLID
  5
13D0
  8
SAPA_FOGBAND
  6
CONTINUOUS
 62
     6
 10
-30.85197388377809
 20
-8.2270718758045973
 30
0.0
 11
-31.05704494567723
 21
-8.2270718758045973
 31
0.0
 12
-31.165395668998251
 22
-8.2892064374961105
 32
0.0
 13
-31.165395668998251
 23
-8.2892064374961105
 33
0.0
210
0.0
220
0.0
230
-1.0
  0
SOLID
  5
13D1
  8
SAPA_FOGBAND
  6
CONTINUOUS
 62
     6
 10
31.83181920912995
 20
-8.2270718758045973
 30
0.0
 11
31.78446126059843
 21
-8.2892064374961105
 31
0.0
 12
34.880734698902558
 22
-8.2892064374961105
 32
0.0
 13
34.880734698902558
 23
-8.2892064374961105
 33
0.0
210
0.0
220
0.0
230
1.0
  0
SOLID
  5
13D2
  8
SAPA_FOGBAND
  6
CONTINUOUS
 62
     6
 10
-31.83181920912995
 20
-8.2270718758045973
 30
0.0
 11
-34.88204382190311
 21
-8.2270718758045973
 31
0.0
 12
-34.880734698902558
 22
-8.2892064374961105
 32
0.0
 13
-34.880734698902558
 23
-8.2892064374961105
 33
0.0
210
0.0
220
0.0
230
-1.0
  0
SOLID
  5
13D3
  8
SAPA_FOGBAND
  6
CONTINUOUS
 62
     6
 10
30.816342338013911
 20
-8.2892064374961105
 30
0.0
 11
30.788931103714919
 21
-8.3370063572599946
 31
0.0
 12
31.248749534224132
 22
-8.3370063572599946
 32
0.0
 13
31.248749534224132
 23
-8.3370063572599946
 33
0.0
210
0.0
220
0.0
230
1.0
  0
SOLID
  5
13D4
  8
SAPA_FOGBAND
  6
CONTINUOUS
 62
     6
 10
-30.816342338013911
 20
-8.2892064374961105
 30
0.0
 11
-31.165395668998251
 21
-8.2892064374961105
 31
0.0
 12
-31.248749534224132
 22
-8.3370063572599946
 32
0.0
 13
-31.248749534224132
 23
-8.3370063572599946
 33
0.0
210
0.0
220
0.0
230
-1.0
  0
SOLID
  5
13D5
  8
SAPA_FOGBAND
  6
CONTINUOUS
 62
     6
 10
31.78446126059843
 20
-8.2892064374961105
 30
0.0
 11
31.722666060814969
 21
-8.3370063572599946
 31
0.0
 12
34.87972759476142
 22
-8.3370063572599946
 32
0.0
 13
34.87972759476142
 23
-8.3370063572599946
 33
0.0
210
0.0
220
0.0
230
1.0
  0
SOLID
  5
13D6
  8
SAPA_FOGBAND
  6
CONTINUOUS
 62
     6
 10
-31.78446126059843
 20
-8.2892064374961105
 30
0.0
 11
-34.880734698902558
 21
-8.2892064374961105
 31
0.0
 12
-34.87972759476142
 22
-8.3370063572599946
 32
0.0
 13
-34.87972759476142
 23
-8.3370063572599946
 33
0.0
210
0.0
220
0.0
230
-1.0
  0
SOLID
  5
13D7
  8
SAPA_FOGBAND
  6
CONTINUOUS
 62
     6
 10
30.788931103714919
 20
-8.3370063572599946
 30
0.0
 11
30.67165014604624
 21
-8.5415217871471043
 31
0.0
 12
31.605385103146212
 22
-8.5415217871471043
 32
0.0
 13
31.605385103146212
 23
-8.5415217871471043
 33
0.0
  0
SOLID
  5
13D8
  8
SAPA_FOGBAND
  6
CONTINUOUS
 62
     6
 10
-30.788931103714919
 20
-8.3370063572599946
 30
0.0
 11
-31.248749534224132
 21
-8.3370063572599946
 31
0.0
 12
-31.605385103146212
 22
-8.5415217871471043
 32
0.0
 13
-31.605385103146212
 23
-8.5415217871471043
 33
0.0
210
0.0
220
0.0
230
-1.0
  0
SOLID
  5
13D9
  8
SAPA_FOGBAND
  6
CONTINUOUS
 62
     6
 10
31.722666060814969
 20
-8.3370063572599946
 30
0.0
 11
31.605385103146212
 21
-8.5415217871471043
 31
0.0
 12
34.87541862651662
 22
-8.5415217871471043
 32
0.0
 13
34.87541862651662
 23
-8.5415217871471043
 33
0.0
210
0.0
220
0.0
230
1.0
  0
SOLID
  5
13DA
  8
SAPA_FOGBAND
  6
CONTINUOUS
 62
     6
 10
-31.722666060814969
 20
-8.3370063572599946
 30
0.0
 11
-34.87972759476142
 21
-8.3370063572599946
 31
0.0
 12
-34.87541862651662
 22
-8.5415217871471043
 32
0.0
 13
-34.87541862651662
 23
-8.5415217871471043
 33
0.0
210
0.0
220
0.0
230
-1.0
  0
SOLID
  5
13DB
  8
SAPA_FOGBAND
  6
CONTINUOUS
 62
     6
 10
30.67165014604624
 20
-8.5415217871471043
 30
0.0
 11
30.56112567893296
 21
-8.7342551971911462
 31
0.0
 12
34.871357895528988
 22
-8.7342551971911462
 32
0.0
 13
34.871357895528988
 23
-8.7342551971911462
 33
0.0
  0
SOLID
  5
13DC
  8
SAPA_FOGBAND
  6
CONTINUOUS
 62
     6
 10
-30.67165014604624
 20
-8.5415217871471043
 30
0.0
 11
-34.87541862651662
 21
-8.5415217871471043
 31
0.0
 12
-34.871357895528988
 22
-8.7342551971911462
 32
0.0
 13
-34.871357895528988
 23
-8.7342551971911462
 33
0.0
210
0.0
220
0.0
230
-1.0
  0
SOLID
  5
13DD
  8
SAPA_FOGBAND
  6
CONTINUOUS
 62
     6
 10
30.56112567893296
 20
-8.7342551971911462
 30
0.0
 11
30.547499285678839
 21
-8.7580170058391502
 31
0.0
 12
34.340077074392703
 22
-8.7580170058391502
 32
0.0
 13
34.340077074392703
 23
-8.7580170058391502
 33
0.0
210
0.0
220
0.0
230
1.0
  0
SOLID
  5
13DE
  8
SAPA_FOGBAND
  6
CONTINUOUS
 62
     6
 10
-30.56112567893296
 20
-8.7342551971911462
 30
0.0
 11
-34.353703467646831
 21
-8.7342551971911462
 31
0.0
 12
-34.340077074392703
 22
-8.7580170058391502
 32
0.0
 13
-34.340077074392703
 23
-8.7580170058391502
 33
0.0
210
0.0
220
0.0
230
-1.0
  0
SOLID
  5
13DF
  8
SAPA_FOGBAND
  6
CONTINUOUS
 62
     6
 10
34.353703467646831
 20
-8.7342551971911462
 30
0.0
 11
34.39513949108278
 21
-8.7580170058391502
 31
0.0
 12
34.87085725418882
 22
-8.7580170058391502
 32
0.0
 13
34.87085725418882
 23
-8.7580170058391502
 33
0.0
210
0.0
220
0.0
230
1.0
  0
SOLID
  5
13E0
  8
SAPA_FOGBAND
  6
CONTINUOUS
 62
     6
 10
-34.353703467646831
 20
-8.7342551971911462
 30
0.0
 11
-34.871357895528988
 21
-8.7342551971911462
 31
0.0
 12
-34.87085725418882
 22
-8.7580170058391502
 32
0.0
 13
-34.87085725418882
 23
-8.7580170058391502
 33
0.0
210
0.0
220
0.0
230
-1.0
  0
SOLID
  5
13E1
  8
SAPA_FOGBAND
  6
CONTINUOUS
 62
     6
 10
30.547499285678839
 20
-8.7580170058391502
 30
0.0
 11
30.48954063812522
 21
-8.8590857381869093
 31
0.0
 12
34.28211842683907
 22
-8.8590857381869093
 32
0.0
 13
34.28211842683907
 23
-8.8590857381869093
 33
0.0
210
0.0
220
0.0
230
1.0
  0
SOLID
  5
13E2
  8
SAPA_FOGBAND
  6
CONTINUOUS
 62
     6
 10
-30.547499285678839
 20
-8.7580170058391502
 30
0.0
 11
-34.340077074392703
 21
-8.7580170058391502
 31
0.0
 12
-34.28211842683907
 22
-8.8590857381869093
 32
0.0
 13
-34.28211842683907
 23
-8.8590857381869093
 33
0.0
210
0.0
220
0.0
230
-1.0
  0
SOLID
  5
13E3
  8
SAPA_FOGBAND
  6
CONTINUOUS
 62
     6
 10
34.39513949108278
 20
-8.7580170058391502
 30
0.0
 11
34.571383918611012
 21
-8.8590857381869093
 31
0.0
 12
34.832105315749487
 22
-8.8590857381869093
 32
0.0
 13
34.832105315749487
 23
-8.8590857381869093
 33
0.0
210
0.0
220
0.0
230
1.0
  0
SOLID
  5
13E4
  8
SAPA_FOGBAND
  6
CONTINUOUS
 62
     6
 10
-34.39513949108278
 20
-8.7580170058391502
 30
0.0
 11
-34.87085725418882
 21
-8.7580170058391502
 31
0.0
 12
-34.832105315749487
 22
-8.8590857381869093
 32
0.0
 13
-34.832105315749487
 23
-8.8590857381869093
 33
0.0
210
0.0
220
0.0
230
-1.0
  0
SOLID
  5
13E5
  8
SAPA_FOGBAND
  6
CONTINUOUS
 62
     6
 10
30.48954063812522
 20
-8.8590857381869093
 30
0.0
 11
30.469837566472521
 21
-8.8934441050458304
 31
0.0
 12
34.262415355186377
 22
-8.8934441050458304
 32
0.0
 13
34.262415355186377
 23
-8.8934441050458304
 33
0.0
210
0.0
220
0.0
230
1.0
  0
SOLID
  5
13E6
  8
SAPA_FOGBAND
  6
CONTINUOUS
 62
     6
 10
-30.48954063812522
 20
-8.8590857381869093
 30
0.0
 11
-34.28211842683907
 21
-8.8590857381869093
 31
0.0
 12
-34.262415355186377
 22
-8.8934441050458304
 32
0.0
 13
-34.262415355186377
 23
-8.8934441050458304
 33
0.0
210
0.0
220
0.0
230
-1.0
  0
SOLID
  5
13E7
  8
SAPA_FOGBAND
  6
CONTINUOUS
 62
     6
 10
34.571383918611012
 20
-8.8590857381869093
 30
0.0
 11
34.631298301201873
 21
-8.8934441050458304
 31
0.0
 12
34.771328304063651
 22
-8.8934441050458304
 32
0.0
 13
34.771328304063651
 23
-8.8934441050458304
 33
0.0
210
0.0
220
0.0
230
1.0
  0
SOLID
  5
13E8
  8
SAPA_FOGBAND
  6
CONTINUOUS
 62
     6
 10
-34.571383918611012
 20
-8.8590857381869093
 30
0.0
 11
-34.832105315749487
 21
-8.8590857381869093
 31
0.0
 12
-34.771328304063651
 22
-8.8934441050458304
 32
0.0
 13
-34.771328304063651
 23
-8.8934441050458304
 33
0.0
210
0.0
220
0.0
230
-1.0
  0
SOLID
  5
13E9
  8
SAPA_FOGBAND
  6
CONTINUOUS
 62
     6
 10
30.469837566472521
 20
-8.8934441050458304
 30
0.0
 11
30.45899306294967
 21
-8.9123548331296973
 31
0.0
 12
34.25157085166353
 22
-8.9123548331296973
 32
0.0
 13
34.25157085166353
 23
-8.9123548331296973
 33
0.0
210
0.0
220
0.0
230
1.0
  0
SOLID
  5
13EA
  8
SAPA_FOGBAND
  6
CONTINUOUS
 62
     6
 10
-30.469837566472521
 20
-8.8934441050458304
 30
0.0
 11
-34.262415355186377
 21
-8.8934441050458304
 31
0.0
 12
-34.25157085166353
 22
-8.9123548331296973
 32
0.0
 13
-34.25157085166353
 23
-8.9123548331296973
 33
0.0
210
0.0
220
0.0
230
-1.0
  0
SOLID
  5
13EB
  8
SAPA_FOGBAND
  6
CONTINUOUS
 62
     6
 10
-34.631298301201873
 20
-8.8934441050458304
 30
0.0
 11
-34.771328304063651
 21
-8.8934441050458304
 31
0.0
 12
-34.737876843857158
 22
-8.9123548331296973
 32
0.0
 13
-34.737876843857158
 23
-8.9123548331296973
 33
0.0
210
0.0
220
0.0
230
-1.0
  0
SOLID
  5
13EC
  8
SAPA_FOGBAND
  6
CONTINUOUS
 62
     6
 10
30.45899306294967
 20
-8.9123548331296973
 30
0.0
 11
30.429341955206588
 21
-8.964060661315699
 31
0.0
 12
34.221919743920438
 22
-8.964060661315699
 32
0.0
 13
34.221919743920438
 23
-8.964060661315699
 33
0.0
210
0.0
220
0.0
230
1.0
  0
SOLID
  5
13ED
  8
SAPA_FOGBAND
  6
CONTINUOUS
 62
     6
 10
-30.45899306294967
 20
-8.9123548331296973
 30
0.0
 11
-34.25157085166353
 21
-8.9123548331296973
 31
0.0
 12
-34.221919743920438
 22
-8.964060661315699
 32
0.0
 13
-34.221919743920438
 23
-8.964060661315699
 33
0.0
210
0.0
220
0.0
230
-1.0
  0
SOLID
  5
13EE
  8
SAPA_FOGBAND
  6
CONTINUOUS
 62
     6
 10
30.429341955206588
 20
-8.964060661315699
 30
0.0
 11
30.40525784366616
 21
-9.0060587189974513
 31
0.0
 12
34.167625126319052
 22
-9.0060587189974513
 32
0.0
 13
34.167625126319052
 23
-9.0060587189974513
 33
0.0
210
0.0
220
0.0
230
1.0
  0
SOLID
  5
13EF
  8
SAPA_FOGBAND
  6
CONTINUOUS
 62
     6
 10
-30.429341955206588
 20
-8.964060661315699
 30
0.0
 11
-34.221919743920438
 21
-8.964060661315699
 31
0.0
 12
-34.167625126319052
 22
-9.0060587189974513
 32
0.0
 13
-34.167625126319052
 23
-9.0060587189974513
 33
0.0
210
0.0
220
0.0
230
-1.0
  0
SOLID
  5
13F0
  8
SAPA_FOGBAND
  6
CONTINUOUS
 62
     6
 10
30.40525784366616
 20
-9.0060587189974513
 30
0.0
 11
30.415375175085181
 21
-9.0118605810795902
 31
0.0
 12
34.160124544137062
 22
-9.0118605810795902
 32
0.0
 13
34.160124544137062
 23
-9.0118605810795902
 33
0.0
  0
SOLID
  5
13F1
  8
SAPA_FOGBAND
  6
CONTINUOUS
 62
     6
 10
-30.40525784366616
 20
-9.0060587189974513
 30
0.0
 11
-34.167625126319052
 21
-9.0060587189974513
 31
0.0
 12
-34.160124544137062
 22
-9.0118605810795902
 32
0.0
 13
-34.160124544137062
 23
-9.0118605810795902
 33
0.0
210
0.0
220
0.0
230
-1.0
  0
SOLID
  5
13F2
  8
SAPA_FOGBAND
  6
CONTINUOUS
 62
     6
 10
30.415375175085181
 20
-9.0118605810795902
 30
0.0
 11
30.523725898406159
 21
-9.0739951427710821
 31
0.0
 12
34.112766595605592
 22
-9.0739951427710821
 32
0.0
 13
34.112766595605592
 23
-9.0739951427710821
 33
0.0
210
0.0
220
0.0
230
1.0
  0
SOLID
  5
13F3
  8
SAPA_FOGBAND
  6
CONTINUOUS
 62
     6
 10
-30.415375175085181
 20
-9.0118605810795902
 30
0.0
 11
-34.160124544137062
 21
-9.0118605810795902
 31
0.0
 12
-34.112766595605592
 22
-9.0739951427710821
 32
0.0
 13
-34.112766595605592
 23
-9.0739951427710821
 33
0.0
210
0.0
220
0.0
230
-1.0
  0
SOLID
  5
13F4
  8
SAPA_FOGBAND
  6
CONTINUOUS
 62
     6
 10
30.523725898406159
 20
-9.0739951427710821
 30
0.0
 11
31.128815887516929
 21
-9.4209886847147573
 31
0.0
 12
33.913780460786988
 22
-9.4209886847147573
 32
0.0
 13
33.913780460786988
 23
-9.4209886847147573
 33
0.0
210
0.0
220
0.0
230
1.0
  0
SOLID
  5
13F5
  8
SAPA_FOGBAND
  6
CONTINUOUS
 62
     6
 10
-30.523725898406159
 20
-9.0739951427710821
 30
0.0
 11
-34.112766595605592
 21
-9.0739951427710821
 31
0.0
 12
-33.913780460786988
 22
-9.4209886847147573
 32
0.0
 13
-33.913780460786988
 23
-9.4209886847147573
 33
0.0
210
0.0
220
0.0
230
-1.0
  0
SOLID
  5
13F6
  8
SAPA_FOGBAND
  6
CONTINUOUS
 62
     6
 10
31.128815887516929
 20
-9.4209886847147573
 30
0.0
 11
31.254815509273321
 21
-9.4932441439416841
 31
0.0
 12
33.884071410690872
 22
-9.4932441439416841
 32
0.0
 13
33.884071410690872
 23
-9.4932441439416841
 33
0.0
210
0.0
220
0.0
230
1.0
  0
SOLID
  5
13F7
  8
SAPA_FOGBAND
  6
CONTINUOUS
 62
     6
 10
-31.128815887516929
 20
-9.4209886847147573
 30
0.0
 11
-33.913780460786988
 21
-9.4209886847147573
 31
0.0
 12
-33.884071410690872
 22
-9.4932441439416841
 32
0.0
 13
-33.884071410690872
 23
-9.4932441439416841
 33
0.0
210
0.0
220
0.0
230
-1.0
  0
SOLID
  5
13F8
  8
SAPA_FOGBAND
  6
CONTINUOUS
 62
     6
 10
31.254815509273321
 20
-9.4932441439416841
 30
0.0
 11
31.389919184452239
 21
-9.5707203931336977
 31
0.0
 12
33.874026020860427
 22
-9.5707203931336977
 32
0.0
 13
33.874026020860427
 23
-9.5707203931336977
 33
0.0
  0
SOLID
  5
13F9
  8
SAPA_FOGBAND
  6
CONTINUOUS
 62
     6
 10
-31.254815509273321
 20
-9.4932441439416841
 30
0.0
 11
-33.884071410690872
 21
-9.4932441439416841
 31
0.0
 12
-33.874026020860427
 22
-9.5707203931336977
 32
0.0
 13
-33.874026020860427
 23
-9.5707203931336977
 33
0.0
210
0.0
220
0.0
230
-1.0
  0
SOLID
  5
13FA
  8
SAPA_FOGBAND
  6
CONTINUOUS
 62
     6
 10
31.389919184452239
 20
-9.5707203931336977
 30
0.0
 11
31.74655475337299
 21
-9.77523582302004
 31
0.0
 12
33.75674506319217
 22
-9.77523582302004
 32
0.0
 13
33.75674506319217
 23
-9.77523582302004
 33
0.0
210
0.0
220
0.0
230
1.0
  0
SOLID
  5
13FB
  8
SAPA_FOGBAND
  6
CONTINUOUS
 62
     6
 10
-31.389919184452239
 20
-9.5707203931336977
 30
0.0
 11
-33.874026020860427
 21
-9.5707203931336977
 31
0.0
 12
-33.75674506319217
 22
-9.77523582302004
 32
0.0
 13
-33.75674506319217
 23
-9.77523582302004
 33
0.0
210
0.0
220
0.0
230
-1.0
  0
SOLID
  5
13FC
  8
SAPA_FOGBAND
  6
CONTINUOUS
 62
     6
 10
31.74655475337299
 20
-9.77523582302004
 30
0.0
 11
39.042093972723038
 21
-13.95891930757335
 31
0.0
 12
41.052284282542523
 22
-13.95891930757335
 32
0.0
 13
41.052284282542523
 23
-13.95891930757335
 33
0.0
210
0.0
220
0.0
230
1.0
  0
SOLID
  5
13FD
  8
SAPA_FOGBAND
  6
CONTINUOUS
 62
     6
 10
-31.74655475337299
 20
-9.77523582302004
 30
0.0
 11
-33.75674506319217
 21
-9.77523582302004
 31
0.0
 12
-41.052284282542523
 22
-13.95891930757335
 32
0.0
 13
-41.052284282542523
 23
-13.95891930757335
 33
0.0
210
0.0
220
0.0
230
-1.0
  0
SOLID
  5
13FE
  8
SAPA_FOGBAND
  6
CONTINUOUS
 62
     6
 10
-39.042093972723038
 20
-13.95891930757335
 30
0.0
 11
-41.052284282542523
 21
-13.95891930757335
 31
0.0
 12
-40.554818945496883
 22
-14.826403162430781
 32
0.0
 13
-40.554818945496883
 23
-14.826403162430781
 33
0.0
210
0.0
220
0.0
230
-1.0
  0
LINE
  5
13FF
  8
SAPA_FOGBAND
  6
CONTINUOUS
 62
     6
 10
33.167853036364178
 20
-6.3795105090242341
 30
0.0
 11
32.949075658037557
 21
-6.4430648378016988
 31
0.0
  0
LINE
  5
1400
  8
SAPA_FOGBAND
  6
CONTINUOUS
 62
     6
 10
33.413797487559812
 20
-6.4430648378016988
 30
0.0
 11
33.167853036364178
 21
-6.3795105090242341
 31
0.0
  0
LINE
  5
1401
  8
SAPA_FOGBAND
  6
CONTINUOUS
 62
     6
 10
32.949075658037557
 20
-6.4430648378016988
 30
0.0
 11
32.923914182087351
 21
-6.4503741891034556
 31
0.0
  0
LINE
  5
1402
  8
SAPA_FOGBAND
  6
CONTINUOUS
 62
     6
 10
33.413797487559812
 20
-6.4430648378016988
 30
0.0
 11
33.426543590195642
 21
-6.4503741891034556
 31
0.0
  0
LINE
  5
1403
  8
SAPA_FOGBAND
  6
CONTINUOUS
 62
     6
 10
32.923914182087351
 20
-6.4503741891034556
 30
0.0
 11
31.92064314674343
 21
-7.0661938703429987
 31
0.0
  0
LINE
  5
1404
  8
SAPA_FOGBAND
  6
CONTINUOUS
 62
     6
 10
33.426543590195642
 20
-6.4503741891034556
 30
0.0
 11
34.500414654562363
 21
-7.0661938703429987
 31
0.0
  0
LINE
  5
1405
  8
SAPA_FOGBAND
  6
CONTINUOUS
 62
     6
 10
31.92064314674343
 20
-7.0661938703429987
 30
0.0
 11
31.852984026352161
 21
-7.1506855552539079
 31
0.0
  0
LINE
  5
1406
  8
SAPA_FOGBAND
  6
CONTINUOUS
 62
     6
 10
34.500414654562363
 20
-7.0661938703429987
 30
0.0
 11
34.647751900138502
 21
-7.1506855552539079
 31
0.0
  0
LINE
  5
1407
  8
SAPA_FOGBAND
  6
CONTINUOUS
 62
     6
 10
31.852984026352161
 20
-7.1506855552539079
 30
0.0
 11
31.853042142773479
 21
-7.1545806019415741
 31
0.0
  0
LINE
  5
1408
  8
SAPA_FOGBAND
  6
CONTINUOUS
 62
     6
 10
34.647751900138502
 20
-7.1506855552539079
 30
0.0
 11
34.65454411230656
 21
-7.1545806019415741
 31
0.0
  0
LINE
  5
1409
  8
SAPA_FOGBAND
  6
CONTINUOUS
 62
     6
 10
31.853042142773479
 20
-7.1545806019415741
 30
0.0
 11
31.85459890051682
 21
-7.2589167595003579
 31
0.0
  0
LINE
  5
140A
  8
SAPA_FOGBAND
  6
CONTINUOUS
 62
     6
 10
34.65454411230656
 20
-7.1545806019415741
 30
0.0
 11
34.758240925000777
 21
-7.2589167595003579
 31
0.0
  0
LINE
  5
140B
  8
SAPA_FOGBAND
  6
CONTINUOUS
 62
     6
 10
31.85459890051682
 20
-7.2589167595003579
 30
0.0
 11
31.919133244165479
 21
-7.3347533620803489
 31
0.0
  0
LINE
  5
140C
  8
SAPA_FOGBAND
  6
CONTINUOUS
 62
     6
 10
34.758240925000777
 20
-7.2589167595003579
 30
0.0
 11
34.833612820584278
 21
-7.3347533620803489
 31
0.0
  0
LINE
  5
140D
  8
SAPA_FOGBAND
  6
CONTINUOUS
 62
     6
 10
31.919133244165479
 20
-7.3347533620803489
 30
0.0
 11
31.924748674046612
 21
-7.3413522534633548
 31
0.0
  0
LINE
  5
140E
  8
SAPA_FOGBAND
  6
CONTINUOUS
 62
     6
 10
34.833612820584278
 20
-7.3347533620803489
 30
0.0
 11
34.835274834560252
 21
-7.3413522534633548
 31
0.0
  0
LINE
  5
140F
  8
SAPA_FOGBAND
  6
CONTINUOUS
 62
     6
 10
31.924748674046612
 20
-7.3413522534633548
 30
0.0
 11
32.202343507601043
 21
-7.5005411613183517
 31
0.0
  0
LINE
  5
1410
  8
SAPA_FOGBAND
  6
CONTINUOUS
 62
     6
 10
34.835274834560252
 20
-7.3413522534633548
 30
0.0
 11
34.875368567631092
 21
-7.5005411613183517
 31
0.0
  0
LINE
  5
1411
  8
SAPA_FOGBAND
  6
CONTINUOUS
 62
     6
 10
32.202343507601043
 20
-7.5005411613183517
 30
0.0
 11
32.156155704619572
 21
-7.5810838049841598
 31
0.0
  0
LINE
  5
1412
  8
SAPA_FOGBAND
  6
CONTINUOUS
 62
     6
 10
34.875368567631092
 20
-7.5005411613183517
 30
0.0
 11
34.895654247704329
 21
-7.5810838049841598
 31
0.0
  0
LINE
  5
1413
  8
SAPA_FOGBAND
  6
CONTINUOUS
 62
     6
 10
32.156155704619572
 20
-7.5810838049841598
 30
0.0
 11
32.070559783874707
 21
-7.7303466254427766
 31
0.0
  0
LINE
  5
1414
  8
SAPA_FOGBAND
  6
CONTINUOUS
 62
     6
 10
34.895654247704329
 20
-7.5810838049841598
 30
0.0
 11
34.892509405509102
 21
-7.7303466254427766
 31
0.0
  0
LINE
  5
1415
  8
SAPA_FOGBAND
  6
CONTINUOUS
 62
     6
 10
32.070559783874707
 20
-7.7303466254427766
 30
0.0
 11
32.060514394044297
 21
-7.8078228746347431
 31
0.0
  0
LINE
  5
1416
  8
SAPA_FOGBAND
  6
CONTINUOUS
 62
     6
 10
34.892509405509102
 20
-7.7303466254427766
 30
0.0
 11
34.890877046045183
 21
-7.8078228746347431
 31
0.0
  0
LINE
  5
1417
  8
SAPA_FOGBAND
  6
CONTINUOUS
 62
     6
 10
32.060514394044297
 20
-7.8078228746347431
 30
0.0
 11
32.030805343948202
 21
-7.8800783338616318
 31
0.0
  0
LINE
  5
1418
  8
SAPA_FOGBAND
  6
CONTINUOUS
 62
     6
 10
34.890877046045183
 20
-7.8078228746347431
 30
0.0
 11
34.889354684238569
 21
-7.8800783338616318
 31
0.0
  0
LINE
  5
1419
  8
SAPA_FOGBAND
  6
CONTINUOUS
 62
     6
 10
32.030805343948202
 20
-7.8800783338616318
 30
0.0
 11
31.8825685060635
 21
-8.1385748641400824
 31
0.0
  0
LINE
  5
141A
  8
SAPA_FOGBAND
  6
CONTINUOUS
 62
     6
 10
34.889354684238569
 20
-7.8800783338616318
 30
0.0
 11
34.883908379571118
 21
-8.1385748641400824
 31
0.0
  0
LINE
  5
141B
  8
SAPA_FOGBAND
  6
CONTINUOUS
 62
     6
 10
30.902723180711629
 20
-8.1385748641400824
 30
0.0
 11
30.85197388377809
 21
-8.2270718758045973
 31
0.0
  0
LINE
  5
141C
  8
SAPA_FOGBAND
  6
CONTINUOUS
 62
     6
 10
31.05704494567723
 20
-8.2270718758045973
 30
0.0
 11
30.902723180711629
 21
-8.1385748641400824
 31
0.0
  0
LINE
  5
141D
  8
SAPA_FOGBAND
  6
CONTINUOUS
 62
     6
 10
31.8825685060635
 20
-8.1385748641400824
 30
0.0
 11
31.83181920912995
 21
-8.2270718758045973
 31
0.0
  0
LINE
  5
141E
  8
SAPA_FOGBAND
  6
CONTINUOUS
 62
     6
 10
34.883908379571118
 20
-8.1385748641400824
 30
0.0
 11
34.88204382190311
 21
-8.2270718758045973
 31
0.0
  0
LINE
  5
141F
  8
SAPA_FOGBAND
  6
CONTINUOUS
 62
     6
 10
30.85197388377809
 20
-8.2270718758045973
 30
0.0
 11
30.816342338013911
 21
-8.2892064374961105
 31
0.0
  0
LINE
  5
1420
  8
SAPA_FOGBAND
  6
CONTINUOUS
 62
     6
 10
31.05704494567723
 20
-8.2270718758045973
 30
0.0
 11
31.165395668998251
 21
-8.2892064374961105
 31
0.0
  0
LINE
  5
1421
  8
SAPA_FOGBAND
  6
CONTINUOUS
 62
     6
 10
31.83181920912995
 20
-8.2270718758045973
 30
0.0
 11
31.78446126059843
 21
-8.2892064374961105
 31
0.0
  0
LINE
  5
1422
  8
SAPA_FOGBAND
  6
CONTINUOUS
 62
     6
 10
34.88204382190311
 20
-8.2270718758045973
 30
0.0
 11
34.880734698902558
 21
-8.2892064374961105
 31
0.0
  0
LINE
  5
1423
  8
SAPA_FOGBAND
  6
CONTINUOUS
 62
     6
 10
30.816342338013911
 20
-8.2892064374961105
 30
0.0
 11
30.788931103714919
 21
-8.3370063572599946
 31
0.0
  0
LINE
  5
1424
  8
SAPA_FOGBAND
  6
CONTINUOUS
 62
     6
 10
31.165395668998251
 20
-8.2892064374961105
 30
0.0
 11
31.248749534224132
 21
-8.3370063572599946
 31
0.0
  0
LINE
  5
1425
  8
SAPA_FOGBAND
  6
CONTINUOUS
 62
     6
 10
31.78446126059843
 20
-8.2892064374961105
 30
0.0
 11
31.722666060814969
 21
-8.3370063572599946
 31
0.0
  0
LINE
  5
1426
  8
SAPA_FOGBAND
  6
CONTINUOUS
 62
     6
 10
34.880734698902558
 20
-8.2892064374961105
 30
0.0
 11
34.87972759476142
 21
-8.3370063572599946
 31
0.0
  0
LINE
  5
1427
  8
SAPA_FOGBAND
  6
CONTINUOUS
 62
     6
 10
30.788931103714919
 20
-8.3370063572599946
 30
0.0
 11
30.67165014604624
 21
-8.5415217871471043
 31
0.0
  0
LINE
  5
1428
  8
SAPA_FOGBAND
  6
CONTINUOUS
 62
     6
 10
34.87972759476142
 20
-8.3370063572599946
 30
0.0
 11
34.87541862651662
 21
-8.5415217871471043
 31
0.0
  0
LINE
  5
1429
  8
SAPA_FOGBAND
  6
CONTINUOUS
 62
     6
 10
30.67165014604624
 20
-8.5415217871471043
 30
0.0
 11
30.56112567893296
 21
-8.7342551971911462
 31
0.0
  0
LINE
  5
142A
  8
SAPA_FOGBAND
  6
CONTINUOUS
 62
     6
 10
34.87541862651662
 20
-8.5415217871471043
 30
0.0
 11
34.871357895528988
 21
-8.7342551971911462
 31
0.0
  0
LINE
  5
142B
  8
SAPA_FOGBAND
  6
CONTINUOUS
 62
     6
 10
30.56112567893296
 20
-8.7342551971911462
 30
0.0
 11
30.547499285678839
 21
-8.7580170058391502
 31
0.0
  0
LINE
  5
142C
  8
SAPA_FOGBAND
  6
CONTINUOUS
 62
     6
 10
34.871357895528988
 20
-8.7342551971911462
 30
0.0
 11
34.87085725418882
 21
-8.7580170058391502
 31
0.0
  0
LINE
  5
142D
  8
SAPA_FOGBAND
  6
CONTINUOUS
 62
     6
 10
30.547499285678839
 20
-8.7580170058391502
 30
0.0
 11
30.48954063812522
 21
-8.8590857381869093
 31
0.0
  0
LINE
  5
142E
  8
SAPA_FOGBAND
  6
CONTINUOUS
 62
     6
 10
34.340077074392703
 20
-8.7580170058391502
 30
0.0
 11
34.28211842683907
 21
-8.8590857381869093
 31
0.0
  0
LINE
  5
142F
  8
SAPA_FOGBAND
  6
CONTINUOUS
 62
     6
 10
34.39513949108278
 20
-8.7580170058391502
 30
0.0
 11
34.571383918611012
 21
-8.8590857381869093
 31
0.0
  0
LINE
  5
1430
  8
SAPA_FOGBAND
  6
CONTINUOUS
 62
     6
 10
34.87085725418882
 20
-8.7580170058391502
 30
0.0
 11
34.832105315749487
 21
-8.8590857381869093
 31
0.0
  0
LINE
  5
1431
  8
SAPA_FOGBAND
  6
CONTINUOUS
 62
     6
 10
30.48954063812522
 20
-8.8590857381869093
 30
0.0
 11
30.469837566472521
 21
-8.8934441050458304
 31
0.0
  0
LINE
  5
1432
  8
SAPA_FOGBAND
  6
CONTINUOUS
 62
     6
 10
34.28211842683907
 20
-8.8590857381869093
 30
0.0
 11
34.262415355186377
 21
-8.8934441050458304
 31
0.0
  0
LINE
  5
1433
  8
SAPA_FOGBAND
  6
CONTINUOUS
 62
     6
 10
34.571383918611012
 20
-8.8590857381869093
 30
0.0
 11
34.631298301201873
 21
-8.8934441050458304
 31
0.0
  0
LINE
  5
1434
  8
SAPA_FOGBAND
  6
CONTINUOUS
 62
     6
 10
34.832105315749487
 20
-8.8590857381869093
 30
0.0
 11
34.771328304063651
 21
-8.8934441050458304
 31
0.0
  0
LINE
  5
1435
  8
SAPA_FOGBAND
  6
CONTINUOUS
 62
     6
 10
30.469837566472521
 20
-8.8934441050458304
 30
0.0
 11
30.45899306294967
 21
-8.9123548331296973
 31
0.0
  0
LINE
  5
1436
  8
SAPA_FOGBAND
  6
CONTINUOUS
 62
     6
 10
34.262415355186377
 20
-8.8934441050458304
 30
0.0
 11
34.25157085166353
 21
-8.9123548331296973
 31
0.0
  0
LINE
  5
1437
  8
SAPA_FOGBAND
  6
CONTINUOUS
 62
     6
 10
34.771328304063651
 20
-8.8934441050458304
 30
0.0
 11
34.737876843857158
 21
-8.9123548331296973
 31
0.0
  0
LINE
  5
1438
  8
SAPA_FOGBAND
  6
CONTINUOUS
 62
     6
 10
34.737876843857158
 20
-8.9123548331296973
 30
0.0
 11
34.631298301201873
 21
-8.8934441050458304
 31
0.0
  0
LINE
  5
1439
  8
SAPA_FOGBAND
  6
CONTINUOUS
 62
     6
 10
30.45899306294967
 20
-8.9123548331296973
 30
0.0
 11
30.429341955206588
 21
-8.964060661315699
 31
0.0
  0
LINE
  5
143A
  8
SAPA_FOGBAND
  6
CONTINUOUS
 62
     6
 10
34.25157085166353
 20
-8.9123548331296973
 30
0.0
 11
34.221919743920438
 21
-8.964060661315699
 31
0.0
  0
LINE
  5
143B
  8
SAPA_FOGBAND
  6
CONTINUOUS
 62
     6
 10
30.429341955206588
 20
-8.964060661315699
 30
0.0
 11
30.40525784366616
 21
-9.0060587189974513
 31
0.0
  0
LINE
  5
143C
  8
SAPA_FOGBAND
  6
CONTINUOUS
 62
     6
 10
34.221919743920438
 20
-8.964060661315699
 30
0.0
 11
34.167625126319052
 21
-9.0060587189974513
 31
0.0
  0
LINE
  5
143D
  8
SAPA_FOGBAND
  6
CONTINUOUS
 62
     6
 10
30.40525784366616
 20
-9.0060587189974513
 30
0.0
 11
30.415375175085181
 21
-9.0118605810795902
 31
0.0
  0
LINE
  5
143E
  8
SAPA_FOGBAND
  6
CONTINUOUS
 62
     6
 10
34.167625126319052
 20
-9.0060587189974513
 30
0.0
 11
34.160124544137062
 21
-9.0118605810795902
 31
0.0
  0
LINE
  5
143F
  8
SAPA_FOGBAND
  6
CONTINUOUS
 62
     6
 10
30.415375175085181
 20
-9.0118605810795902
 30
0.0
 11
30.523725898406159
 21
-9.0739951427710821
 31
0.0
  0
LINE
  5
1440
  8
SAPA_FOGBAND
  6
CONTINUOUS
 62
     6
 10
34.160124544137062
 20
-9.0118605810795902
 30
0.0
 11
34.112766595605592
 21
-9.0739951427710821
 31
0.0
  0
LINE
  5
1441
  8
SAPA_FOGBAND
  6
CONTINUOUS
 62
     6
 10
30.523725898406159
 20
-9.0739951427710821
 30
0.0
 11
31.128815887516929
 21
-9.4209886847147573
 31
0.0
  0
LINE
  5
1442
  8
SAPA_FOGBAND
  6
CONTINUOUS
 62
     6
 10
34.112766595605592
 20
-9.0739951427710821
 30
0.0
 11
33.913780460786988
 21
-9.4209886847147573
 31
0.0
  0
LINE
  5
1443
  8
SAPA_FOGBAND
  6
CONTINUOUS
 62
     6
 10
31.128815887516929
 20
-9.4209886847147573
 30
0.0
 11
31.254815509273321
 21
-9.4932441439416841
 31
0.0
  0
LINE
  5
1444
  8
SAPA_FOGBAND
  6
CONTINUOUS
 62
     6
 10
33.913780460786988
 20
-9.4209886847147573
 30
0.0
 11
33.884071410690872
 21
-9.4932441439416841
 31
0.0
  0
LINE
  5
1445
  8
SAPA_FOGBAND
  6
CONTINUOUS
 62
     6
 10
31.254815509273321
 20
-9.4932441439416841
 30
0.0
 11
31.389919184452239
 21
-9.5707203931336977
 31
0.0
  0
LINE
  5
1446
  8
SAPA_FOGBAND
  6
CONTINUOUS
 62
     6
 10
33.884071410690872
 20
-9.4932441439416841
 30
0.0
 11
33.874026020860427
 21
-9.5707203931336977
 31
0.0
  0
LINE
  5
1447
  8
SAPA_FOGBAND
  6
CONTINUOUS
 62
     6
 10
31.389919184452239
 20
-9.5707203931336977
 30
0.0
 11
31.74655475337299
 21
-9.77523582302004
 31
0.0
  0
LINE
  5
1448
  8
SAPA_FOGBAND
  6
CONTINUOUS
 62
     6
 10
33.874026020860427
 20
-9.5707203931336977
 30
0.0
 11
33.75674506319217
 21
-9.77523582302004
 31
0.0
  0
LINE
  5
1449
  8
SAPA_FOGBAND
  6
CONTINUOUS
 62
     6
 10
31.74655475337299
 20
-9.77523582302004
 30
0.0
 11
39.042093972723038
 21
-13.95891930757335
 31
0.0
  0
LINE
  5
144A
  8
SAPA_FOGBAND
  6
CONTINUOUS
 62
     6
 10
33.75674506319217
 20
-9.77523582302004
 30
0.0
 11
41.052284282542523
 21
-13.95891930757335
 31
0.0
  0
LINE
  5
144B
  8
SAPA_FOGBAND
  6
CONTINUOUS
 62
     6
 10
41.052284282542523
 20
-13.95891930757335
 30
0.0
 11
40.554818945496883
 21
-14.826403162430781
 31
0.0
  0
LINE
  5
144C
  8
SAPA_FOGBAND
  6
CONTINUOUS
 62
     6
 10
40.554818945496883
 20
-14.826403162430781
 30
0.0
 11
39.042093972723038
 21
-13.95891930757335
 31
0.0
  0
ENDBLK
  5
144E
  8
0
  0
BLOCK
  8
0
  2
*X67
 70
     1
 10
0.0
 20
0.0
 30
0.0
  3
*X67
  1

  0
LINE
  5
1450
  8
0
 62
     0
 10
22.055907561184139
 20
0.3124394010020239
 30
0.0
 11
23.18962108980935
 21
0.7903885106867392
 31
0.0
  0
LINE
  5
1451
  8
0
 62
     0
 10
21.26589294470244
 20
0.840789160390699
 30
0.0
 11
22.979710299095359
 21
1.5632974995895941
 31
0.0
  0
LINE
  5
1452
  8
0
 62
     0
 10
21.688956580248089
 20
1.8805464807683441
 30
0.0
 11
22.46459093725775
 21
2.2075371543498359
 31
0.0
  0
ENDBLK
  5
1454
  8
0
  0
BLOCK
  8
0
  2
*X68
 70
     1
 10
0.0
 20
0.0
 30
0.0
  3
*X68
  1

  0
LINE
  5
1456
  8
0
 62
     0
 10
21.421462165657939
 20
1.6496814893528431
 30
0.0
 11
21.671204869553829
 21
1.7549676131958161
 31
0.0
  0
LINE
  5
1457
  8
0
 62
     0
 10
20.38170484528024
 20
2.0727451248985171
 30
0.0
 11
22.094268505099588
 21
2.7947249335735189
 31
0.0
  0
LINE
  5
1458
  8
0
 62
     0
 10
19.993903679315849
 20
2.7706593780716839
 30
0.0
 11
21.865375986232099
 21
3.5596316363236151
 31
0.0
  0
ENDBLK
  5
145A
  8
0
  0
BLOCK
  8
0
  2
*X69
 70
     1
 10
0.0
 20
0.0
 30
0.0
  3
*X69
  1

  0
LINE
  5
145C
  8
0
 62
     0
 10
20.114427705382809
 20
0.2372611831334552
 30
0.0
 11
21.248141234008191
 21
0.7152102928182558
 31
0.0
  0
LINE
  5
145D
  8
0
 62
     0
 10
19.707644811264849
 20
0.9271731501539193
 30
0.0
 11
21.421462165657939
 21
1.6496814893528431
 31
0.0
  0
LINE
  5
145E
  8
0
 62
     0
 10
19.606070488270571
 20
1.7457544513169969
 30
0.0
 11
20.38170484528024
 21
2.0727451248985171
 31
0.0
  0
ENDBLK
  5
1460
  8
0
  0
BLOCK
  8
0
  2
*X70
 70
     1
 10
0.0
 20
0.0
 30
0.0
  3
*X70
  1

  0
LINE
  5
1462
  8
0
 62
     0
 10
34.459718832580677
 20
-10.079889035343109
 30
0.0
 11
36.067121493665702
 21
-9.5858472464447573
 31
0.0
  0
LINE
  5
1463
  8
0
 62
     0
 10
35.245796764707052
 20
-9.007889273049642
 30
0.0
 11
36.645208752057052
 21
-8.5777742692773131
 31
0.0
  0
LINE
  5
1464
  8
0
 62
     0
 10
33.972331856218261
 20
-9.3992939264825281
 30
0.0
 11
34.825703597642189
 21
-9.1370066278887805
 31
0.0
  0
LINE
  5
1465
  8
0
 62
     0
 10
35.747912867933451
 20
-8.0231663414625132
 30
0.0
 11
37.22329601044823
 21
-7.5697012921098974
 31
0.0
  0
LINE
  5
1466
  8
0
 62
     0
 10
35.574325844359407
 20
-7.246123532355397
 30
0.0
 11
36.997294017825539
 21
-6.808768438336755
 31
0.0
  0
LINE
  5
1467
  8
0
 62
     0
 10
29.930064193886491
 20
-8.9809104593148561
 30
0.0
 11
30.384499735884511
 21
-8.8412378349357539
 31
0.0
  0
LINE
  5
1468
  8
0
 62
     0
 10
34.745786255501343
 20
-6.6703830756893288
 30
0.0
 11
36.054532519193913
 21
-6.2681345532859316
 31
0.0
  0
LINE
  5
1469
  8
0
 62
     0
 10
28.987302695254812
 20
-8.4402765742640611
 30
0.0
 11
31.983397682805219
 21
-7.5194145132545884
 31
0.0
  0
LINE
  5
146A
  8
0
 62
     0
 10
30.141262265316868
 20
-7.255206884373222
 30
0.0
 11
31.5406742526668
 21
-6.8250918806009224
 31
0.0
  0
LINE
  5
146B
  8
0
 62
     0
 10
33.803024756869831
 20
-6.1297491906385337
 30
0.0
 11
35.11177102056223
 21
-5.727500668235165
 31
0.0
  0
LINE
  5
146C
  8
0
 62
     0
 10
28.044541196623239
 20
-7.8996426892132368
 30
0.0
 11
29.746618140713451
 21
-7.3765023718186171
 31
0.0
  0
LINE
  5
146D
  8
0
 62
     0
 10
30.71934952370793
 20
-6.2471339072058916
 30
0.0
 11
34.169009521930597
 21
-5.1868667831843993
 31
0.0
  0
LINE
  5
146E
  8
0
 62
     0
 10
27.10177969799167
 20
-7.3590088041624417
 30
0.0
 11
28.803149840791828
 21
-6.836085725038088
 31
0.0
  0
LINE
  5
146F
  8
0
 62
     0
 10
31.4436208312685
 20
-5.194130664020804
 30
0.0
 11
33.028142299790829
 21
-4.7071215033365661
 31
0.0
  0
LINE
  5
1470
  8
0
 62
     0
 10
26.159018199360052
 20
-6.818374919111676
 30
0.0
 11
27.86038834216026
 21
-6.295451839987293
 31
0.0
  0
LINE
  5
1471
  8
0
 62
     0
 10
25.216256700728479
 20
-6.2777410340608517
 30
0.0
 11
26.917626843528641
 21
-5.7548179549364704
 31
0.0
  0
LINE
  5
1472
  8
0
 62
     0
 10
24.27349520209685
 20
-5.7371071490100567
 30
0.0
 11
25.974865344897069
 21
-5.2141840698856754
 31
0.0
  0
LINE
  5
1473
  8
0
 62
     0
 10
23.330733703465292
 20
-5.1964732639592341
 30
0.0
 11
25.0321038462655
 21
-4.6735501848348511
 31
0.0
  0
LINE
  5
1474
  8
0
 62
     0
 10
22.397364554037271
 20
-4.6529526019266418
 30
0.0
 11
24.089342347633821
 21
-4.1329162997840854
 31
0.0
  0
LINE
  5
1475
  8
0
 62
     0
 10
21.855731877585072
 20
-3.98903013108088
 30
0.0
 11
23.14827908166399
 21
-3.5917604559717802
 31
0.0
  0
LINE
  5
1476
  8
0
 62
     0
 10
21.670267561273931
 20
-3.2156378565243808
 30
0.0
 11
22.921390845874551
 21
-2.8310999926644049
 31
0.0
  0
LINE
  5
1477
  8
0
 62
     0
 10
21.52592698858723
 20
-2.4296060309964949
 30
0.0
 11
22.77705027318785
 21
-2.045068167136491
 31
0.0
  0
LINE
  5
1478
  8
0
 62
     0
 10
21.381586415900468
 20
-1.6435742054685529
 30
0.0
 11
22.632709700501088
 21
-1.259036341608549
 31
0.0
  0
LINE
  5
1479
  8
0
 62
     0
 10
20.296453246858619
 20
-1.1466988362151931
 30
0.0
 11
22.92586873531474
 21
-0.338537220508357
 31
0.0
  0
LINE
  5
147A
  8
0
 62
     0
 10
20.74877720160509
 20
-0.1772797253219949
 30
0.0
 11
22.007152351077309
 21
0.2094870288968025
 31
0.0
  0
ENDBLK
  5
147C
  8
0
  0
BLOCK
  8
0
  2
*X71
 70
     1
 10
0.0
 20
0.0
 30
0.0
  3
*X71
  1

  0
LINE
  5
1492
  8
0
 62
     0
 10
19.483023046144861
 20
-2.336725253474583
 30
0.0
 11
19.85485809114175
 21
-1.9648902084776401
 31
0.0
  0
LINE
  5
1493
  8
0
 62
     0
 10
18.360491031011179
 20
-2.3367252534745262
 30
0.0
 11
19.794498253062379
 21
-0.9027180314233191
 31
0.0
  0
LINE
  5
1494
  8
0
 62
     0
 10
17.23795901587761
 20
-2.3367252534745262
 30
0.0
 11
19.309875605219808
 21
-0.2648086641323175
 31
0.0
  0
LINE
  5
1495
  8
0
 62
     0
 10
17.193664654678969
 20
-1.258487599539478
 30
0.0
 11
19.093776265817041
 21
0.6416240115985943
 31
0.0
  0
LINE
  5
1496
  8
0
 62
     0
 10
17.193664654678908
 20
-0.1359555844059059
 30
0.0
 11
17.992894985606078
 21
0.6632747465212674
 31
0.0
  0
ENDBLK
  5
1498
  8
0
  0
BLOCK
  8
0
  2
*X72
 70
     1
 10
0.0
 20
0.0
 30
0.0
  3
*X72
  1

  0
LINE
  5
149A
  8
0
 62
     0
 10
38.99493458087818
 20
2.0632747465253942
 30
0.0
 11
39.193664654678862
 21
2.262004820326069
 31
0.0
  0
LINE
  5
149B
  8
0
 62
     0
 10
37.893664654678837
 20
2.0845368354596872
 30
0.0
 11
39.193664654678912
 21
3.3845368354597549
 31
0.0
  0
LINE
  5
149C
  8
0
 62
     0
 10
37.749870550611028
 20
3.063274746525507
 30
0.0
 11
39.193664654678969
 21
4.5070688505933836
 31
0.0
  0
LINE
  5
149D
  8
0
 62
     0
 10
37.893664654679021
 20
4.329600865727115
 30
0.0
 11
39.193664654678912
 21
5.6296008657270127
 31
0.0
  0
LINE
  5
149E
  8
0
 62
     0
 10
36.693664654678969
 20
3.12960086572707
 30
0.0
 11
37.827338535477338
 21
4.2632747465254388
 31
0.0
  0
LINE
  5
149F
  8
0
 62
     0
 10
37.893664654678958
 20
5.4521328808606881
 30
0.0
 11
39.104806520343693
 21
6.6632747465254161
 31
0.0
  0
LINE
  5
14A0
  8
0
 62
     0
 10
36.693664654678912
 20
4.2521328808606418
 30
0.0
 11
36.704806520343773
 21
4.2632747465254957
 31
0.0
  0
LINE
  5
14A1
  8
0
 62
     0
 10
36.782274505210133
 20
5.4632747465254852
 30
0.0
 11
37.982274505210107
 21
6.6632747465254729
 31
0.0
  0
LINE
  5
14A2
  8
0
 62
     0
 10
35.659742490076439
 20
5.4632747465254283
 30
0.0
 11
36.859742490076428
 21
6.6632747465254161
 31
0.0
  0
LINE
  5
14A3
  8
0
 62
     0
 10
34.537210474942754
 20
5.4632747465254852
 30
0.0
 11
35.737210474942692
 21
6.6632747465254161
 31
0.0
  0
LINE
  5
14A4
  8
0
 62
     0
 10
33.414678459809132
 20
5.4632747465254852
 30
0.0
 11
34.614678459809113
 21
6.6632747465254729
 31
0.0
  0
LINE
  5
14A5
  8
0
 62
     0
 10
32.292146444675502
 20
5.4632747465254852
 30
0.0
 11
33.492146444675427
 21
6.6632747465254161
 31
0.0
  0
LINE
  5
14A6
  8
0
 62
     0
 10
31.169614429541809
 20
5.4632747465254283
 30
0.0
 11
32.369614429541798
 21
6.6632747465254161
 31
0.0
  0
LINE
  5
14A7
  8
0
 62
     0
 10
30.047082414408241
 20
5.4632747465254852
 30
0.0
 11
31.247082414408229
 21
6.6632747465254729
 31
0.0
  0
LINE
  5
14A8
  8
0
 62
     0
 10
28.924550399274551
 20
5.4632747465254283
 30
0.0
 11
30.12455039927454
 21
6.6632747465254161
 31
0.0
  0
LINE
  5
14A9
  8
0
 62
     0
 10
24.12455039927039
 20
0.6632747465212674
 30
0.0
 11
24.793664654678992
 21
1.3323890019298681
 31
0.0
  0
LINE
  5
14AA
  8
0
 62
     0
 10
27.802018384140862
 20
5.4632747465253706
 30
0.0
 11
29.002018384140971
 21
6.6632747465254729
 31
0.0
  0
LINE
  5
14AB
  8
0
 62
     0
 10
23.275748220844381
 20
0.9370045832288838
 30
0.0
 11
24.793664654678992
 21
2.454921017063497
 31
0.0
  0
LINE
  5
14AC
  8
0
 62
     0
 10
26.679486369007289
 20
5.4632747465254283
 30
0.0
 11
27.879486369007282
 21
6.6632747465254161
 31
0.0
  0
LINE
  5
14AD
  8
0
 62
     0
 10
22.981363435392609
 20
1.765151812910744
 30
0.0
 11
24.793664654678992
 21
3.5774530321971261
 31
0.0
  0
LINE
  5
14AE
  8
0
 62
     0
 10
25.556954353873611
 20
5.4632747465254852
 30
0.0
 11
26.756954353873599
 21
6.6632747465254729
 31
0.0
  0
LINE
  5
14AF
  8
0
 62
     0
 10
22.44409166248948
 20
2.3504120551413621
 30
0.0
 11
24.356954353873618
 21
4.2632747465254957
 31
0.0
  0
LINE
  5
14B0
  8
0
 62
     0
 10
24.434422338739981
 20
5.4632747465254852
 30
0.0
 11
25.63442233873997
 21
6.6632747465254729
 31
0.0
  0
LINE
  5
14B1
  8
0
 62
     0
 10
21.677843658933568
 20
2.7066960667190751
 30
0.0
 11
23.393664654678961
 21
4.4225170624644639
 31
0.0
  0
LINE
  5
14B2
  8
0
 62
     0
 10
20.4907599413242
 20
2.6421443642433351
 30
0.0
 11
24.511890323606281
 21
6.6632747465254161
 31
0.0
  0
LINE
  5
14B3
  8
0
 62
     0
 10
18.511890323602071
 20
0.6632747465212106
 30
0.0
 11
19.2147950369569
 21
1.366179459876036
 31
0.0
  0
LINE
  5
14B4
  8
0
 62
     0
 10
17.389358308468442
 20
0.6632747465212106
 30
0.0
 11
23.389358308472652
 21
6.6632747465254161
 31
0.0
  0
LINE
  5
14B5
  8
0
 62
     0
 10
17.193664654678908
 20
1.5901131078653059
 30
0.0
 11
22.266826293339019
 21
6.6632747465254161
 31
0.0
  0
LINE
  5
14B6
  8
0
 62
     0
 10
17.193664654678908
 20
2.7126451229989348
 30
0.0
 11
21.14429427820539
 21
6.6632747465254161
 31
0.0
  0
LINE
  5
14B7
  8
0
 62
     0
 10
17.193664654678969
 20
3.8351771381326212
 30
0.0
 11
20.021762263071761
 21
6.6632747465254161
 31
0.0
  0
LINE
  5
14B8
  8
0
 62
     0
 10
17.193664654678908
 20
4.9577091532663067
 30
0.0
 11
18.899230247938021
 21
6.6632747465254161
 31
0.0
  0
LINE
  5
14B9
  8
0
 62
     0
 10
17.193664654678908
 20
6.0802411683999358
 30
0.0
 11
17.776698232804449
 21
6.6632747465254729
 31
0.0
  0
ENDBLK
  5
14BB
  8
0
  0
BLOCK
  8
0
  2
*X73
 70
     1
 10
0.0
 20
0.0
 30
0.0
  3
*X73
  1

  0
LINE
  5
14BD
  8
0
 62
     0
 10
38.117466596011923
 20
2.0632747465253942
 30
0.0
 11
39.193664654678969
 21
3.1394728051924399
 31
0.0
  0
LINE
  5
14BE
  8
0
 62
     0
 10
37.893664654678958
 20
2.9620048203261709
 30
0.0
 11
39.193664654678862
 21
4.2620048203260694
 31
0.0
  0
LINE
  5
14BF
  8
0
 62
     0
 10
36.872402565744672
 20
3.063274746525507
 30
0.0
 11
39.193664654678912
 21
5.3845368354597554
 31
0.0
  0
LINE
  5
14C0
  8
0
 62
     0
 10
37.893664654678958
 20
5.2070688505934291
 30
0.0
 11
39.193664654678969
 21
6.5070688505933836
 31
0.0
  0
LINE
  5
14C1
  8
0
 62
     0
 10
36.693664654678912
 20
4.0070688505933836
 30
0.0
 11
36.949870550610967
 21
4.2632747465254388
 31
0.0
  0
LINE
  5
14C2
  8
0
 62
     0
 10
37.027338535477377
 20
5.4632747465254852
 30
0.0
 11
38.227338535477372
 21
6.6632747465254729
 31
0.0
  0
LINE
  5
14C3
  8
0
 62
     0
 10
35.904806520343698
 20
5.4632747465254283
 30
0.0
 11
37.104806520343743
 21
6.6632747465254729
 31
0.0
  0
LINE
  5
14C4
  8
0
 62
     0
 10
34.782274505210133
 20
5.4632747465254852
 30
0.0
 11
35.982274505210121
 21
6.6632747465254729
 31
0.0
  0
LINE
  5
14C5
  8
0
 62
     0
 10
33.659742490076439
 20
5.4632747465254283
 30
0.0
 11
34.859742490076428
 21
6.6632747465254161
 31
0.0
  0
LINE
  5
14C6
  8
0
 62
     0
 10
32.537210474942697
 20
5.4632747465254283
 30
0.0
 11
33.737210474942692
 21
6.6632747465254161
 31
0.0
  0
LINE
  5
14C7
  8
0
 62
     0
 10
31.414678459809121
 20
5.4632747465254852
 30
0.0
 11
32.61467845980912
 21
6.6632747465254729
 31
0.0
  0
LINE
  5
14C8
  8
0
 62
     0
 10
30.292146444675438
 20
5.4632747465254283
 30
0.0
 11
31.492146444675431
 21
6.6632747465254161
 31
0.0
  0
LINE
  5
14C9
  8
0
 62
     0
 10
29.169614429541809
 20
5.4632747465254283
 30
0.0
 11
30.369614429541802
 21
6.6632747465254161
 31
0.0
  0
LINE
  5
14CA
  8
0
 62
     0
 10
24.369614429537648
 20
0.6632747465212674
 30
0.0
 11
24.793664654678992
 21
1.0873249716626101
 31
0.0
  0
LINE
  5
14CB
  8
0
 62
     0
 10
28.04708241440818
 20
5.4632747465254283
 30
0.0
 11
29.247082414408169
 21
6.6632747465254161
 31
0.0
  0
LINE
  5
14CC
  8
0
 62
     0
 10
23.293159103055299
 20
0.7093514351725503
 30
0.0
 11
24.793664654678938
 21
2.2098569867961819
 31
0.0
  0
LINE
  5
14CD
  8
0
 62
     0
 10
26.924550399274551
 20
5.4632747465254283
 30
0.0
 11
28.12455039927454
 21
6.6632747465254161
 31
0.0
  0
LINE
  5
14CE
  8
0
 62
     0
 10
23.069200762413061
 20
1.607925109663938
 30
0.0
 11
24.793664654678992
 21
3.3323890019298679
 31
0.0
  0
LINE
  5
14CF
  8
0
 62
     0
 10
25.802018384140929
 20
5.4632747465254283
 30
0.0
 11
27.002018384140911
 21
6.6632747465254161
 31
0.0
  0
LINE
  5
14D0
  8
0
 62
     0
 10
22.579670769607329
 20
2.240927131991838
 30
0.0
 11
24.60201838414093
 21
4.2632747465254388
 31
0.0
  0
LINE
  5
14D1
  8
0
 62
     0
 10
24.679486369007289
 20
5.4632747465254283
 30
0.0
 11
25.879486369007282
 21
6.6632747465254161
 31
0.0
  0
LINE
  5
14D2
  8
0
 62
     0
 10
21.868203785183258
 20
2.65199216270139
 30
0.0
 11
23.479486369007301
 21
4.2632747465254388
 31
0.0
  0
LINE
  5
14D3
  8
0
 62
     0
 10
20.82419744003613
 20
2.7305178326880082
 30
0.0
 11
23.393664654678961
 21
5.2999850473308348
 31
0.0
  0
LINE
  5
14D4
  8
0
 62
     0
 10
23.556954353873611
 20
5.4632747465254852
 30
0.0
 11
24.756954353873599
 21
6.6632747465254729
 31
0.0
  0
LINE
  5
14D5
  8
0
 62
     0
 10
18.756954353869389
 20
0.6632747465212674
 30
0.0
 11
19.126421568512232
 21
1.032741961164106
 31
0.0
  0
LINE
  5
14D6
  8
0
 62
     0
 10
17.6344223387357
 20
0.6632747465212106
 30
0.0
 11
23.63442233873997
 21
6.6632747465254729
 31
0.0
  0
LINE
  5
14D7
  8
0
 62
     0
 10
17.193664654678908
 20
1.3450490775980479
 30
0.0
 11
22.511890323606341
 21
6.6632747465254729
 31
0.0
  0
LINE
  5
14D8
  8
0
 62
     0
 10
17.193664654678908
 20
2.467581092731677
 30
0.0
 11
21.389358308472708
 21
6.6632747465254729
 31
0.0
  0
LINE
  5
14D9
  8
0
 62
     0
 10
17.193664654678908
 20
3.5901131078653061
 30
0.0
 11
20.266826293339079
 21
6.6632747465254729
 31
0.0
  0
LINE
  5
14DA
  8
0
 62
     0
 10
17.193664654678969
 20
4.7126451229989916
 30
0.0
 11
19.14429427820545
 21
6.6632747465254729
 31
0.0
  0
LINE
  5
14DB
  8
0
 62
     0
 10
17.193664654678969
 20
5.8351771381326207
 30
0.0
 11
18.021762263071761
 21
6.6632747465254161
 31
0.0
  0
ENDBLK
  5
14DD
  8
0
  0
ENDSEC
  0
SECTION
  2
ENTITIES
  0
POLYLINE
  5
67B
  8
SAPA_LIGHT
 66
     1
 10
0.0
 20
0.0
 30
0.0
  0
VERTEX
  5
B94
  8
SAPA_LIGHT
 10
57.259913930295419
 20
14.72854237866232
 30
0.0
  0
VERTEX
  5
B95
  8
SAPA_LIGHT
 10
57.26280549655533
 20
14.72854237866232
 30
0.0
  0
SEQEND
  5
B96
  8
SAPA_LIGHT
  0
POLYLINE
  5
67C
  8
SAPA_LIGHT
 66
     1
 10
0.0
 20
0.0
 30
0.0
 70
     1
  0
VERTEX
  5
B97
  8
SAPA_LIGHT
 10
16.124445614674919
 20
101.1415041542602
 30
0.0
  0
VERTEX
  5
B98
  8
SAPA_LIGHT
 10
22.124445614674929
 20
101.1415041542602
 30
0.0
  0
VERTEX
  5
B99
  8
SAPA_LIGHT
 10
22.124445614674929
 20
133.64778525815311
 30
0.0
  0
VERTEX
  5
B9A
  8
SAPA_LIGHT
 10
16.124445614674919
 20
133.64778525815311
 30
0.0
  0
SEQEND
  5
B9B
  8
SAPA_LIGHT
  0
POLYLINE
  5
682
  8
SAPA_GLAS
 62
     6
 66
     1
 10
0.0
 20
0.0
 30
0.0
 70
     1
  0
VERTEX
  5
B9C
  8
SAPA_GLAS
 62
     6
 10
14.698764336947569
 20
98.863932876606697
 30
0.0
  0
VERTEX
  5
B9D
  8
SAPA_GLAS
 62
     6
 10
14.698764336947569
 20
96.863932876606711
 30
0.0
  0
VERTEX
  5
B9E
  8
SAPA_GLAS
 62
     6
 10
23.698764336947569
 20
96.863932876606711
 30
0.0
  0
VERTEX
  5
B9F
  8
SAPA_GLAS
 62
     6
 10
23.698764336947569
 20
98.863932876606697
 30
0.0
  0
SEQEND
  5
BA0
  8
SAPA_GLAS
 62
     6
  0
INSERT
  5
751
  8
0
  2
*U37
 10
0.0
 20
0.0
 30
0.0
  0
POLYLINE
  5
7B1
  8
SAPA_LIGHT
 66
     1
 10
0.0
 20
0.0
 30
0.0
  0
VERTEX
  5
BA5
  8
SAPA_LIGHT
 10
22.124445614674929
 20
117.8564195406268
 30
0.0
  0
VERTEX
  5
BA6
  8
SAPA_LIGHT
 10
57.229418158686549
 20
117.8564195406269
 30
0.0
  0
VERTEX
  5
BA7
  8
SAPA_LIGHT
 10
57.229418158686549
 20
95.563526321811139
 30
0.0
  0
VERTEX
  5
BA8
  8
SAPA_LIGHT
 10
61.729418158686528
 20
95.563526321811111
 30
0.0
  0
VERTEX
  5
BA9
  8
SAPA_LIGHT
 10
61.729418158686613
 20
-2.143580459375463
 30
0.0
  0
VERTEX
  5
BAA
  8
SAPA_LIGHT
 10
1.729418158686584
 20
-2.143580459375463
 30
0.0
  0
VERTEX
  5
BAB
  8
SAPA_LIGHT
 10
1.729418158686556
 20
95.563526321811111
 30
0.0
  0
VERTEX
  5
BAC
  8
SAPA_LIGHT
 10
6.2294181586865269
 20
95.563526321811139
 30
0.0
  0
VERTEX
  5
BAD
  8
SAPA_LIGHT
 10
6.2294181586865562
 20
117.8564195406269
 30
0.0
  0
VERTEX
  5
BAE
  8
SAPA_LIGHT
 10
16.196698093606312
 20
117.8564195406268
 30
0.0
  0
SEQEND
  5
BAF
  8
SAPA_LIGHT
  0
LINE
  5
835
  8
SAPA_ANSLUTNING
 10
6.1411478027057447
 20
-14.424514183259101
 30
0.0
 11
61.687928706410389
 21
-14.424514183259101
 31
0.0
  0
LINE
  5
84D
  8
SAPA_LIGHT
 10
6.1411478027057447
 20
-14.424514183259101
 30
0.0
 11
61.687928706410389
 21
-14.424514183259101
 31
0.0
  0
LINE
  5
B24
  8
SAPA_PROFIL
 10
10.729418158691489
 20
108.4597499189106
 30
0.0
 11
10.729418158691489
 21
108.4597499189106
 31
0.0
  0
POLYLINE
  5
B25
  8
SAPA_PROFIL
 66
     1
 10
0.0
 20
0.0
 30
0.0
 70
     1
  0
VERTEX
  5
10EC
  8
SAPA_PROFIL
 10
29.729418158686489
 20
92.459749918906596
 30
0.0
 42
-0.4142135623730951
  0
VERTEX
  5
10ED
  8
SAPA_PROFIL
 10
30.02941815868644
 20
92.759749918906678
 30
0.0
  0
VERTEX
  5
10EE
  8
SAPA_PROFIL
 10
30.863392754901501
 20
92.759749918906678
 30
0.0
  0
VERTEX
  5
10EF
  8
SAPA_PROFIL
 10
31.729418158686489
 20
93.259749918906664
 30
0.0
  0
VERTEX
  5
10F0
  8
SAPA_PROFIL
 10
32.59544356247045
 20
92.759749918906678
 30
0.0
  0
VERTEX
  5
10F1
  8
SAPA_PROFIL
 10
33.429418158686531
 20
92.759749918906678
 30
0.0
 42
-0.4142135623730951
  0
VERTEX
  5
10F2
  8
SAPA_PROFIL
 10
33.729418158686492
 20
92.459749918906596
 30
0.0
  0
VERTEX
  5
10F3
  8
SAPA_PROFIL
 10
33.729418158686492
 20
88.759749918906678
 30
0.0
  0
VERTEX
  5
10F4
  8
SAPA_PROFIL
 10
34.729418158686492
 20
87.759749918906678
 30
0.0
  0
VERTEX
  5
10F5
  8
SAPA_PROFIL
 10
48.829418158686387
 20
87.759749918906678
 30
0.0
 42
-0.4142135623730951
  0
VERTEX
  5
10F6
  8
SAPA_PROFIL
 10
49.129418158686462
 20
87.459749918906596
 30
0.0
  0
VERTEX
  5
10F7
  8
SAPA_PROFIL
 10
49.129418158686462
 20
84.059749918906647
 30
0.0
 42
0.4142135623730951
  0
VERTEX
  5
10F8
  8
SAPA_PROFIL
 10
49.429418158686531
 20
83.759749918906678
 30
0.0
  0
VERTEX
  5
10F9
  8
SAPA_PROFIL
 10
51.02941815868644
 20
83.759749918906678
 30
0.0
 42
0.4142135623730951
  0
VERTEX
  5
10FA
  8
SAPA_PROFIL
 10
51.329418158686387
 20
84.059749918906647
 30
0.0
  0
VERTEX
  5
10FB
  8
SAPA_PROFIL
 10
51.329418158686387
 20
87.459749918906596
 30
0.0
 42
-0.4142135623730951
  0
VERTEX
  5
10FC
  8
SAPA_PROFIL
 10
51.629418158686462
 20
87.759749918906678
 30
0.0
  0
VERTEX
  5
10FD
  8
SAPA_PROFIL
 10
58.429418158686531
 20
87.759749918906678
 30
0.0
 42
-0.4142135623730951
  0
VERTEX
  5
10FE
  8
SAPA_PROFIL
 10
58.729418158686492
 20
87.459749918906596
 30
0.0
  0
VERTEX
  5
10FF
  8
SAPA_PROFIL
 10
58.729418158686492
 20
11.259749918906691
 30
0.0
 42
-0.4142135623730951
  0
VERTEX
  5
1100
  8
SAPA_PROFIL
 10
58.429418158686531
 20
10.959749918906621
 30
0.0
  0
VERTEX
  5
1101
  8
SAPA_PROFIL
 10
51.629418158686462
 20
10.959749918906621
 30
0.0
 42
-0.4142135623730951
  0
VERTEX
  5
1102
  8
SAPA_PROFIL
 10
51.329418158686387
 20
11.259749918906691
 30
0.0
  0
VERTEX
  5
1103
  8
SAPA_PROFIL
 10
51.329418158686387
 20
14.65974991890667
 30
0.0
 42
0.4142135623730951
  0
VERTEX
  5
1104
  8
SAPA_PROFIL
 10
51.02941815868644
 20
14.959749918906621
 30
0.0
  0
VERTEX
  5
1105
  8
SAPA_PROFIL
 10
49.429418158686531
 20
14.95974991890674
 30
0.0
 42
0.4142135623730951
  0
VERTEX
  5
1106
  8
SAPA_PROFIL
 10
49.129418158686462
 20
14.65974991890667
 30
0.0
  0
VERTEX
  5
1107
  8
SAPA_PROFIL
 10
49.129418158686462
 20
10.05974991890664
 30
0.0
 42
-0.4142135623730951
  0
VERTEX
  5
1108
  8
SAPA_PROFIL
 10
48.829418158686387
 20
9.7597499189066923
 30
0.0
  0
VERTEX
  5
1109
  8
SAPA_PROFIL
 10
14.629418158686461
 20
9.7597499189066923
 30
0.0
 42
-0.4142135623730951
  0
VERTEX
  5
110A
  8
SAPA_PROFIL
 10
14.329418158686391
 20
10.05974991890664
 30
0.0
  0
VERTEX
  5
110B
  8
SAPA_PROFIL
 10
14.329418158686391
 20
14.65974991890667
 30
0.0
 42
0.4142135623730951
  0
VERTEX
  5
110C
  8
SAPA_PROFIL
 10
14.02941815868644
 20
14.95974991890674
 30
0.0
  0
VERTEX
  5
110D
  8
SAPA_PROFIL
 10
12.429418158686531
 20
14.959749918906621
 30
0.0
 42
0.4142135623730951
  0
VERTEX
  5
110E
  8
SAPA_PROFIL
 10
12.129418158686461
 20
14.65974991890667
 30
0.0
  0
VERTEX
  5
110F
  8
SAPA_PROFIL
 10
12.129418158686461
 20
11.259749918906691
 30
0.0
 42
-0.4142135623730951
  0
VERTEX
  5
1110
  8
SAPA_PROFIL
 10
11.829418158686391
 20
10.959749918906621
 30
0.0
  0
VERTEX
  5
1111
  8
SAPA_PROFIL
 10
5.0294181586864388
 20
10.959749918906621
 30
0.0
 42
-0.4142135623730951
  0
VERTEX
  5
1112
  8
SAPA_PROFIL
 10
4.7294181586864852
 20
11.259749918906691
 30
0.0
  0
VERTEX
  5
1113
  8
SAPA_PROFIL
 10
4.7294181586864852
 20
88.259749918906692
 30
0.0
  0
VERTEX
  5
1114
  8
SAPA_PROFIL
 10
8.1415501930424625
 20
91.671881953262655
 30
0.0
 42
-0.1989123673797207
  0
VERTEX
  5
1115
  8
SAPA_PROFIL
 10
8.3536822273983944
 20
91.759749918906692
 30
0.0
  0
VERTEX
  5
1116
  8
SAPA_PROFIL
 10
11.829418158686391
 20
91.759749918906692
 30
0.0
 42
-0.4142135623730951
  0
VERTEX
  5
1117
  8
SAPA_PROFIL
 10
12.129418158686461
 20
91.459749918906624
 30
0.0
  0
VERTEX
  5
1118
  8
SAPA_PROFIL
 10
12.129418158686461
 20
84.059749918906647
 30
0.0
 42
0.4142135623730951
  0
VERTEX
  5
1119
  8
SAPA_PROFIL
 10
12.429418158686531
 20
83.759749918906707
 30
0.0
  0
VERTEX
  5
111A
  8
SAPA_PROFIL
 10
14.02941815868644
 20
83.759749918906707
 30
0.0
 42
0.4142135623730951
  0
VERTEX
  5
111B
  8
SAPA_PROFIL
 10
14.329418158686391
 20
84.059749918906647
 30
0.0
  0
VERTEX
  5
111C
  8
SAPA_PROFIL
 10
14.329418158686391
 20
92.459749918906624
 30
0.0
 42
-0.4142135623730951
  0
VERTEX
  5
111D
  8
SAPA_PROFIL
 10
14.629418158686461
 20
92.759749918906678
 30
0.0
  0
VERTEX
  5
111E
  8
SAPA_PROFIL
 10
27.429418158686531
 20
92.759749918906678
 30
0.0
 42
-0.4142135623730951
  0
VERTEX
  5
111F
  8
SAPA_PROFIL
 10
27.729418158686482
 20
92.459749918906624
 30
0.0
  0
VERTEX
  5
1120
  8
SAPA_PROFIL
 10
27.729418158686482
 20
88.459749918906624
 30
0.0
 42
0.6681786379192989
  0
VERTEX
  5
1121
  8
SAPA_PROFIL
 10
28.582971549279819
 20
88.106196528313404
 30
0.0
  0
VERTEX
  5
1122
  8
SAPA_PROFIL
 10
29.729418158686489
 20
89.252643137719588
 30
0.0
  0
SEQEND
  5
1123
  8
SAPA_PROFIL
  0
POLYLINE
  5
B26
  8
SAPA_PROFIL
 66
     1
 10
0.0
 20
0.0
 30
0.0
 70
     1
  0
VERTEX
  5
1124
  8
SAPA_PROFIL
 10
1.729418158686485
 20
3.0023906060256702
 30
0.0
 42
0.1989123673796595
  0
VERTEX
  5
1125
  8
SAPA_PROFIL
 10
2.608097815126825
 20
0.8810702624660109
 30
0.0
  0
VERTEX
  5
1126
  8
SAPA_PROFIL
 10
5.4365249398724691
 20
-1.9473568622804289
 30
0.0
 42
0.1989123673796811
  0
VERTEX
  5
1127
  8
SAPA_PROFIL
 10
6.1436317210594771
 20
-2.2402500810933068
 30
0.0
  0
VERTEX
  5
1128
  8
SAPA_PROFIL
 10
8.529418158686326
 20
-2.240250081093762
 30
0.0
 42
0.2504916501726618
  0
VERTEX
  5
1129
  8
SAPA_PROFIL
 10
9.5294181586865534
 20
-1.240250081093307
 30
0.0
  0
VERTEX
  5
112A
  8
SAPA_PROFIL
 10
9.5294181586866671
 20
-0.540250081093376
 30
0.0
 42
0.4142135623730951
  0
VERTEX
  5
112B
  8
SAPA_PROFIL
 10
9.2294181586865989
 20
-0.2402500810933077
 30
0.0
  0
VERTEX
  5
112C
  8
SAPA_PROFIL
 10
8.7794181586865534
 20
-0.2402500810933077
 30
0.0
 42
-0.4142135623730951
  0
VERTEX
  5
112D
  8
SAPA_PROFIL
 10
8.4794181586865989
 20
0.0597499189066468
 30
0.0
  0
VERTEX
  5
112E
  8
SAPA_PROFIL
 10
8.4794181586865989
 20
0.7597499189065787
 30
0.0
 42
-0.4142135623731506
  0
VERTEX
  5
112F
  8
SAPA_PROFIL
 10
8.7794181586865534
 20
1.0597499189066459
 30
0.0
  0
VERTEX
  5
1130
  8
SAPA_PROFIL
 10
9.2294181586865989
 20
1.0597499189066459
 30
0.0
 42
0.4142135623731506
  0
VERTEX
  5
1131
  8
SAPA_PROFIL
 10
9.5294181586865534
 20
1.3597499189066009
 30
0.0
  0
VERTEX
  5
1132
  8
SAPA_PROFIL
 10
9.5294181586866671
 20
1.8597499189066009
 30
0.0
 42
0.4142135623730951
  0
VERTEX
  5
1133
  8
SAPA_PROFIL
 10
9.0294181586866671
 20
2.3597499189066009
 30
0.0
  0
VERTEX
  5
1134
  8
SAPA_PROFIL
 10
7.6294181586866889
 20
2.3597499189066009
 30
0.0
 42
-0.4142135623730951
  0
VERTEX
  5
1135
  8
SAPA_PROFIL
 10
6.6294181586866889
 20
3.3597499189066009
 30
0.0
  0
VERTEX
  5
1136
  8
SAPA_PROFIL
 10
6.6294181586865761
 20
3.7597499189066919
 30
0.0
 42
-0.9999999999999998
  0
VERTEX
  5
1137
  8
SAPA_PROFIL
 10
13.82941815868662
 20
3.7597499189066919
 30
0.0
  0
VERTEX
  5
1138
  8
SAPA_PROFIL
 10
13.829418158686851
 20
2.659749918906555
 30
0.0
 42
-0.4142135623732059
  0
VERTEX
  5
1139
  8
SAPA_PROFIL
 10
13.529418158686671
 20
2.3597499189064872
 30
0.0
  0
VERTEX
  5
113A
  8
SAPA_PROFIL
 10
13.229418158686711
 20
2.359749918906715
 30
0.0
 42
0.4142135623733948
  0
VERTEX
  5
113B
  8
SAPA_PROFIL
 10
12.72941815868648
 20
1.8597499189066009
 30
0.0
  0
VERTEX
  5
113C
  8
SAPA_PROFIL
 10
12.72941815868648
 20
1.3597499189066009
 30
0.0
 42
0.4142135623730397
  0
VERTEX
  5
113D
  8
SAPA_PROFIL
 10
13.02941815868644
 20
1.0597499189066459
 30
0.0
  0
VERTEX
  5
113E
  8
SAPA_PROFIL
 10
13.479418158686601
 20
1.0597499189066459
 30
0.0
 42
-0.4142135623731505
  0
VERTEX
  5
113F
  8
SAPA_PROFIL
 10
13.77941815868655
 20
0.7597499189065787
 30
0.0
  0
VERTEX
  5
1140
  8
SAPA_PROFIL
 10
13.77941815868666
 20
0.0597499189066468
 30
0.0
 42
-0.4142135623730951
  0
VERTEX
  5
1141
  8
SAPA_PROFIL
 10
13.479418158686601
 20
-0.2402500810933077
 30
0.0
  0
VERTEX
  5
1142
  8
SAPA_PROFIL
 10
13.02941815868644
 20
-0.2402500810933077
 30
0.0
 42
0.4142135623730951
  0
VERTEX
  5
1143
  8
SAPA_PROFIL
 10
12.72941815868648
 20
-0.540250081093376
 30
0.0
  0
VERTEX
  5
1144
  8
SAPA_PROFIL
 10
12.72941815868694
 20
-1.240250081093762
 30
0.0
 42
0.2504916501726643
  0
VERTEX
  5
1145
  8
SAPA_PROFIL
 10
13.72941815868591
 20
-2.240250081093762
 30
0.0
  0
VERTEX
  5
1146
  8
SAPA_PROFIL
 10
16.02941815868644
 20
-2.2402500810933068
 30
0.0
 42
0.4142135623730951
  0
VERTEX
  5
1147
  8
SAPA_PROFIL
 10
17.02941815868644
 20
-1.240250081093307
 30
0.0
  0
VERTEX
  5
1148
  8
SAPA_PROFIL
 10
17.02941815868644
 20
6.4597499189066241
 30
0.0
 42
-0.4142135623730951
  0
VERTEX
  5
1149
  8
SAPA_PROFIL
 10
17.329418158686391
 20
6.7597499189066923
 30
0.0
  0
VERTEX
  5
114A
  8
SAPA_PROFIL
 10
30.863392754901501
 20
6.7597499189066923
 30
0.0
  0
VERTEX
  5
114B
  8
SAPA_PROFIL
 10
31.729418158686489
 20
7.2597499189066923
 30
0.0
  0
VERTEX
  5
114C
  8
SAPA_PROFIL
 10
32.59544356247045
 20
6.7597499189066923
 30
0.0
  0
VERTEX
  5
114D
  8
SAPA_PROFIL
 10
46.129418158686462
 20
6.7597499189066923
 30
0.0
 42
-0.4142135623730951
  0
VERTEX
  5
114E
  8
SAPA_PROFIL
 10
46.429418158686531
 20
6.4597499189066241
 30
0.0
  0
VERTEX
  5
114F
  8
SAPA_PROFIL
 10
46.429418158686531
 20
-1.240250081093307
 30
0.0
 42
0.4142135623730951
  0
VERTEX
  5
1150
  8
SAPA_PROFIL
 10
47.429418158686531
 20
-2.2402500810933068
 30
0.0
  0
VERTEX
  5
1151
  8
SAPA_PROFIL
 10
49.729418158686478
 20
-2.2402500810933068
 30
0.0
 42
0.2504916501726643
  0
VERTEX
  5
1152
  8
SAPA_PROFIL
 10
50.72941815868603
 20
-1.240250081093762
 30
0.0
  0
VERTEX
  5
1153
  8
SAPA_PROFIL
 10
50.729418158686492
 20
-0.540250081093376
 30
0.0
 42
0.4142135623730951
  0
VERTEX
  5
1154
  8
SAPA_PROFIL
 10
50.429418158686531
 20
-0.2402500810933077
 30
0.0
  0
VERTEX
  5
1155
  8
SAPA_PROFIL
 10
49.979418158686371
 20
-0.2402500810933077
 30
0.0
 42
-0.4142135623730951
  0
VERTEX
  5
1156
  8
SAPA_PROFIL
 10
49.67941815868631
 20
0.0597499189066468
 30
0.0
  0
VERTEX
  5
1157
  8
SAPA_PROFIL
 10
49.67941815868641
 20
0.7597499189065787
 30
0.0
 42
-0.4142135623731506
  0
VERTEX
  5
1158
  8
SAPA_PROFIL
 10
49.979418158686371
 20
1.0597499189066459
 30
0.0
  0
VERTEX
  5
1159
  8
SAPA_PROFIL
 10
50.429418158686531
 20
1.0597499189066459
 30
0.0
 42
0.4142135623730397
  0
VERTEX
  5
115A
  8
SAPA_PROFIL
 10
50.729418158686492
 20
1.3597499189066009
 30
0.0
  0
VERTEX
  5
115B
  8
SAPA_PROFIL
 10
50.729418158686492
 20
1.8597499189066009
 30
0.0
 42
0.4142135623733948
  0
VERTEX
  5
115C
  8
SAPA_PROFIL
 10
50.229418158686258
 20
2.359749918906715
 30
0.0
  0
VERTEX
  5
115D
  8
SAPA_PROFIL
 10
49.929418158686303
 20
2.3597499189064872
 30
0.0
 42
-0.4142135623732059
  0
VERTEX
  5
115E
  8
SAPA_PROFIL
 10
49.629418158686121
 20
2.659749918906555
 30
0.0
  0
VERTEX
  5
115F
  8
SAPA_PROFIL
 10
49.629418158686349
 20
3.7597499189066919
 30
0.0
 42
-0.9999999999999998
  0
VERTEX
  5
1160
  8
SAPA_PROFIL
 10
56.829418158686387
 20
3.7597499189066919
 30
0.0
  0
VERTEX
  5
1161
  8
SAPA_PROFIL
 10
56.829418158686281
 20
3.3597499189066009
 30
0.0
 42
-0.4142135623730951
  0
VERTEX
  5
1162
  8
SAPA_PROFIL
 10
55.829418158686281
 20
2.3597499189066009
 30
0.0
  0
VERTEX
  5
1163
  8
SAPA_PROFIL
 10
54.429418158686303
 20
2.3597499189066009
 30
0.0
 42
0.4142135623730951
  0
VERTEX
  5
1164
  8
SAPA_PROFIL
 10
53.929418158686303
 20
1.8597499189066009
 30
0.0
  0
VERTEX
  5
1165
  8
SAPA_PROFIL
 10
53.929418158686417
 20
1.3597499189066009
 30
0.0
 42
0.4142135623731506
  0
VERTEX
  5
1166
  8
SAPA_PROFIL
 10
54.229418158686371
 20
1.0597499189066459
 30
0.0
  0
VERTEX
  5
1167
  8
SAPA_PROFIL
 10
54.67941815868641
 20
1.0597499189066459
 30
0.0
 42
-0.4142135623731505
  0
VERTEX
  5
1168
  8
SAPA_PROFIL
 10
54.979418158686371
 20
0.7597499189065787
 30
0.0
  0
VERTEX
  5
1169
  8
SAPA_PROFIL
 10
54.979418158686371
 20
0.0597499189066468
 30
0.0
 42
-0.4142135623730951
  0
VERTEX
  5
116A
  8
SAPA_PROFIL
 10
54.67941815868641
 20
-0.2402500810933077
 30
0.0
  0
VERTEX
  5
116B
  8
SAPA_PROFIL
 10
54.229418158686371
 20
-0.2402500810933077
 30
0.0
 42
0.4142135623730951
  0
VERTEX
  5
116C
  8
SAPA_PROFIL
 10
53.929418158686303
 20
-0.540250081093376
 30
0.0
  0
VERTEX
  5
116D
  8
SAPA_PROFIL
 10
53.929418158686417
 20
-1.240250081093307
 30
0.0
 42
0.2504916501726621
  0
VERTEX
  5
116E
  8
SAPA_PROFIL
 10
54.929418158686651
 20
-2.240250081093762
 30
0.0
  0
VERTEX
  5
116F
  8
SAPA_PROFIL
 10
57.315204596313379
 20
-2.2402500810933068
 30
0.0
 42
0.1989123673796728
  0
VERTEX
  5
1170
  8
SAPA_PROFIL
 10
58.022311377499932
 20
-1.947356862279974
 30
0.0
  0
VERTEX
  5
1171
  8
SAPA_PROFIL
 10
60.850738502245463
 20
0.881070262466693
 30
0.0
 42
0.1989123673796584
  0
VERTEX
  5
1172
  8
SAPA_PROFIL
 10
61.729418158686478
 20
3.0023906060256702
 30
0.0
  0
VERTEX
  5
1173
  8
SAPA_PROFIL
 10
61.729418158686478
 20
9.7544170300874669
 30
0.0
  0
VERTEX
  5
1174
  8
SAPA_PROFIL
 10
61.729418158686478
 20
90.517109231786677
 30
0.0
 42
0.1989123673796596
  0
VERTEX
  5
1175
  8
SAPA_PROFIL
 10
60.850738502245463
 20
92.638429575346677
 30
0.0
  0
VERTEX
  5
1176
  8
SAPA_PROFIL
 10
58.022311377500053
 20
95.466856700093217
 30
0.0
 42
0.1989123673796371
  0
VERTEX
  5
1177
  8
SAPA_PROFIL
 10
57.315204596313492
 20
95.759749918906664
 30
0.0
  0
VERTEX
  5
1178
  8
SAPA_PROFIL
 10
54.229418158686478
 20
95.759749918906664
 30
0.0
  0
VERTEX
  5
1179
  8
SAPA_PROFIL
 10
53.229418158686492
 20
94.759749918906678
 30
0.0
  0
VERTEX
  5
117A
  8
SAPA_PROFIL
 10
53.229418158686492
 20
94.059749918906647
 30
0.0
 42
0.4142135623730951
  0
VERTEX
  5
117B
  8
SAPA_PROFIL
 10
53.52941815868644
 20
93.759749918906678
 30
0.0
  0
VERTEX
  5
117C
  8
SAPA_PROFIL
 10
55.279418158686433
 20
93.759749918906678
 30
0.0
 42
-0.4142135623730951
  0
VERTEX
  5
117D
  8
SAPA_PROFIL
 10
55.579418158686387
 20
93.459749918906624
 30
0.0
  0
VERTEX
  5
117E
  8
SAPA_PROFIL
 10
55.579418158686387
 20
91.009749918906678
 30
0.0
 42
-0.4142135623730951
  0
VERTEX
  5
117F
  8
SAPA_PROFIL
 10
55.279418158686433
 20
90.70974991890661
 30
0.0
  0
VERTEX
  5
1180
  8
SAPA_PROFIL
 10
37.179418158686531
 20
90.70974991890661
 30
0.0
 42
-0.4142135623730951
  0
VERTEX
  5
1181
  8
SAPA_PROFIL
 10
36.879418158686462
 20
91.009749918906678
 30
0.0
  0
VERTEX
  5
1182
  8
SAPA_PROFIL
 10
36.879418158686462
 20
93.459749918906624
 30
0.0
 42
-0.4142135623730951
  0
VERTEX
  5
1183
  8
SAPA_PROFIL
 10
37.179418158686531
 20
93.759749918906678
 30
0.0
  0
VERTEX
  5
1184
  8
SAPA_PROFIL
 10
38.929418158686531
 20
93.759749918906678
 30
0.0
 42
0.4142135623730951
  0
VERTEX
  5
1185
  8
SAPA_PROFIL
 10
39.229418158686492
 20
94.059749918906647
 30
0.0
  0
VERTEX
  5
1186
  8
SAPA_PROFIL
 10
39.229418158686492
 20
94.759749918906678
 30
0.0
  0
VERTEX
  5
1187
  8
SAPA_PROFIL
 10
38.229418158686492
 20
95.759749918906664
 30
0.0
  0
VERTEX
  5
1188
  8
SAPA_PROFIL
 10
32.59544356247045
 20
95.759749918906664
 30
0.0
  0
VERTEX
  5
1189
  8
SAPA_PROFIL
 10
31.729418158686489
 20
95.259749918906678
 30
0.0
  0
VERTEX
  5
118A
  8
SAPA_PROFIL
 10
30.863392754901501
 20
95.759749918906664
 30
0.0
  0
VERTEX
  5
118B
  8
SAPA_PROFIL
 10
11.72941815868648
 20
95.759749918906692
 30
0.0
 42
-0.4142135623730951
  0
VERTEX
  5
118C
  8
SAPA_PROFIL
 10
10.72941815868648
 20
96.759749918906692
 30
0.0
  0
VERTEX
  5
118D
  8
SAPA_PROFIL
 10
10.72941815868648
 20
105.9948388548387
 30
0.0
 42
-0.3475404855922902
  0
VERTEX
  5
118E
  8
SAPA_PROFIL
 10
10.960187389455649
 20
106.28674140808489
 30
0.0
 42
0.347540485592353
  0
VERTEX
  5
118F
  8
SAPA_PROFIL
 10
11.72941815868648
 20
107.25974991890671
 30
0.0
  0
VERTEX
  5
1190
  8
SAPA_PROFIL
 10
11.72941815868648
 20
107.8272943868686
 30
0.0
 42
0.2896898633048417
  0
VERTEX
  5
1191
  8
SAPA_PROFIL
 10
11.15798958725099
 20
108.7308022897771
 30
0.0
 42
0.5507604245820768
  0
VERTEX
  5
1192
  8
SAPA_PROFIL
 10
10.729418158691489
 20
108.4597499189106
 30
0.0
  0
VERTEX
  5
1193
  8
SAPA_PROFIL
 10
10.729418158687389
 20
107.8097499189046
 30
0.0
 42
-0.4142135623714856
  0
VERTEX
  5
1194
  8
SAPA_PROFIL
 10
10.42941815868744
 20
107.50974991890671
 30
0.0
  0
VERTEX
  5
1195
  8
SAPA_PROFIL
 10
9.0294181586864397
 20
107.50974991890671
 30
0.0
 42
-0.4142135623730951
  0
VERTEX
  5
1196
  8
SAPA_PROFIL
 10
8.7294181586864852
 20
107.8097499189066
 30
0.0
  0
VERTEX
  5
1197
  8
SAPA_PROFIL
 10
8.7294181586864852
 20
116.2097499189066
 30
0.0
 42
-0.4142135623730951
  0
VERTEX
  5
1198
  8
SAPA_PROFIL
 10
9.0294181586864397
 20
116.50974991890661
 30
0.0
  0
VERTEX
  5
1199
  8
SAPA_PROFIL
 10
10.429418158686531
 20
116.50974991890671
 30
0.0
 42
-0.4142135623730951
  0
VERTEX
  5
119A
  8
SAPA_PROFIL
 10
10.72941815868648
 20
116.2097499189066
 30
0.0
  0
VERTEX
  5
119B
  8
SAPA_PROFIL
 10
10.729418158687389
 20
115.5597499189066
 30
0.0
  0
VERTEX
  5
119C
  8
SAPA_PROFIL
 10
10.72941815868648
 20
115.5597499189026
 30
0.0
 42
0.5507604245871307
  0
VERTEX
  5
119D
  8
SAPA_PROFIL
 10
11.15798958725963
 20
115.2886975480353
 30
0.0
 42
0.2896898633034174
  0
VERTEX
  5
119E
  8
SAPA_PROFIL
 10
11.72941815868648
 20
116.1922054509446
 30
0.0
  0
VERTEX
  5
119F
  8
SAPA_PROFIL
 10
11.72941815868648
 20
117.4597499189066
 30
0.0
 42
0.4142135623730951
  0
VERTEX
  5
11A0
  8
SAPA_PROFIL
 10
11.429418158686531
 20
117.75974991890671
 30
0.0
  0
VERTEX
  5
11A1
  8
SAPA_PROFIL
 10
7.2294181586864852
 20
117.75974991890671
 30
0.0
 42
0.4142135623730951
  0
VERTEX
  5
11A2
  8
SAPA_PROFIL
 10
6.2294181586864852
 20
116.75974991890671
 30
0.0
  0
VERTEX
  5
11A3
  8
SAPA_PROFIL
 10
6.2294181586864852
 20
97.502390606025671
 30
0.0
 42
-0.1989123673796595
  0
VERTEX
  5
11A4
  8
SAPA_PROFIL
 10
5.350738502246144
 20
95.381070262466011
 30
0.0
  0
VERTEX
  5
11A5
  8
SAPA_PROFIL
 10
2.608097815126484
 20
92.638429575346677
 30
0.0
 42
0.1989123673796601
  0
VERTEX
  5
11A6
  8
SAPA_PROFIL
 10
1.729418158686485
 20
90.517109231786691
 30
0.0
  0
SEQEND
  5
11A7
  8
SAPA_PROFIL
  0
POLYLINE
  5
B27
  8
SAPA_PROFIL
 66
     1
 10
0.0
 20
0.0
 30
0.0
  0
VERTEX
  5
11A8
  8
SAPA_PROFIL
 10
40.907862978053153
 20
98.638486840458555
 30
0.0
  0
VERTEX
  5
11A9
  8
SAPA_PROFIL
 10
40.226823044194838
 20
115.75974991890889
 30
0.0
 42
-0.4142135623730951
  0
VERTEX
  5
11AA
  8
SAPA_PROFIL
 10
40.726823044194838
 20
116.25974991890889
 30
0.0
  0
VERTEX
  5
11AB
  8
SAPA_PROFIL
 10
52.526436527203572
 20
116.2597499189088
 30
0.0
 42
-0.4076767287637263
  0
VERTEX
  5
11AC
  8
SAPA_PROFIL
 10
55.525686359593116
 20
113.32685356809191
 30
0.0
  0
VERTEX
  5
11AD
  8
SAPA_PROFIL
 10
55.680125581703919
 20
98.638486840458555
 30
0.0
 42
-0.4182129759575463
  0
VERTEX
  5
11AE
  8
SAPA_PROFIL
 10
55.184613860846753
 20
98.127325728403036
 30
0.0
  0
VERTEX
  5
11AF
  8
SAPA_PROFIL
 10
52.709966104727393
 20
98.114498126877336
 30
0.0
  0
VERTEX
  5
11B0
  8
SAPA_PROFIL
 10
51.083908148533823
 20
96.459809529253505
 30
0.0
  0
VERTEX
  5
11B1
  8
SAPA_PROFIL
 10
51.083908148533823
 20
91.910733494965314
 30
0.0
 42
0.4293387945586749
  0
VERTEX
  5
11B2
  8
SAPA_PROFIL
 10
51.40201928452317
 20
91.614006973880805
 30
0.0
  0
VERTEX
  5
11B3
  8
SAPA_PROFIL
 10
52.483475009793629
 20
91.686646650008527
 30
0.0
 42
0.4883397947196161
  0
VERTEX
  5
11B4
  8
SAPA_PROFIL
 10
52.262852075595411
 20
93.248368476016864
 30
0.0
  0
VERTEX
  5
11B5
  8
SAPA_PROFIL
 10
52.262852075595411
 20
95.947449752051284
 30
0.0
  0
VERTEX
  5
11B6
  8
SAPA_PROFIL
 10
53.217475295793292
 20
96.918881398427402
 30
0.0
  0
VERTEX
  5
11B7
  8
SAPA_PROFIL
 10
55.716601438678367
 20
96.918881398427402
 30
0.0
  0
VERTEX
  5
11B8
  8
SAPA_PROFIL
 10
55.716601438678367
 20
96.445105731912534
 30
0.0
  0
VERTEX
  5
11B9
  8
SAPA_PROFIL
 10
57.229418158686599
 20
96.445105731912534
 30
0.0
  0
VERTEX
  5
11BA
  8
SAPA_PROFIL
 10
57.229418158686713
 20
117.4623906256009
 30
0.0
 42
0.4116378201539302
  0
VERTEX
  5
11BB
  8
SAPA_PROFIL
 10
56.929429681016359
 20
117.7597499189088
 30
0.0
  0
VERTEX
  5
11BC
  8
SAPA_PROFIL
 10
28.52682304419486
 20
117.7597499189088
 30
0.0
 42
0.414213562373095
  0
VERTEX
  5
11BD
  8
SAPA_PROFIL
 10
28.226823044194791
 20
117.4597499189088
 30
0.0
  0
VERTEX
  5
11BE
  8
SAPA_PROFIL
 10
28.226823044194852
 20
116.2497499189089
 30
0.0
 42
0.4142135623731037
  0
VERTEX
  5
11BF
  8
SAPA_PROFIL
 10
29.2168230441948
 20
115.25974991890889
 30
0.0
  0
VERTEX
  5
11C0
  8
SAPA_PROFIL
 10
29.226823044194852
 20
115.25974991890889
 30
0.0
  0
VERTEX
  5
11C1
  8
SAPA_PROFIL
 10
29.226823044194852
 20
116.50974991890889
 30
0.0
  0
VERTEX
  5
11C2
  8
SAPA_PROFIL
 10
30.726823044194852
 20
116.50974991890889
 30
0.0
 42
-0.4142135623730951
  0
VERTEX
  5
11C3
  8
SAPA_PROFIL
 10
31.226823044194841
 20
116.00974991890889
 30
0.0
  0
VERTEX
  5
11C4
  8
SAPA_PROFIL
 10
31.226823044194841
 20
108.00974991890889
 30
0.0
 42
-0.4142135623730951
  0
VERTEX
  5
11C5
  8
SAPA_PROFIL
 10
30.726823044194852
 20
107.50974991890889
 30
0.0
  0
VERTEX
  5
11C6
  8
SAPA_PROFIL
 10
29.226823044194852
 20
107.50974991890889
 30
0.0
  0
VERTEX
  5
11C7
  8
SAPA_PROFIL
 10
29.226823044194852
 20
108.75974991890889
 30
0.0
  0
VERTEX
  5
11C8
  8
SAPA_PROFIL
 10
29.2168230441948
 20
108.75974991890889
 30
0.0
 42
0.414213562373095
  0
VERTEX
  5
11C9
  8
SAPA_PROFIL
 10
28.226823044194791
 20
107.7697499189088
 30
0.0
  0
VERTEX
  5
11CA
  8
SAPA_PROFIL
 10
28.226823044194852
 20
107.2597499189088
 30
0.0
 42
0.4142135623730953
  0
VERTEX
  5
11CB
  8
SAPA_PROFIL
 10
29.226823044194852
 20
106.2597499189088
 30
0.0
  0
VERTEX
  5
11CC
  8
SAPA_PROFIL
 10
30.726823044194852
 20
106.2597499189088
 30
0.0
 42
0.4142135623730951
  0
VERTEX
  5
11CD
  8
SAPA_PROFIL
 10
32.42682304419484
 20
107.9597499189088
 30
0.0
  0
VERTEX
  5
11CE
  8
SAPA_PROFIL
 10
32.42682304419489
 20
115.75974991890889
 30
0.0
 42
-0.414213562373095
  0
VERTEX
  5
11CF
  8
SAPA_PROFIL
 10
32.92682304419489
 20
116.25974991890889
 30
0.0
  0
VERTEX
  5
11D0
  8
SAPA_PROFIL
 10
38.42682304419489
 20
116.25974991890889
 30
0.0
 42
-0.4142135623730951
  0
VERTEX
  5
11D1
  8
SAPA_PROFIL
 10
38.92682304419489
 20
115.75974991890889
 30
0.0
  0
VERTEX
  5
11D2
  8
SAPA_PROFIL
 10
39.598032690661199
 20
98.638486840458555
 30
0.0
  0
VERTEX
  5
11D3
  8
SAPA_PROFIL
 10
40.254971141390541
 20
93.235540076708844
 30
0.0
 42
-0.4666505291506209
  0
VERTEX
  5
11D4
  8
SAPA_PROFIL
 10
39.993139610345992
 20
92.95573851079007
 30
0.0
  0
VERTEX
  5
11D5
  8
SAPA_PROFIL
 10
39.270483516787039
 20
92.995281404708393
 30
0.0
 42
0.7332303362618522
  0
VERTEX
  5
11D6
  8
SAPA_PROFIL
 10
39.070308928216861
 20
92.459205382056084
 30
0.0
  0
VERTEX
  5
11D7
  8
SAPA_PROFIL
 10
41.180416267754573
 20
91.688295264551684
 30
0.0
 42
0.668178637919333
  0
VERTEX
  5
11D8
  8
SAPA_PROFIL
 10
41.66276411984537
 20
91.961461459745976
 30
0.0
  0
VERTEX
  5
11D9
  8
SAPA_PROFIL
 10
40.907862978053153
 20
98.638486840458555
 30
0.0
  0
VERTEX
  5
11DA
  8
SAPA_PROFIL
 10
40.91739643021625
 20
98.638486840458555
 30
0.0
  0
SEQEND
  5
11DB
  8
SAPA_PROFIL
  0
POLYLINE
  5
B35
  8
SAPA_GLAS
 66
     1
 10
0.0
 20
0.0
 30
0.0
 70
     1
  0
VERTEX
  5
11F9
  8
SAPA_GLAS
 10
24.099227932426061
 20
95.764033121749733
 30
0.0
  0
VERTEX
  5
11FA
  8
SAPA_GLAS
 10
37.199227932426083
 20
95.764033121749719
 30
0.0
  0
VERTEX
  5
11FB
  8
SAPA_GLAS
 10
37.199227932426083
 20
96.764033121749719
 30
0.0
  0
VERTEX
  5
11FC
  8
SAPA_GLAS
 10
25.099227932426061
 20
96.764033121749762
 30
0.0
  0
VERTEX
  5
11FD
  8
SAPA_GLAS
 10
25.099227932426061
 20
108.7640331217497
 30
0.0
  0
VERTEX
  5
11FE
  8
SAPA_GLAS
 10
24.099227932426061
 20
108.7640331217497
 30
0.0
  0
SEQEND
  5
11FF
  8
SAPA_GLAS
  0
LINE
  5
B36
  8
SAPA_GLAS
 62
     1
 10
22.499227932426049
 20
111.31318627456641
 30
0.0
 11
22.499227932426042
 21
100.56403492056791
 31
0.0
  0
LINE
  5
B37
  8
SAPA_GLAS
 62
     1
 10
15.893810686297909
 20
100.56403492056791
 30
0.0
 11
15.89381068629792
 21
111.2552397892667
 31
0.0
  0
POLYLINE
  5
B38
  8
SAPA_GLAS
 62
     6
 66
     1
 10
0.0
 20
0.0
 30
0.0
 70
     1
  0
VERTEX
  5
1200
  8
SAPA_GLAS
 62
     6
 10
22.499227932426042
 20
96.759749922554505
 30
0.0
  0
VERTEX
  5
1201
  8
SAPA_GLAS
 62
     6
 10
22.499227932426042
 20
108.75974992255451
 30
0.0
  0
VERTEX
  5
1202
  8
SAPA_GLAS
 62
     6
 10
24.099227932426061
 20
108.75974992255451
 30
0.0
  0
VERTEX
  5
1203
  8
SAPA_GLAS
 62
     6
 10
24.099227932426061
 20
96.759749922554505
 30
0.0
  0
SEQEND
  5
1204
  8
SAPA_GLAS
 62
     6
  0
POLYLINE
  5
B39
  8
SAPA_GLAS
 62
     6
 66
     1
 10
0.0
 20
0.0
 30
0.0
 70
     1
  0
VERTEX
  5
1205
  8
SAPA_GLAS
 62
     6
 10
14.31446741754405
 20
96.759749922554505
 30
0.0
  0
VERTEX
  5
1206
  8
SAPA_GLAS
 62
     6
 10
14.31446741754405
 20
108.75974992255451
 30
0.0
  0
VERTEX
  5
1207
  8
SAPA_GLAS
 62
     6
 10
15.914467417544071
 20
108.75974992255451
 30
0.0
  0
VERTEX
  5
1208
  8
SAPA_GLAS
 62
     6
 10
15.914467417544071
 20
96.759749922554505
 30
0.0
  0
SEQEND
  5
1209
  8
SAPA_GLAS
 62
     6
  0
POLYLINE
  5
B3A
  8
SAPA_GLAS
 66
     1
 10
0.0
 20
0.0
 30
0.0
 70
     1
  0
VERTEX
  5
120A
  8
SAPA_GLAS
 10
14.31446741754405
 20
96.759749922554505
 30
0.0
  0
VERTEX
  5
120B
  8
SAPA_GLAS
 10
37.714222304905661
 20
96.759749922554477
 30
0.0
  0
VERTEX
  5
120C
  8
SAPA_GLAS
 10
37.714222304905661
 20
95.759749922554477
 30
0.0
  0
VERTEX
  5
120D
  8
SAPA_GLAS
 10
13.31446741754405
 20
95.759749922554505
 30
0.0
  0
VERTEX
  5
120E
  8
SAPA_GLAS
 10
13.31446741754405
 20
108.75974992255451
 30
0.0
  0
VERTEX
  5
120F
  8
SAPA_GLAS
 10
14.31446741754405
 20
108.75974992255431
 30
0.0
  0
SEQEND
  5
1210
  8
SAPA_GLAS
  0
LINE
  5
B3B
  8
SAPA_GLAS
 62
     1
 10
22.379227932426151
 20
100.76403492056789
 30
0.0
 11
15.893810686297909
 21
100.76403492056789
 31
0.0
  0
POLYLINE
  5
B3C
  8
SAPA_GLAS
 66
     1
 10
0.0
 20
0.0
 30
0.0
  0
VERTEX
  5
1211
  8
SAPA_GLAS
 10
22.196698093606319
 20
133.47629082644701
 30
0.0
  0
VERTEX
  5
1212
  8
SAPA_GLAS
 10
22.196698093606301
 20
100.9700097225542
 30
0.0
  0
VERTEX
  5
1213
  8
SAPA_GLAS
 10
16.196698093606301
 20
100.9700097225542
 30
0.0
  0
VERTEX
  5
1214
  8
SAPA_GLAS
 10
16.196698093606319
 20
133.47629082644701
 30
0.0
  0
SEQEND
  5
1215
  8
SAPA_GLAS
  0
LINE
  5
B3D
  8
SAPA_GLAS
  6
BYGG-022629$0$DASHDOT
 62
     2
 10
32.201340579304834
 20
90.456643106918676
 30
0.0
 11
32.201340579304834
 21
101.84140488493451
 31
0.0
  0
INSERT
  5
B53
  8
SAPA_FOGBAND
  2
BYGG-022629$0$18058
 10
25.08532460958709
 20
113.36265603982901
 30
0.0
 41
-1.0
 50
180.0
  0
INSERT
  5
B54
  8
SAPA_FOGBAND
  2
BYGG-022629$0$18049
 10
11.798811279101731
 20
111.7130683469408
 30
0.0
 41
-1.0
 50
180.0
  0
LINE
  5
B55
  8
SAPA_FOGBAND
 62
     6
 10
17.193664654675729
 20
0.6632747465212106
 30
0.0
 11
24.793664654675752
 21
0.6632747465212106
 31
0.0
1001
ACAD
1000
ASC_BOUNDS
1002
{
1070
    19
1005
B61
1005
B60
1005
B5F
1002
}
  0
LINE
  5
B56
  8
SAPA_FOGBAND
 62
     6
 10
21.193664654675729
 20
-1.336725253478789
 30
0.0
 11
21.193664654675729
 21
5.0138107827822287
 31
0.0
  0
POLYLINE
  5
B57
  8
SAPA_FOGBAND
 62
     6
 66
     1
 10
0.0
 20
0.0
 30
0.0
  0
VERTEX
  5
137A
  8
SAPA_FOGBAND
 62
     6
 10
31.864463122436181
 20
-8.0897395580232399
 30
0.0
  0
VERTEX
  5
137B
  8
SAPA_FOGBAND
 62
     6
 10
32.202343507601029
 20
-7.5005411613183517
 30
0.0
  0
VERTEX
  5
137C
  8
SAPA_FOGBAND
 62
     6
 10
31.924748674046612
 20
-7.3413522534633548
 30
0.0
 42
-0.5693809839207931
  0
VERTEX
  5
137D
  8
SAPA_FOGBAND
 62
     6
 10
31.92064314674343
 20
-7.0661938703429987
 30
0.0
  0
VERTEX
  5
137E
  8
SAPA_FOGBAND
 62
     6
 10
32.923914182087351
 20
-6.4503741891034556
 30
0.0
 42
-0.2743878130875455
  0
VERTEX
  5
137F
  8
SAPA_FOGBAND
 62
     6
 10
33.413797487559812
 20
-6.4430648378016988
 30
0.0
  0
VERTEX
  5
1380
  8
SAPA_FOGBAND
 62
     6
 10
34.65454411230656
 20
-7.1545806019415741
 30
0.0
 42
-0.2743878130875455
  0
VERTEX
  5
1381
  8
SAPA_FOGBAND
 62
     6
 10
34.895654247704329
 20
-7.5810838049841598
 30
0.0
  0
VERTEX
  5
1382
  8
SAPA_FOGBAND
 62
     6
 10
34.87085725418882
 20
-8.7580170058391502
 30
0.0
 42
-0.5693809839207934
  0
VERTEX
  5
1383
  8
SAPA_FOGBAND
 62
     6
 10
34.631298301201873
 20
-8.8934441050458304
 30
0.0
  0
VERTEX
  5
1384
  8
SAPA_FOGBAND
 62
     6
 10
34.353703467646831
 20
-8.7342551971911462
 30
0.0
  0
VERTEX
  5
1385
  8
SAPA_FOGBAND
 62
     6
 10
33.75674506319217
 20
-9.77523582302004
 30
0.0
  0
VERTEX
  5
1386
  8
SAPA_FOGBAND
 62
     6
 10
41.052284282542523
 20
-13.95891930757335
 30
0.0
  0
VERTEX
  5
1387
  8
SAPA_FOGBAND
 62
     6
 10
40.554818945496883
 20
-14.82640316243079
 30
0.0
  0
VERTEX
  5
1388
  8
SAPA_FOGBAND
 62
     6
 10
30.40525784366617
 20
-9.0060587189974513
 30
0.0
  0
VERTEX
  5
1389
  8
SAPA_FOGBAND
 62
     6
 10
30.902723180711629
 20
-8.1385748641401108
 30
0.0
  0
VERTEX
  5
138A
  8
SAPA_FOGBAND
 62
     6
 10
31.605385103146212
 20
-8.5415217871471043
 30
0.0
  0
VERTEX
  5
138B
  8
SAPA_FOGBAND
 62
     6
 10
32.122749053673829
 20
-7.639338578095475
 30
0.0
  0
SEQEND
  5
138C
  8
SAPA_FOGBAND
 62
     6
  0
POLYLINE
  5
B58
  8
SAPA_FOGBAND
 62
     6
 66
     1
 10
0.0
 20
0.0
 30
0.0
 70
     1
  0
VERTEX
  5
138D
  8
SAPA_FOGBAND
 62
     6
 10
31.919799788604571
 20
-7.4705935762906668
 30
0.0
 42
-0.4142135623730951
  0
VERTEX
  5
138E
  8
SAPA_FOGBAND
 62
     6
 10
32.030805343948202
 20
-7.8800783338616318
 30
0.0
  0
VERTEX
  5
138F
  8
SAPA_FOGBAND
 62
     6
 10
31.83181920912995
 20
-8.2270718758045973
 30
0.0
 42
-0.4142135623730951
  0
VERTEX
  5
1390
  8
SAPA_FOGBAND
 62
     6
 10
31.422334451559038
 20
-8.3380774311479797
 30
0.0
  0
VERTEX
  5
1391
  8
SAPA_FOGBAND
 62
     6
 10
31.118715102358919
 20
-8.1639645631819917
 30
0.0
 42
0.4142135623731332
  0
VERTEX
  5
1392
  8
SAPA_FOGBAND
 62
     6
 10
30.709230344788011
 20
-8.2749701185256281
 30
0.0
  0
VERTEX
  5
1393
  8
SAPA_FOGBAND
 62
     6
 10
30.361004608856259
 20
-8.8822088169257256
 30
0.0
 42
-0.4142135623731276
  0
VERTEX
  5
1394
  8
SAPA_FOGBAND
 62
     6
 10
29.951519851285301
 20
-8.9932143722692786
 30
0.0
  0
VERTEX
  5
1395
  8
SAPA_FOGBAND
 62
     6
 10
22.525107599484159
 20
-4.7344807333713561
 30
0.0
 42
-0.2206060415203605
  0
VERTEX
  5
1396
  8
SAPA_FOGBAND
 62
     6
 10
21.74736507037295
 20
-3.6354858222954358
 30
0.0
  0
VERTEX
  5
1397
  8
SAPA_FOGBAND
 62
     6
 10
21.373228900596359
 20
-1.5980618946258569
 30
0.0
 42
0.3489347603450904
  0
VERTEX
  5
1398
  8
SAPA_FOGBAND
 62
     6
 10
21.09204329144325
 20
-1.3525668011150169
 30
0.0
 42
-4.5164200327571251
  0
VERTEX
  5
1399
  8
SAPA_FOGBAND
 62
     6
 10
22.654097714760841
 20
-0.7113670939043005
 30
0.0
 42
0.2360151146012802
  0
VERTEX
  5
139A
  8
SAPA_FOGBAND
 62
     6
 10
22.579458836767799
 20
-0.9690494525995916
 30
0.0
  0
VERTEX
  5
139B
  8
SAPA_FOGBAND
 62
     6
 10
23.02598581343506
 20
-3.4006901762300852
 30
0.0
 42
0.2206060415203605
  0
VERTEX
  5
139C
  8
SAPA_FOGBAND
 62
     6
 10
23.171812537643401
 20
-3.60675172205677
 30
0.0
  0
VERTEX
  5
139D
  8
SAPA_FOGBAND
 62
     6
 10
29.730740934587459
 20
-7.3680200239091951
 30
0.0
 42
0.4142135623731102
  0
VERTEX
  5
139E
  8
SAPA_FOGBAND
 62
     6
 10
30.14022569215825
 20
-7.2570144685655
 30
0.0
  0
VERTEX
  5
139F
  8
SAPA_FOGBAND
 62
     6
 10
31.03566329884007
 20
-5.6955435298223733
 30
0.0
 42
-0.4142135623730951
  0
VERTEX
  5
13A0
  8
SAPA_FOGBAND
 62
     6
 10
33.76556168264591
 20
-4.955506494198886
 30
0.0
  0
VERTEX
  5
13A1
  8
SAPA_FOGBAND
 62
     6
 10
37.235497102075207
 20
-6.9453678423811311
 30
0.0
 42
-0.4142135623730951
  0
VERTEX
  5
13A2
  8
SAPA_FOGBAND
 62
     6
 10
37.346502657418803
 20
-7.3548525999520393
 30
0.0
  0
VERTEX
  5
13A3
  8
SAPA_FOGBAND
 62
     6
 10
35.605373977759541
 20
-10.3910460919522
 30
0.0
 42
-0.4142135623727727
  0
VERTEX
  5
13A4
  8
SAPA_FOGBAND
 62
     6
 10
35.195889220188967
 20
-10.50205164729593
 30
0.0
  0
VERTEX
  5
13A5
  8
SAPA_FOGBAND
 62
     6
 10
34.024786016130747
 20
-9.8304734422858928
 30
0.0
 42
-0.4142135623734437
  0
VERTEX
  5
13A6
  8
SAPA_FOGBAND
 62
     6
 10
33.913780460786988
 20
-9.4209886847147573
 30
0.0
  0
VERTEX
  5
13A7
  8
SAPA_FOGBAND
 62
     6
 10
34.112766595605592
 20
-9.0739951427710821
 30
0.0
 42
-0.4142135623730951
  0
VERTEX
  5
13A8
  8
SAPA_FOGBAND
 62
     6
 10
34.522251353176607
 20
-8.9629895874275576
 30
0.0
  0
VERTEX
  5
13A9
  8
SAPA_FOGBAND
 62
     6
 10
35.08611585883375
 20
-9.2863420565070953
 30
0.0
  0
VERTEX
  5
13AA
  8
SAPA_FOGBAND
 62
     6
 10
35.633327729583932
 20
-8.3321098161639782
 30
0.0
 42
0.4142135623730951
  0
VERTEX
  5
13AB
  8
SAPA_FOGBAND
 62
     6
 10
35.263309211772203
 20
-6.967160624261111
 30
0.0
  0
VERTEX
  5
13AC
  8
SAPA_FOGBAND
 62
     6
 10
33.268096345600441
 20
-5.822990349056254
 30
0.0
 42
0.4142135623730951
  0
VERTEX
  5
13AD
  8
SAPA_FOGBAND
 62
     6
 10
31.903147153697489
 20
-6.1930088668680119
 30
0.0
  0
VERTEX
  5
13AE
  8
SAPA_FOGBAND
 62
     6
 10
31.355935282947371
 20
-7.147241107211129
 30
0.0
  0
SEQEND
  5
13AF
  8
SAPA_FOGBAND
 62
     6
  0
INSERT
  5
B59
  8
SAPA_FOGBAND
  6
CONTINUOUS
 62
     6
  2
*U66
 10
0.0
 20
0.0
 30
0.0
1001
ACAD
1002
{
1000
R14_HATCH_DATA
1000
B59
1011
1.0
1021
2.4603434820454886E+160
1031
0.0
1021
0.0
1031
0.0
1011
0.0
1021
2.4603434820454886E+160
1031
0.0
1021
1.0
1031
0.0
1011
0.0
1021
2.4603434820454886E+160
1031
0.0
1021
0.0
1031
1.0
1040
0.0
1010
0.0
1020
0.0
1030
1.0
1000
SOLID
1070
     1
1070
     1
1071
        1
1071
        7
1070
     1
1070
     1
1071
       24
1040
40.554818945496883
1040
-14.826403162430781
1040
0.0
1040
41.052284282542523
1040
-13.95891930757335
1040
0.0
1040
33.75674506319217
1040
-9.77523582302004
1040
0.0
1040
33.874026020860427
1040
-9.5707203931336977
1040
-0.1313259594332568
1040
33.913780460786988
1040
-9.4209886847147573
1040
0.0
1040
34.112766595605592
1040
-9.0739951427710821
1040
-0.1313259594331649
1040
34.221919743920438
1040
-8.964060661315699
1040
0.0
1040
34.353703467646831
1040
-8.7342551971911462
1040
0.0
1040
34.631298301201873
1040
-8.8934441050458304
1040
0.5693809839207935
1040
34.87085725418882
1040
-8.7580170058391502
1040
0.0
1040
34.895654247704329
1040
-7.5810838049841598
1040
0.2743878130875455
1040
34.65454411230656
1040
-7.1545806019415741
1040
0.0
1040
33.413797487559812
1040
-6.4430648378016988
1040
0.2743878130875455
1040
32.923914182087351
1040
-6.4503741891034556
1040
0.0
1040
31.92064314674343
1040
-7.0661938703429987
1040
0.5693809839207931
1040
31.924748674046612
1040
-7.3413522534633548
1040
0.0
1040
32.202343507601043
1040
-7.5005411613183517
1040
0.0
1040
32.070559783874707
1040
-7.7303466254427766
1040
-0.1313259594331531
1040
32.030805343948202
1040
-7.8800783338616318
1040
0.0
1040
31.83181920912995
1040
-8.2270718758045973
1040
-0.1313259594333042
1040
31.722666060814969
1040
-8.3370063572599946
1040
0.0
1040
31.605385103146212
1040
-8.5415217871471043
1040
0.0
1040
30.902723180711629
1040
-8.1385748641400824
1040
0.0
1040
30.40525784366616
1040
-9.0060587189974513
1040
0.0
1071
        2
1005
B57
1005
B58
1070
     0
1070
     1
1040
0.0667975814888222
1071
        1
1040
32.791211350401113
1040
-9.3838513174155764
1040
0.0
1002
}
  0
INSERT
  5
B5A
  8
SAPA_FOGBAND
  6
CONTINUOUS
 62
     6
  2
*X67
 10
0.0
 20
0.0
 30
0.0
1001
ACAD
1000
HATCH
1002
{
1070
    19
1000
ANSI31
1040
0.25
1040
-0.3864292271413414
1000
R14_HATCH_DATA
1000
B5A
1011
1.0
1021
2.4603434820454886E+160
1031
0.0
1021
0.0
1031
0.0
1011
0.0
1021
2.4603434820454886E+160
1031
0.0
1021
1.0
1031
0.0
1011
0.0
1021
2.4603434820454886E+160
1031
0.0
1021
0.0
1031
1.0
1040
0.0
1010
0.0
1020
0.0
1030
1.0
1000
ANSI31
1070
     0
1070
     0
1071
        1
1071
        7
1070
     1
1070
     1
1071
        3
1040
23.046186108601091
1040
-0.0904919698692481
1040
0.4142135623730637
1040
21.947431371066049
1040
2.5157962004460042
1040
0.0
1040
21.193664654675789
1040
0.6632747465211822
1040
0.0
1071
        0
1070
     0
1070
     1
1040
-0.3864292271413414
1040
0.25
1070
     0
1070
     1
1040
0.3989689362561068
1040
-441.09519918080042
1040
-189.7736355726712
1040
-0.3083468424159645
1040
0.7314104779616603
1070
     0
1040
0.0147812172670877
1071
        1
1040
22.28838612410749
1040
1.065160476752282
1040
0.0
1002
}
  0
INSERT
  5
B5B
  8
SAPA_FOGBAND
  6
CONTINUOUS
 62
     6
  2
*X68
 10
0.0
 20
0.0
 30
0.0
1001
ACAD
1000
HATCH
1002
{
1070
    19
1000
ANSI31
1040
0.25
1040
-0.3864292271413414
1000
R14_HATCH_DATA
1000
B5B
1011
1.0
1021
2.4603434820454886E+160
1031
0.0
1021
0.0
1031
0.0
1011
0.0
1021
2.4603434820454886E+160
1031
0.0
1021
1.0
1031
0.0
1011
0.0
1021
2.4603434820454886E+160
1031
0.0
1021
0.0
1031
1.0
1040
0.0
1010
0.0
1020
0.0
1030
1.0
1000
ANSI31
1070
     0
1070
     0
1071
        1
1071
        7
1070
     1
1070
     1
1071
        3
1040
19.746455125602321
1040
2.3312199157166442
1040
0.0
1040
21.598976579527228
1040
1.5774531993263561
1040
0.0
1040
22.352743295917548
1040
3.4299746532511222
1040
0.4142135623729971
1071
        0
1070
     0
1070
     1
1040
-0.3864292271413414
1040
0.25
1070
     0
1070
     1
1040
0.3989689362561068
1040
-440.68988725594892
1040
-188.85945711986599
1040
-0.3083468424159645
1040
0.7314104779616603
1070
     0
1040
0.0147812172670877
1071
        1
1040
21.107768855057198
1040
2.672507265731809
1040
0.0
1002
}
  0
INSERT
  5
B5C
  8
SAPA_FOGBAND
  6
CONTINUOUS
 62
     6
  2
*X69
 10
0.0
 20
0.0
 30
0.0
1001
ACAD
1000
HATCH
1002
{
1070
    19
1000
ANSI31
1040
0.25
1040
-0.3864292271413414
1000
R14_HATCH_DATA
1000
B5C
1011
1.0
1021
2.4603434820454886E+160
1031
0.0
1021
0.0
1031
0.0
1011
0.0
1021
2.4603434820454886E+160
1031
0.0
1021
1.0
1031
0.0
1011
0.0
1021
2.4603434820454886E+160
1031
0.0
1021
0.0
1031
1.0
1040
0.0
1010
0.0
1020
0.0
1030
1.0
1000
ANSI31
1070
     0
1070
     0
1071
        1
1071
        7
1070
     1
1070
     1
1071
        3
1040
19.746455125602321
1040
2.3312199157166731
1040
0.4142135623730969
1040
20.845209863136692
1040
-0.2750682545990344
1040
0.0
1040
21.598976579527228
1040
1.5774531993263561
1040
0.0
1071
        0
1070
     0
1070
     1
1040
-0.3864292271413414
1040
0.25
1070
     0
1070
     1
1040
0.3989689362561068
1040
-440.68988725594892
1040
-188.85945711986599
1040
-0.3083468424159645
1040
0.7314104779616603
1070
     0
1040
0.0147812172670877
1071
        1
1040
20.569500861223268
1040
1.2318947948449761
1040
0.0
1002
}
  0
INSERT
  5
B5D
  8
SAPA_FOGBAND
  6
CONTINUOUS
 62
     6
  2
*X70
 10
0.0
 20
0.0
 30
0.0
1001
ACAD
1000
HATCH
1002
{
1070
    19
1000
ANSI31
1040
0.25
1040
-0.4872082237795662
1000
R14_HATCH_DATA
1000
B5D
1011
1.0
1021
2.4603434820454886E+160
1031
0.0
1021
0.0
1031
0.0
1011
0.0
1021
2.4603434820454886E+160
1031
0.0
1021
1.0
1031
0.0
1011
0.0
1021
2.4603434820454886E+160
1031
0.0
1021
0.0
1031
1.0
1040
0.0
1010
0.0
1020
0.0
1030
1.0
1000
ANSI31
1070
     0
1070
     0
1071
        1
1071
        7
1070
     1
1070
     1
1071
       37
1040
23.171812537643401
1040
-3.60675172205677
1040
-0.2206060415203605
1040
23.02598581343506
1040
-3.4006901762300852
1040
0.0
1040
22.579458836767799
1040
-0.9690494525995916
1040
-0.2360151146006575
1040
22.654097714760379
1040
-0.7113670939047836
1040
0.0646593890645067
1040
22.951868000452752
1040
-0.2910303363684932
1040
0.0
1040
21.184581399231721
1040
0.6452912265234545
1040
0.0
1040
20.248259836339681
1040
-1.1219953746975471
1040
0.1106793054466437
1040
21.092043291445119
1040
-1.3525668011150169
1040
-0.3489347603433254
1040
21.373228900596359
1040
-1.5980618946258569
1040
0.0
1040
21.74736507037295
1040
-3.6354858222954358
1040
0.2206060415203605
1040
22.525107599484159
1040
-4.7344807333713561
1040
0.0
1040
29.951519851285301
1040
-8.9932143722692786
1040
0.4142135623731276
1040
30.361004608856259
1040
-8.8822088169257256
1040
0.0
1040
30.709230344788011
1040
-8.2749701185256281
1040
-0.4142135623731332
1040
31.118715102358919
1040
-8.1639645631819917
1040
0.0
1040
31.422334451559038
1040
-8.3380774311479797
1040
0.2682932564172477
1040
31.722666060814959
1040
-8.3370063572600941
1040
0.0
1040
32.070559783874671
1040
-7.7303466254427056
1040
0.268293256417471
1040
31.919799788604571
1040
-7.4705935762906668
1040
0.0
1040
31.355935282947261
1040
-7.1472411072111584
1040
0.0
1040
31.903147153697489
1040
-6.1930088668680119
1040
-0.4142135623730951
1040
33.268096345600441
1040
-5.822990349056254
1040
0.0
1040
35.263309211772203
1040
-6.967160624261111
1040
-0.4142135623730951
1040
35.633327729583932
1040
-8.3321098161639782
1040
0.0
1040
35.086115858833857
1040
-9.2863420565070651
1040
0.0
1040
34.522251353176607
1040
-8.9629895874275576
1040
0.2682932564174049
1040
34.221919743920473
1040
-8.9640606613155853
1040
0.0
1040
33.87402602086047
1040
-9.5707203931336551
1040
0.2682932564176823
1040
34.024786016130747
1040
-9.8304734422858928
1040
0.0
1040
35.195889220188967
1040
-10.50205164729593
1040
0.4142135623727729
1040
35.605373977759541
1040
-10.3910460919522
1040
0.0
1040
37.346502657418803
1040
-7.3548525999520393
1040
0.4142135623730951
1040
37.235497102075207
1040
-6.9453678423811311
1040
0.0
1040
33.76556168264591
1040
-4.955506494198886
1040
0.4142135623730951
1040
31.03566329884007
1040
-5.6955435298223733
1040
0.0
1040
30.14022569215825
1040
-7.2570144685655
1040
-0.4142135623731102
1040
29.730740934587459
1040
-7.3680200239091951
1040
0.0
1071
        0
1070
     0
1070
     1
1040
-0.4872082237795662
1040
0.25
1070
     0
1070
     1
1040
0.2981899396178821
1040
-457.91824217117528
1040
-142.3151749348562
1040
-0.2331962147455006
1040
0.758721680149164
1070
     0
1040
0.0442050187641056
1071
        1
1040
25.613024604331262
1040
-5.7543776973198808
1040
0.0
1002
}
  0
POLYLINE
  5
B5E
  8
SAPA_FOGBAND
 62
     6
 66
     1
 10
0.0
 20
0.0
 30
0.0
1001
ACAD
1000
ASC_BOUNDS
1002
{
1070
    19
1005
B61
1005
B60
1005
B5F
1002
}
  0
VERTEX
  5
147D
  8
SAPA_FOGBAND
 62
     6
 10
37.893664654679021
 20
4.2632747465254388
 30
0.0
  0
VERTEX
  5
147E
  8
SAPA_FOGBAND
 62
     6
 10
37.893664654679021
 20
5.4632747465254283
 30
0.0
  0
VERTEX
  5
147F
  8
SAPA_FOGBAND
 62
     6
 10
23.393664654679021
 20
5.4632747465254283
 30
0.0
  0
VERTEX
  5
1480
  8
SAPA_FOGBAND
 62
     6
 10
23.393664654679021
 20
4.2632747465254388
 30
0.0
  0
VERTEX
  5
1481
  8
SAPA_FOGBAND
 62
     6
 10
24.793664654678992
 20
4.2632747465254388
 30
0.0
  0
VERTEX
  5
1482
  8
SAPA_FOGBAND
 62
     6
 10
24.793664654678992
 20
0.163274746525417
 30
0.0
  0
VERTEX
  5
1483
  8
SAPA_FOGBAND
 62
     6
 10
23.233272460116101
 20
0.163274746525417
 30
0.0
 42
2.0353444965274159
  0
VERTEX
  5
1484
  8
SAPA_FOGBAND
 62
     6
 10
20.193664654678969
 20
-1.1833437847365069
 30
0.0
  0
VERTEX
  5
1485
  8
SAPA_FOGBAND
 62
     6
 10
19.693664654678969
 20
-2.336725253474583
 30
0.0
  0
VERTEX
  5
1486
  8
SAPA_FOGBAND
 62
     6
 10
17.193664654678969
 20
-2.336725253474583
 30
0.0
  0
VERTEX
  5
1487
  8
SAPA_FOGBAND
 62
     6
 10
17.193664654678969
 20
6.6632747465254161
 30
0.0
  0
VERTEX
  5
1488
  8
SAPA_FOGBAND
 62
     6
 10
39.193664654678969
 20
6.6632747465254161
 30
0.0
  0
VERTEX
  5
1489
  8
SAPA_FOGBAND
 62
     6
 10
39.193664654678969
 20
2.0632747465253942
 30
0.0
  0
VERTEX
  5
148A
  8
SAPA_FOGBAND
 62
     6
 10
37.893664654678958
 20
2.0632747465253942
 30
0.0
  0
VERTEX
  5
148B
  8
SAPA_FOGBAND
 62
     6
 10
37.893664654679021
 20
3.0632747465254511
 30
0.0
  0
VERTEX
  5
148C
  8
SAPA_FOGBAND
 62
     6
 10
36.693664654678969
 20
3.063274746525507
 30
0.0
  0
VERTEX
  5
148D
  8
SAPA_FOGBAND
 62
     6
 10
36.693664654678969
 20
4.2632747465254388
 30
0.0
  0
VERTEX
  5
148E
  8
SAPA_FOGBAND
 62
     6
 10
37.893664654679021
 20
4.2632747465254388
 30
0.0
  0
VERTEX
  5
148F
  8
SAPA_FOGBAND
 62
     6
 10
36.693664654678969
 20
4.2632747465254388
 30
0.0
  0
SEQEND
  5
1490
  8
SAPA_FOGBAND
 62
     6
  0
INSERT
  5
B5F
  8
SAPA_FOGBAND
  6
CONTINUOUS
 62
     6
  2
*X71
 10
0.0
 20
0.0
 30
0.0
1001
ACAD
1000
HATCH
1002
{
1070
    19
1000
ANSI31
1040
0.25
1040
0.0
1000
ASC_BOUNDS
1070
     1
1070
     1
1070
     2
1005
B5E
1005
B55
1000
ASC_SEEDPOINT
1011
18.14823655250882
1021
2.4603434820454886E+160
1031
0.0
1021
-0.6399482240175871
1031
0.0
1000
R14_HATCH_DATA
1000
B5F
1011
1.0
1021
2.4603434820454886E+160
1031
0.0
1021
0.0
1031
0.0
1011
0.0
1021
2.4603434820454886E+160
1031
0.0
1021
1.0
1031
0.0
1011
0.0
1021
2.4603434820454886E+160
1031
0.0
1021
0.0
1031
1.0
1040
0.0
1010
0.0
1020
0.0
1030
1.0
1000
ANSI31
1070
     0
1070
     1
1071
        1
1071
        7
1070
     1
1070
     1
1071
        5
1040
17.193664654678969
1040
-2.336725253474583
1040
0.0
1040
19.693664654678969
1040
-2.336725253474583
1040
0.0
1040
20.193664654678969
1040
-1.1833437847365069
1040
-0.275272722507212
1040
19.093664654678982
1040
0.6632747465212106
1040
0.0
1040
17.193664654678969
1040
0.6632747465211965
1040
0.0
1071
        2
1005
B55
1005
B5E
1070
     0
1070
     1
1040
0.0
1040
0.25
1070
     0
1070
     1
1040
0.7853981633974483
1040
-419.15790548497858
1040
-351.17509257390651
1040
-0.5612660075668221
1040
0.5612660075668221
1070
     0
1040
0.0285431840481622
1071
        1
1040
18.14823655250882
1040
-0.6399482240175871
1040
0.0
1002
}
  0
INSERT
  5
B60
  8
SAPA_FOGBAND
  6
CONTINUOUS
 62
     6
  2
*X72
 10
0.0
 20
0.0
 30
0.0
1001
ACAD
1000
HATCH
1002
{
1070
    19
1000
ANSI31
1040
0.25
1040
0.0
1000
ASC_BOUNDS
1070
     1
1070
     1
1070
     2
1005
B5E
1005
B55
1000
ASC_SEEDPOINT
1011
18.505840887112981
1021
2.4603434820454886E+160
1031
0.0
1021
-2.8850948051421019
1031
0.0
1000
R14_HATCH_DATA
1000
B60
1011
1.0
1021
2.4603434820454886E+160
1031
0.0
1021
0.0
1031
0.0
1011
0.0
1021
2.4603434820454886E+160
1031
0.0
1021
1.0
1031
0.0
1011
0.0
1021
2.4603434820454886E+160
1031
0.0
1021
0.0
1031
1.0
1040
0.0
1010
0.0
1020
0.0
1030
1.0
1000
ANSI31
1070
     0
1070
     1
1071
        1
1071
        7
1070
     1
1070
     1
1071
       16
1040
17.193664654678969
1040
0.6632747465212106
1040
0.0
1040
19.093664654678982
1040
0.6632747465212106
1040
-1.0
1040
23.293664654678981
1040
0.6632747465212106
1040
0.0
1040
24.793664654678992
1040
0.6632747465212248
1040
0.0
1040
24.793664654678992
1040
4.2632747465254388
1040
0.0
1040
23.393664654679011
1040
4.263274746525453
1040
0.0
1040
23.393664654679021
1040
5.4632747465254283
1040
0.0
1040
37.893664654679021
1040
5.4632747465254416
1040
0.0
1040
37.893664654679029
1040
4.2632747465254388
1040
0.0
1040
36.693664654678983
1040
4.2632747465254388
1040
0.0
1040
36.693664654678983
1040
3.0632747465254928
1040
0.0
1040
37.893664654679021
1040
3.0632747465254511
1040
0.0
1040
37.893664654678958
1040
2.0632747465253942
1040
0.0
1040
39.193664654678962
1040
2.0632747465253942
1040
0.0
1040
39.193664654678969
1040
6.6632747465254312
1040
0.0
1040
17.193664654678969
1040
6.6632747465254161
1040
0.0
1071
        2
1005
B55
1005
B5E
1070
     0
1070
     1
1040
0.0
1040
0.25
1070
     0
1070
     1
1040
0.7853981633974483
1040
-335.23385214325702
1040
-351.9599357052042
1040
-0.5612660075668221
1040
0.5612660075668221
1070
     0
1040
0.0442050187641056
1071
        1
1040
18.505840887112981
1040
-2.8850948051421019
1040
0.0
1002
}
  0
INSERT
  5
B61
  8
SAPA_FOGBAND
  6
CONTINUOUS
 62
     6
  2
*X73
 10
0.0
 20
0.0
 30
0.0
1001
ACAD
1000
HATCH
1002
{
1070
    19
1000
ANSI31
1040
0.25
1040
0.0
1000
ASC_BOUNDS
1070
     1
1070
     1
1070
     2
1005
B55
1005
B5E
1000
ASC_SEEDPOINT
1011
21.070953317404701
1021
2.4603434820454886E+160
1031
0.0
1021
5.392017458489021
1031
0.0
1000
R14_HATCH_DATA
1000
B61
1011
1.0
1021
2.4603434820454886E+160
1031
0.0
1021
0.0
1031
0.0
1011
0.0
1021
2.4603434820454886E+160
1031
0.0
1021
1.0
1031
0.0
1011
0.0
1021
2.4603434820454886E+160
1031
0.0
1021
0.0
1031
1.0
1040
0.0
1010
0.0
1020
0.0
1030
1.0
1000
ANSI31
1070
     0
1070
     1
1071
        1
1071
        7
1070
     1
1070
     1
1071
       16
1040
17.193664654678969
1040
6.6632747465254161
1040
0.0
1040
17.193664654678969
1040
0.6632747465212106
1040
0.0
1040
19.093664654678982
1040
0.6632747465212106
1040
-1.0
1040
23.293664654678981
1040
0.6632747465212106
1040
0.0
1040
24.793664654678992
1040
0.6632747465212248
1040
0.0
1040
24.793664654678992
1040
4.2632747465254388
1040
0.0
1040
23.393664654679011
1040
4.263274746525453
1040
0.0
1040
23.393664654679021
1040
5.4632747465254283
1040
0.0
1040
37.893664654679021
1040
5.4632747465254416
1040
0.0
1040
37.893664654679029
1040
4.2632747465254388
1040
0.0
1040
36.693664654678983
1040
4.2632747465254388
1040
0.0
1040
36.693664654678983
1040
3.0632747465254928
1040
0.0
1040
37.893664654679021
1040
3.0632747465254511
1040
0.0
1040
37.893664654678958
1040
2.0632747465253942
1040
0.0
1040
39.193664654678962
1040
2.0632747465253942
1040
0.0
1040
39.193664654678969
1040
6.6632747465254312
1040
0.0
1071
        2
1005
B5E
1005
B55
1070
     0
1070
     1
1040
0.0
1040
0.25
1070
     0
1070
     1
1040
0.7853981633974483
1040
-335.23385214325702
1040
-349.9599357052042
1040
-0.5612660075668221
1040
0.5612660075668221
1070
     0
1040
0.0442050187641056
1071
        1
1040
21.070953317404701
1040
5.392017458489021
1040
0.0
1002
}
  0
LINE
  5
B62
  8
SAPA_FOGBAND
 62
     6
 10
25.013279896949602
 20
6.6632747465254161
 30
0.0
 11
28.974049412408249
 21
6.6632747465254161
 31
0.0
  0
LINE
  5
B63
  8
SAPA_FOGBAND
 62
     6
 10
17.193664654678969
 20
6.6632747465254161
 30
0.0
 11
23.974049412408249
 21
6.6632747465254161
 31
0.0
  0
TEXT
  5
B74
  8
SAPA_MATT
 62
     2
 10
-14.632447090313001
 20
-11.636646217615059
 30
0.0
 40
3.0
  1
10-15
 50
90.0
  7
ISO
  0
TEXT
  5
B75
  8
SAPA_MATT
 62
     2
 10
-14.68401014867495
 20
54.858791828855608
 30
0.0
 40
3.0
  1
120
 50
90.0
  7
ISO
  0
SOLID
  5
B76
  8
SAPA_MATT
 10
-14.18371487308441
 20
0.7099729312178114
 30
0.0
 11
-13.18371487308441
 21
0.7099729312178111
 31
0.0
 12
-13.68371487308441
 22
-2.2900270687821882
 32
0.0
 13
-13.68371487308441
 23
-2.2900270687821882
 33
0.0
  0
SOLID
  5
B77
  8
SAPA_MATT
 10
-14.18371487308438
 20
114.70997293121781
 30
0.0
 11
-13.18371487308438
 21
114.70997293121781
 31
0.0
 12
-13.68371487308438
 22
117.70997293121781
 32
0.0
 13
-13.68371487308438
 23
117.70997293121781
 33
0.0
  0
LINE
  5
B78
  8
SAPA_MATT
 10
-13.68371487308438
 20
114.70997293121781
 30
0.0
 11
-13.68371487308441
 21
0.7099729312178114
 31
0.0
  0
LINE
  5
B79
  8
SAPA_MATT
 10
4.6411478027057447
 20
-2.2900270687821931
 30
0.0
 11
-15.18371487308441
 21
-2.2900270687821882
 31
0.0
  0
LINE
  5
B7A
  8
SAPA_MATT
 10
5.7269342403328931
 20
117.70997293121781
 30
0.0
 11
-15.18371487308438
 21
117.70997293121781
 31
0.0
  0
SOLID
  5
B7B
  8
SAPA_MATT
 10
-14.132447090313009
 20
-11.424514183259101
 30
0.0
 11
-13.132447090313009
 21
-11.424514183259101
 31
0.0
 12
-13.632447090313009
 22
-14.424514183259101
 32
0.0
 13
-13.632447090313009
 23
-14.424514183259101
 33
0.0
  0
SOLID
  5
B7C
  8
SAPA_MATT
 10
-14.132447090313001
 20
-2.4245141832591002
 30
0.0
 11
-13.132447090313001
 21
-2.4245141832591002
 31
0.0
 12
-13.632447090313001
 22
0.5754858167408996
 32
0.0
 13
-13.632447090313001
 23
0.5754858167408996
 33
0.0
  0
LINE
  5
B7D
  8
SAPA_MATT
 10
-13.632447090313001
 20
-2.4245141832591002
 30
0.0
 11
-13.632447090313009
 21
-11.424514183259101
 31
0.0
  0
LINE
  5
B7E
  8
SAPA_MATT
 10
4.6411478027057438
 20
-14.424514183259101
 30
0.0
 11
-15.132447090313009
 21
-14.424514183259101
 31
0.0
  0
LINE
  5
B7F
  8
SAPA_MATT
 10
4.6411478027057447
 20
0.5754858167408945
 30
0.0
 11
-15.132447090313009
 21
0.5754858167409001
 31
0.0
  0
VIEWPORT
  5
2FC
 67
     1
  8
0
 10
5.2499996651675342
 20
3.9999999033972808
 30
0.0
 40
13.786839016452429
 41
8.9929997457669497
 68
     1
 69
     1
1001
ACAD
1000
MVIEW
1002
{
1070
    16
1010
0.0
1020
0.0
1030
0.0
1010
0.0
1020
0.0
1030
1.0
1040
0.0
1040
8.9929997457669497
1040
5.2499996651675342
1040
3.9999999033972808
1040
50.0
1040
0.0
1040
0.0
1070
     0
1070
     0
1070
     1
1070
     1
1070
     0
1070
     0
1070
     0
1070
     0
1040
0.0
1040
0.0
1040
0.0
1040
10.0
1040
10.0
1040
10.0
1040
10.0
1070
     0
1002
{
1002
}
1002
}
  0
VIEWPORT
  5
300
 67
     1
  8
MATT
 10
5.2499997615814209
 20
3.9999997615814209
 30
0.0
 40
8.3999996185302752
 41
6.3999996185302743
 68
     2
 69
     2
1001
ACAD
1000
MVIEW
1002
{
1070
    16
1010
0.0
1020
0.0
1030
0.0
1010
0.0
1020
0.0
1030
1.0
1040
0.0
1040
254.32482763017811
1040
82.806740721764584
1040
125.9177201456914
1040
50.0
1040
0.0
1040
0.0
1070
     0
1070
   100
1070
     1
1070
     0
1070
     0
1070
     0
1070
     0
1070
     0
1040
0.0
1040
0.0
1040
0.0
1040
5.0
1040
5.0
1040
0.0
1040
0.0
1070
     0
1002
{
1002
}
1002
}
  0
ENDSEC
  0
EOF
