  0
SECTION
  2
HEADER
  9
$ACADVER
  1
AC1009
  9
$INSBASE
 10
38.163526022609261
 20
444.14249232610922
 30
0.0
  9
$EXTMIN
 10
0.1132349643964821
 20
-0.09003196353531
 30
0.0
  9
$EXTMAX
 10
138.34476425599689
 20
96.685581494248623
 30
0.0
  9
$LIMMIN
 10
0.0
 20
0.0
  9
$LIMMAX
 10
998.0
 20
710.0
  9
$ORTHOMODE
 70
     1
  9
$REGENMODE
 70
     1
  9
$FILLMODE
 70
     1
  9
$QTEXTMODE
 70
     0
  9
$MIRRTEXT
 70
     1
  9
$DRAGMODE
 70
     2
  9
$LTSCALE
 40
7.0
  9
$OSMODE
 70
   167
  9
$ATTMODE
 70
     1
  9
$TEXTSIZE
 40
6.0
  9
$TRACEWID
 40
0.05
  9
$TEXTSTYLE
  7
ISO
  9
$CLAYER
  8
0
  9
$CELTYPE
  6
BYLAYER
  9
$CECOLOR
 62
   256
  9
$DIMSCALE
 40
0.0
  9
$DIMASZ
 40
3.0
  9
$DIMEXO
 40
1.5
  9
$DIMDLI
 40
10.0
  9
$DIMRND
 40
0.0
  9
$DIMDLE
 40
0.0
  9
$DIMEXE
 40
1.5
  9
$DIMTP
 40
0.0
  9
$DIMTM
 40
0.0
  9
$DIMTXT
 40
3.0
  9
$DIMCEN
 40
-5.0
  9
$DIMTSZ
 40
0.0
  9
$DIMTOL
 70
     0
  9
$DIMLIM
 70
     0
  9
$DIMTIH
 70
     0
  9
$DIMTOH
 70
     1
  9
$DIMSE1
 70
     0
  9
$DIMSE2
 70
     0
  9
$DIMTAD
 70
     1
  9
$DIMZIN
 70
     8
  9
$DIMBLK
  1

  9
$DIMASO
 70
     1
  9
$DIMSHO
 70
     1
  9
$DIMPOST
  1

  9
$DIMAPOST
  1

  9
$DIMALT
 70
     0
  9
$DIMALTD
 70
     0
  9
$DIMALTF
 40
25.399999999999999
  9
$DIMLFAC
 40
-1.0
  9
$DIMTOFL
 70
     1
  9
$DIMTVP
 40
0.0
  9
$DIMTIX
 70
     0
  9
$DIMSOXD
 70
     0
  9
$DIMSAH
 70
     0
  9
$DIMBLK1
  1

  9
$DIMBLK2
  1

  9
$DIMSTYLE
  2
MASKIN
  9
$DIMCLRD
 70
   256
  9
$DIMCLRE
 70
   256
  9
$DIMCLRT
 70
     2
  9
$DIMTFAC
 40
1.0
  9
$DIMGAP
 40
1.0
  9
$LUNITS
 70
     2
  9
$LUPREC
 70
     2
  9
$SKETCHINC
 40
0.1
  9
$FILLETRAD
 40
0.0
  9
$AUNITS
 70
     0
  9
$AUPREC
 70
     2
  9
$MENU
  1
ACAD
  9
$ELEVATION
 40
0.0
  9
$PELEVATION
 40
0.0
  9
$THICKNESS
 40
0.0
  9
$LIMCHECK
 70
     0
  9
$BLIPMODE
 70
     0
  9
$CHAMFERA
 40
0.0
  9
$CHAMFERB
 40
0.0
  9
$SKPOLY
 70
     0
  9
$TDCREATE
 40
2450345.6217337959
  9
$TDUPDATE
 40
2454966.6554147801
  9
$TDINDWG
 40
0.3559185764
  9
$TDUSRTIMER
 40
0.3559185764
  9
$USRTIMER
 70
     1
  9
$ANGBASE
 50
0.0
  9
$ANGDIR
 70
     0
  9
$PDMODE
 70
     3
  9
$PDSIZE
 40
0.0
  9
$PLINEWID
 40
0.0
  9
$COORDS
 70
     1
  9
$SPLFRAME
 70
     0
  9
$SPLINETYPE
 70
     6
  9
$SPLINESEGS
 70
     8
  9
$ATTDIA
 70
     0
  9
$ATTREQ
 70
     1
  9
$HANDLING
 70
     1
  9
$HANDSEED
  5
D89
  9
$SURFTAB1
 70
     6
  9
$SURFTAB2
 70
     6
  9
$SURFTYPE
 70
     6
  9
$SURFU
 70
     6
  9
$SURFV
 70
     6
  9
$UCSNAME
  2

  9
$UCSORG
 10
0.0
 20
0.0
 30
0.0
  9
$UCSXDIR
 10
1.0
 20
0.0
 30
0.0
  9
$UCSYDIR
 10
0.0
 20
1.0
 30
0.0
  9
$PUCSNAME
  2

  9
$PUCSORG
 10
0.0
 20
0.0
 30
0.0
  9
$PUCSXDIR
 10
1.0
 20
0.0
 30
0.0
  9
$PUCSYDIR
 10
0.0
 20
1.0
 30
0.0
  9
$USERI1
 70
     0
  9
$USERI2
 70
     0
  9
$USERI3
 70
     0
  9
$USERI4
 70
     0
  9
$USERI5
 70
     0
  9
$USERR1
 40
0.0
  9
$USERR2
 40
0.0
  9
$USERR3
 40
0.0
  9
$USERR4
 40
0.0
  9
$USERR5
 40
0.0
  9
$WORLDVIEW
 70
     1
  9
$SHADEDGE
 70
     1
  9
$SHADEDIF
 70
    70
  9
$TILEMODE
 70
     1
  9
$MAXACTVP
 70
    16
  9
$PLIMCHECK
 70
     0
  9
$PEXTMIN
 10
1.0000000000000000E+020
 20
1.0000000000000000E+020
 30
1.0000000000000000E+020
  9
$PEXTMAX
 10
-1.0000000000000000E+020
 20
-1.0000000000000000E+020
 30
-1.0000000000000000E+020
  9
$PLIMMIN
 10
-0.1666668268639272
 20
-0.166666657905879
  9
$PLIMMAX
 10
10.833332932840181
 20
8.3333331017982317
  9
$UNITMODE
 70
     0
  9
$VISRETAIN
 70
     1
  9
$PLINEGEN
 70
     0
  9
$PSLTSCALE
 70
     1
  0
ENDSEC
  0
SECTION
  2
TABLES
  0
TABLE
  2
VPORT
 70
     1
  0
VPORT
  2
*ACTIVE
 70
     0
 10
0.0
 20
0.0
 11
1.0
 21
1.0
 12
143.01420915124069
 22
47.979958807988531
 13
0.0
 23
0.0
 14
5.0
 24
5.0
 15
10.0
 25
10.0
 16
0.0
 26
0.0
 36
1.0
 17
0.0
 27
0.0
 37
0.0
 40
170.9412359000118
 41
2.362776025236593
 42
50.0
 43
0.0
 44
0.0
 50
0.0
 51
0.0
 71
     0
 72
   100
 73
     1
 74
     0
 75
     0
 76
     0
 77
     0
 78
     2
  0
ENDTAB
  0
TABLE
  2
LTYPE
 70
     7
  0
LTYPE
  2
CONTINUOUS
 70
     0
  3
Solid line
 72
    65
 73
     0
 40
0.0
  0
LTYPE
  2
BYGG-014533$0$NEWDOT
 70
     0
  3
____ . ____ . ____ . ____ . ____ . ____ . ____
 72
    65
 73
     4
 40
2.0
 49
1.0
 49
-0.5
 49
0.0
 49
-0.5
  0
LTYPE
  2
BYGG-014247$0$DASHDOT
 70
     0
  3
__ . __ . __ . __ . __ . __ . __ . __ . __ . __
 72
    65
 73
     4
 40
1.0
 49
0.5
 49
-0.25
 49
0.0
 49
-0.25
  0
LTYPE
  2
BYGG-022308$0$NEWDOT
 70
     0
  3
____ . ____ . ____ . ____ . ____ . ____ . ____
 72
    65
 73
     4
 40
2.0
 49
1.0
 49
-0.5
 49
0.0
 49
-0.5
  0
LTYPE
  2
BYGG-022308$0$DASHDOT
 70
     0
  3
__ . __ . __ . __ . __ . __ . __ . __ . __ . __
 72
    65
 73
     4
 40
1.0
 49
0.5
 49
-0.25
 49
0.0
 49
-0.25
  0
LTYPE
  2
BYGG-022308$0$DASHED
 70
     0
  3
__ __ __ __ __ __ __ __ __ __ __ __ __ __ __
 72
    65
 73
     2
 40
0.75
 49
0.5
 49
-0.25
  0
LTYPE
  2
BYGG-022308$0$PHANTOM
 70
     0
  3
Phantom ______  __  __  ______  __  __  ______
 72
    65
 73
     6
 40
63.5
 49
31.75
 49
-6.3499999999999988
 49
6.3499999999999988
 49
-6.3499999999999988
 49
6.3499999999999988
 49
-6.3499999999999988
  0
ENDTAB
  0
TABLE
  2
LAYER
 70
    56
  0
LAYER
  2
0
 70
     0
 62
     7
  6
CONTINUOUS
  0
LAYER
  2
SAPA_ANSLUTNING
 70
     0
 62
     6
  6
CONTINUOUS
  0
LAYER
  2
SAPA_PROFIL
 70
     0
 62
     7
  6
CONTINUOUS
  0
ENDTAB
  0
TABLE
  2
STYLE
 70
     9
  0
STYLE
  2
STANDARD
 70
     0
 40
0.0
 41
1.0
 50
0.0
 71
     0
 42
0.2
  3
txt
  4

  0
STYLE
  2
ISO
 70
     0
 40
0.0
 41
1.0
 50
0.0
 71
     0
 42
6.0
  3
isocp3.shx
  4

  0
STYLE
  2
BYGG-023667$0$STANDARD
 70
     0
 40
0.0
 41
1.0
 50
0.0
 71
     0
 42
0.2
  3
txt
  4

  0
STYLE
  2
BYGG-014247$0$STANDARD
 70
     0
 40
0.0
 41
1.0
 50
0.0
 71
     0
 42
0.2
  3
txt
  4

  0
STYLE
  2
BYGG-014247$0$ISO
 70
     0
 40
0.0
 41
1.0
 50
0.0
 71
     0
 42
3.5
  3
isocp3.shx
  4

  0
STYLE
  2
BYGG-022308$0$STANDARD
 70
     0
 40
0.0
 41
1.0
 50
0.0
 71
     0
 42
0.2
  3
txt
  4

  0
STYLE
  2
BYGG-022308$0$ISO
 70
     0
 40
0.0
 41
1.0
 50
0.0
 71
     0
 42
3.5
  3
txt
  4

  0
STYLE
  2
BYGG-014533$0$STANDARD
 70
     0
 40
0.0
 41
1.0
 50
0.0
 71
     0
 42
0.2
  3
txt
  4

  0
STYLE
  2
BYGG-014533$0$ISO
 70
     0
 40
0.0
 41
1.0
 50
0.0
 71
     0
 42
2.5
  3
isocp3.shx
  4

  0
ENDTAB
  0
TABLE
  2
VIEW
 70
     0
  0
ENDTAB
  0
TABLE
  2
UCS
 70
     0
  0
ENDTAB
  0
TABLE
  2
APPID
 70
    18
  0
APPID
  2
ACAD
 70
     0
  0
APPID
  2
ACAD_PSEXT
 70
     0
  0
APPID
  2
ACAECLAYERSTANDARD
 70
     0
  0
APPID
  2
ACAD_MLEADERVER
 70
     0
  0
APPID
  2
ACAD_DSTYLE_DIMTEXT_FILL
 70
     0
  0
APPID
  2
ACAD_DSTYLE_DIMEXT_LENGTH
 70
     0
  0
APPID
  2
ACAD_DSTYLE_DIMEXT_ENABLED
 70
     0
  0
APPID
  2
ACAD_DSTYLE_DIM_LINETYPE
 70
     0
  0
APPID
  2
ACAD_DSTYLE_DIM_EXT1_LINETYPE
 70
     0
  0
APPID
  2
ACAD_DSTYLE_DIM_EXT2_LINETYPE
 70
     0
  0
APPID
  2
ACAD_DSTYLE_DIMJOGGED_JOGA
 70
     0
  0
APPID
  2
ACAD_DSTYLE_DIMARC_LENGTH_
 70
     0
  0
APPID
  2
AMG_ARCHIVE11
 70
     0
  0
APPID
  2
ACAD_EXEMPT_FROM_CAD_STANDARDS
 70
     0
  0
APPID
  2
ACDBBLOCKREPETAG
 70
     0
  0
APPID
  2
ACAD_DSTYLE_DIMJAG
 70
     0
  0
APPID
  2
ACAD_DSTYLE_DIMTALN
 70
     0
  0
APPID
  2
ACADANNOTATIVE
 70
     0
  0
ENDTAB
  0
TABLE
  2
DIMSTYLE
 70
     8
  0
DIMSTYLE
  2
MASKIN
 70
     0
  3

  4

  5

  6

  7

 40
0.0
 41
3.0
 42
1.5
 43
10.0
 44
1.5
 45
0.0
 46
0.0
 47
0.0
 48
0.0
140
3.0
141
-5.0
142
0.0
143
25.399999999999999
144
-1.0
145
0.0
146
1.0
147
1.0
 71
     0
 72
     0
 73
     0
 74
     1
 75
     0
 76
     0
 77
     1
 78
     8
170
     0
171
     0
172
     1
173
     0
174
     0
175
     0
176
   256
177
   256
178
     2
  0
DIMSTYLE
  2
BYGG-023667$0$STANDARD
 70
     0
  3

  4

  5

  6

  7

 40
1.0
 41
0.18
 42
0.0625
 43
0.38
 44
0.18
 45
0.0
 46
0.0
 47
0.0
 48
0.0
140
0.18
141
0.09
142
0.0
143
25.399999999999999
144
1.0
145
0.0
146
1.0
147
0.09
 71
     0
 72
     0
 73
     1
 74
     1
 75
     0
 76
     0
 77
     0
 78
     0
170
     0
171
     2
172
     0
173
     0
174
     0
175
     0
176
     0
177
     0
178
     0
  0
DIMSTYLE
  2
BYGG-014247$0$STANDARD
 70
     0
  3

  4

  5

  6

  7

 40
1.0
 41
0.18
 42
0.0625
 43
0.38
 44
0.18
 45
0.0
 46
0.0
 47
0.0
 48
0.0
140
0.18
141
0.09
142
0.0
143
25.399999999999999
144
1.0
145
0.0
146
1.0
147
0.09
 71
     0
 72
     0
 73
     1
 74
     1
 75
     0
 76
     0
 77
     0
 78
     0
170
     0
171
     2
172
     0
173
     0
174
     0
175
     0
176
     0
177
     0
178
     0
  0
DIMSTYLE
  2
BYGG-014247$0$MASKIN
 70
     0
  3

  4

  5

  6

  7

 40
0.0
 41
3.0
 42
1.5
 43
10.0
 44
1.5
 45
0.0
 46
0.0
 47
0.0
 48
0.0
140
3.0
141
-5.0
142
0.0
143
25.399999999999999
144
-1.0
145
0.0
146
1.0
147
1.0
 71
     0
 72
     0
 73
     0
 74
     0
 75
     0
 76
     0
 77
     1
 78
     8
170
     0
171
     0
172
     1
173
     0
174
     0
175
     0
176
   256
177
   256
178
   256
  0
DIMSTYLE
  2
BYGG-022308$0$STANDARD
 70
     0
  3

  4

  5

  6

  7

 40
1.0
 41
0.18
 42
0.0625
 43
0.38
 44
0.18
 45
0.0
 46
0.0
 47
0.0
 48
0.0
140
0.18
141
0.09
142
0.0
143
25.399999999999999
144
1.0
145
0.0
146
1.0
147
0.09
 71
     0
 72
     0
 73
     1
 74
     1
 75
     0
 76
     0
 77
     0
 78
     0
170
     0
171
     2
172
     0
173
     0
174
     0
175
     0
176
     0
177
     0
178
     0
  0
DIMSTYLE
  2
BYGG-022308$0$MASKIN
 70
     0
  3

  4

  5

  6

  7

 40
0.0
 41
3.0
 42
1.5
 43
10.0
 44
1.5
 45
0.0
 46
0.0
 47
0.0
 48
0.0
140
3.0
141
-5.0
142
0.0
143
25.399999999999999
144
-1.0
145
0.0
146
1.0
147
1.0
 71
     0
 72
     0
 73
     0
 74
     0
 75
     0
 76
     0
 77
     1
 78
     8
170
     0
171
     0
172
     1
173
     0
174
     0
175
     0
176
   256
177
   256
178
     2
  0
DIMSTYLE
  2
BYGG-014533$0$STANDARD
 70
     0
  3

  4

  5

  6

  7

 40
1.0
 41
0.18
 42
0.0625
 43
0.38
 44
0.18
 45
0.0
 46
0.0
 47
0.0
 48
0.0
140
0.18
141
0.09
142
0.0
143
25.399999999999999
144
1.0
145
0.0
146
1.0
147
0.09
 71
     0
 72
     0
 73
     1
 74
     1
 75
     0
 76
     0
 77
     0
 78
     0
170
     0
171
     2
172
     0
173
     0
174
     0
175
     0
176
     0
177
     0
178
     0
  0
DIMSTYLE
  2
BYGG-014533$0$MASKIN
 70
     0
  3

  4

  5

  6

  7

 40
0.0
 41
3.0
 42
1.5
 43
10.0
 44
1.5
 45
0.0
 46
0.0
 47
0.0
 48
0.0
140
3.0
141
-5.0
142
0.0
143
25.399999999999999
144
-1.0
145
0.0
146
1.0
147
1.0
 71
     0
 72
     0
 73
     0
 74
     1
 75
     0
 76
     0
 77
     1
 78
     8
170
     0
171
     0
172
     1
173
     0
174
     0
175
     0
176
   256
177
   256
178
     2
  0
ENDTAB
  0
ENDSEC
  0
SECTION
  2
BLOCKS
  0
BLOCK
  8
0
  2
$MODEL_SPACE
 70
     0
 10
0.0
 20
0.0
 30
0.0
  3
$MODEL_SPACE
  1

  0
ENDBLK
  5
D
  8
0
  0
BLOCK
 67
     1
  8
0
  2
$PAPER_SPACE
 70
     0
 10
0.0
 20
0.0
 30
0.0
  3
$PAPER_SPACE
  1

  0
ENDBLK
  5
12
 67
     1
  8
0
  0
BLOCK
  8
0
  2
*X22
 70
     1
 10
0.0
 20
0.0
 30
0.0
  3
*X22
  1

  0
LINE
  5
AA8
  8
0
 62
     0
 10
36.006889244876483
 20
0.0858647605998577
 30
0.0
 11
38.344764255996957
 21
2.4237397717203488
 31
0.0
  0
LINE
  5
AA9
  8
0
 62
     0
 10
31.516761184341899
 20
0.0858647605998577
 30
0.0
 11
38.344764255996957
 21
6.9138678322549199
 31
0.0
  0
LINE
  5
AAA
  8
0
 62
     0
 10
27.026633123807319
 20
0.0858647605998595
 30
0.0
 11
38.344764255996957
 21
11.403995892789499
 31
0.0
  0
LINE
  5
AAB
  8
0
 62
     0
 10
22.536505063272749
 20
0.0858647605998613
 30
0.0
 11
38.344764255996957
 21
15.894123953324071
 31
0.0
  0
LINE
  5
AAC
  8
0
 62
     0
 10
18.046377002738168
 20
0.0858647605998631
 30
0.0
 11
38.344764255996957
 21
20.384252013858649
 31
0.0
  0
LINE
  5
AAD
  8
0
 62
     0
 10
13.55624894220359
 20
0.0858647605998613
 30
0.0
 11
38.344764255996957
 21
24.87438007439323
 31
0.0
  0
LINE
  5
AAE
  8
0
 62
     0
 10
9.0661208816690149
 20
0.0858647605998604
 30
0.0
 11
38.344764255996957
 21
29.36450813492781
 31
0.0
  0
LINE
  5
AAF
  8
0
 62
     0
 10
4.5759928211344381
 20
0.0858647605998617
 30
0.0
 11
38.344764255996957
 21
33.854636195462383
 31
0.0
  0
LINE
  5
AB0
  8
0
 62
     0
 10
0.113234964396483
 20
0.1132349643964829
 30
0.0
 11
38.344764255996957
 21
38.344764255996949
 31
0.0
  0
LINE
  5
AB1
  8
0
 62
     0
 10
0.1132349643964821
 20
4.6033630249310571
 30
0.0
 11
38.344764255996957
 21
42.834892316531523
 31
0.0
  0
LINE
  5
AB2
  8
0
 62
     0
 10
0.1132349643964874
 20
9.0934910854656401
 30
0.0
 11
38.344764255996957
 21
47.325020377066089
 31
0.0
  0
LINE
  5
AB3
  8
0
 62
     0
 10
0.1132349643964865
 20
13.58361914600021
 30
0.0
 11
38.344764255996949
 21
51.815148437600669
 31
0.0
  0
LINE
  5
AB4
  8
0
 62
     0
 10
0.1132349643964918
 20
18.073747206534801
 30
0.0
 11
38.344764255996949
 21
56.30527649813525
 31
0.0
  0
LINE
  5
AB5
  8
0
 62
     0
 10
0.1132349643964901
 20
22.563875267069371
 30
0.0
 11
38.344764255996949
 21
60.795404558669823
 31
0.0
  0
LINE
  5
AB6
  8
0
 62
     0
 10
0.1132349643964936
 20
27.054003327603951
 30
0.0
 11
38.344764255996949
 21
65.285532619204403
 31
0.0
  0
LINE
  5
AB7
  8
0
 62
     0
 10
0.1132349643964972
 20
31.544131388138531
 30
0.0
 11
38.344764255996942
 21
69.775660679738962
 31
0.0
  0
LINE
  5
AB8
  8
0
 62
     0
 10
0.1132349643964972
 20
36.034259448673112
 30
0.0
 11
38.344764255996942
 21
74.265788740273535
 31
0.0
  0
LINE
  5
AB9
  8
0
 62
     0
 10
0.1132349643965007
 20
40.524387509207678
 30
0.0
 11
38.344764255996942
 21
78.755916800808109
 31
0.0
  0
LINE
  5
ABA
  8
0
 62
     0
 10
0.1132349643965007
 20
45.014515569742258
 30
0.0
 11
38.344764255996942
 21
83.246044861342668
 31
0.0
  0
LINE
  5
ABB
  8
0
 62
     0
 10
0.1132349643965007
 20
49.504643630276831
 30
0.0
 11
38.218559370584281
 21
87.609968036464608
 31
0.0
  0
LINE
  5
ABC
  8
0
 62
     0
 10
0.1132349643965007
 20
53.994771690811412
 30
0.0
 11
33.728431310049707
 21
87.609968036464608
 31
0.0
  0
LINE
  5
ABD
  8
0
 62
     0
 10
0.1132349643965007
 20
58.484899751345992
 30
0.0
 11
29.23830324951513
 21
87.609968036464608
 31
0.0
  0
LINE
  5
ABE
  8
0
 62
     0
 10
0.1132349643965007
 20
62.975027811880572
 30
0.0
 11
24.74817518898055
 21
87.609968036464608
 31
0.0
  0
LINE
  5
ABF
  8
0
 62
     0
 10
0.1132349643964972
 20
67.465155872415139
 30
0.0
 11
20.25804712844597
 21
87.609968036464608
 31
0.0
  0
LINE
  5
AC0
  8
0
 62
     0
 10
0.1132349643964972
 20
71.955283932949712
 30
0.0
 11
15.767919067911389
 21
87.609968036464608
 31
0.0
  0
LINE
  5
AC1
  8
0
 62
     0
 10
0.1132349643964972
 20
76.445411993484285
 30
0.0
 11
11.27779100737682
 21
87.609968036464608
 31
0.0
  0
LINE
  5
AC2
  8
0
 62
     0
 10
0.1132349643964972
 20
80.935540054018858
 30
0.0
 11
6.7876629468422456
 21
87.609968036464608
 31
0.0
  0
LINE
  5
AC3
  8
0
 62
     0
 10
0.1132349643964972
 20
85.425668114553446
 30
0.0
 11
2.297534886307659
 21
87.609968036464608
 31
0.0
  0
ENDBLK
  5
AC5
  8
0
  0
BLOCK
  8
0
  2
*U23
 70
     1
 10
0.0
 20
0.0
 30
0.0
  3
*U23
  1

  0
LINE
  5
AF5
  8
0
 10
803.27445133771903
 20
651.3246753803445
 30
0.0
 11
804.27445133771903
 21
651.3246753803445
 31
0.0
  0
LINE
  5
AF6
  8
0
 10
802.47445133771885
 20
650.52467538034455
 30
0.0
 11
803.27445133771903
 21
651.3246753803445
 31
0.0
  0
LINE
  5
AF7
  8
0
 10
804.27445133771903
 20
651.3246753803445
 30
0.0
 11
804.27445133771903
 21
648.82467538034439
 31
0.0
  0
LINE
  5
AF8
  8
0
 10
802.47445133771885
 20
644.84429062261506
 30
0.0
 11
802.47445133771885
 21
650.52467538034455
 31
0.0
  0
LINE
  5
AF9
  8
0
 10
804.27445133771903
 20
648.82467538034439
 30
0.0
 11
807.27445133771892
 21
648.82467538034439
 31
0.0
  0
LINE
  5
AFA
  8
0
 10
802.77445133771892
 20
644.32467538034439
 30
0.0
 11
802.47445133771885
 21
644.84429062261506
 31
0.0
  0
LINE
  5
AFB
  8
0
 10
807.27445133771892
 20
648.82467538034439
 30
0.0
 11
807.27445133771892
 21
667.52467538034455
 31
0.0
  0
LINE
  5
AFC
  8
0
 10
802.47445133771885
 20
643.80506013807383
 30
0.0
 11
802.77445133771892
 21
644.32467538034439
 31
0.0
  0
LINE
  5
AFD
  8
0
 10
807.27445133771892
 20
667.52467538034455
 30
0.0
 11
804.27445133771903
 21
667.52467538034455
 31
0.0
  0
LINE
  5
AFE
  8
0
 10
802.47445133771885
 20
638.12467538034446
 30
0.0
 11
802.47445133771885
 21
643.80506013807383
 31
0.0
  0
LINE
  5
AFF
  8
0
 10
804.27445133771903
 20
667.52467538034455
 30
0.0
 11
804.27445133771903
 21
665.32467538034439
 31
0.0
  0
LINE
  5
B00
  8
0
 10
803.27445133771903
 20
637.3246753803445
 30
0.0
 11
802.47445133771885
 21
638.12467538034446
 31
0.0
  0
LINE
  5
B01
  8
0
 10
804.27445133771903
 20
665.32467538034439
 30
0.0
 11
803.27445133771903
 21
665.32467538034439
 31
0.0
  0
LINE
  5
B02
  8
0
 10
804.27445133771903
 20
637.3246753803445
 30
0.0
 11
803.27445133771903
 21
637.3246753803445
 31
0.0
  0
LINE
  5
B03
  8
0
 10
803.27445133771903
 20
665.32467538034439
 30
0.0
 11
802.27445133771903
 21
666.3246753803445
 31
0.0
  0
LINE
  5
B04
  8
0
 10
804.27445133771903
 20
639.82467538034439
 30
0.0
 11
804.27445133771903
 21
637.3246753803445
 31
0.0
  0
LINE
  5
B05
  8
0
 10
802.27445133771903
 20
666.3246753803445
 30
0.0
 11
802.27445133771903
 21
669.32467538034439
 31
0.0
  0
LINE
  5
B06
  8
0
 10
807.27445133771892
 20
639.82467538034439
 30
0.0
 11
804.27445133771903
 21
639.82467538034439
 31
0.0
  0
LINE
  5
B07
  8
0
 10
802.27445133771903
 20
669.32467538034439
 30
0.0
 11
847.27445133771903
 21
669.32467538034439
 31
0.0
  0
LINE
  5
B08
  8
0
 10
807.27445133771892
 20
621.12467538034446
 30
0.0
 11
807.27445133771892
 21
639.82467538034439
 31
0.0
  0
LINE
  5
B09
  8
0
 10
847.27445133771903
 20
669.32467538034439
 30
0.0
 11
847.27445133771903
 21
666.3246753803445
 31
0.0
  0
LINE
  5
B0A
  8
0
 10
804.27445133771903
 20
621.12467538034446
 30
0.0
 11
807.27445133771892
 21
621.12467538034446
 31
0.0
  0
LINE
  5
B0B
  8
0
 10
847.27445133771903
 20
666.3246753803445
 30
0.0
 11
846.27445133771903
 21
665.32467538034439
 31
0.0
  0
LINE
  5
B0C
  8
0
 10
804.27445133771903
 20
623.32467538034439
 30
0.0
 11
804.27445133771903
 21
621.12467538034446
 31
0.0
  0
LINE
  5
B0D
  8
0
 10
846.27445133771903
 20
665.32467538034439
 30
0.0
 11
845.27445133771903
 21
665.32467538034439
 31
0.0
  0
LINE
  5
B0E
  8
0
 10
803.27445133771903
 20
623.32467538034439
 30
0.0
 11
804.27445133771903
 21
623.32467538034439
 31
0.0
  0
LINE
  5
B0F
  8
0
 10
845.27445133771903
 20
665.32467538034439
 30
0.0
 11
845.27445133771903
 21
667.52467538034455
 31
0.0
  0
LINE
  5
B10
  8
0
 10
802.27445133771903
 20
622.3246753803445
 30
0.0
 11
803.27445133771903
 21
623.32467538034439
 31
0.0
  0
LINE
  5
B11
  8
0
 10
845.27445133771903
 20
667.52467538034455
 30
0.0
 11
842.27445133771914
 21
667.52467538034455
 31
0.0
  0
LINE
  5
B12
  8
0
 10
802.27445133771903
 20
619.32467538034439
 30
0.0
 11
802.27445133771903
 21
622.3246753803445
 31
0.0
  0
LINE
  5
B13
  8
0
 10
842.27445133771914
 20
667.52467538034455
 30
0.0
 11
842.27445133771914
 21
648.82467538034439
 31
0.0
  0
LINE
  5
B14
  8
0
 10
847.27445133771903
 20
619.32467538034439
 30
0.0
 11
802.27445133771903
 21
619.32467538034439
 31
0.0
  0
LINE
  5
B15
  8
0
 10
842.27445133771914
 20
648.82467538034439
 30
0.0
 11
845.27445133771903
 21
648.82467538034439
 31
0.0
  0
LINE
  5
B16
  8
0
 10
847.27445133771903
 20
622.3246753803445
 30
0.0
 11
847.27445133771903
 21
619.32467538034439
 31
0.0
  0
LINE
  5
B17
  8
0
 10
845.27445133771903
 20
648.82467538034439
 30
0.0
 11
845.27445133771903
 21
651.3246753803445
 31
0.0
  0
LINE
  5
B18
  8
0
 10
846.27445133771903
 20
623.32467538034439
 30
0.0
 11
847.27445133771903
 21
622.3246753803445
 31
0.0
  0
LINE
  5
B19
  8
0
 10
845.27445133771903
 20
651.3246753803445
 30
0.0
 11
846.27445133771903
 21
651.3246753803445
 31
0.0
  0
LINE
  5
B1A
  8
0
 10
845.27445133771903
 20
623.32467538034439
 30
0.0
 11
846.27445133771903
 21
623.32467538034439
 31
0.0
  0
LINE
  5
B1B
  8
0
 10
846.27445133771903
 20
651.3246753803445
 30
0.0
 11
847.07445133771887
 21
650.52467538034455
 31
0.0
  0
LINE
  5
B1C
  8
0
 10
845.27445133771903
 20
621.12467538034446
 30
0.0
 11
845.27445133771903
 21
623.32467538034439
 31
0.0
  0
LINE
  5
B1D
  8
0
 10
847.07445133771887
 20
650.52467538034455
 30
0.0
 11
847.07445133771887
 21
644.84429062261506
 31
0.0
  0
LINE
  5
B1E
  8
0
 10
842.27445133771914
 20
621.12467538034446
 30
0.0
 11
845.27445133771903
 21
621.12467538034446
 31
0.0
  0
LINE
  5
B1F
  8
0
 10
847.07445133771887
 20
644.84429062261506
 30
0.0
 11
846.77445133771914
 21
644.32467538034439
 31
0.0
  0
LINE
  5
B20
  8
0
 10
842.27445133771914
 20
639.82467538034439
 30
0.0
 11
842.27445133771914
 21
621.12467538034446
 31
0.0
  0
LINE
  5
B21
  8
0
 10
846.77445133771914
 20
644.32467538034439
 30
0.0
 11
847.07445133771887
 21
643.80506013807383
 31
0.0
  0
LINE
  5
B22
  8
0
 10
845.27445133771903
 20
639.82467538034439
 30
0.0
 11
842.27445133771914
 21
639.82467538034439
 31
0.0
  0
LINE
  5
B23
  8
0
 10
847.07445133771887
 20
643.80506013807383
 30
0.0
 11
847.07445133771887
 21
638.12467538034446
 31
0.0
  0
LINE
  5
B24
  8
0
 10
845.27445133771903
 20
637.3246753803445
 30
0.0
 11
845.27445133771903
 21
639.82467538034439
 31
0.0
  0
LINE
  5
B25
  8
0
 10
847.07445133771887
 20
638.12467538034446
 30
0.0
 11
846.27445133771903
 21
637.3246753803445
 31
0.0
  0
LINE
  5
B26
  8
0
 10
846.27445133771903
 20
637.3246753803445
 30
0.0
 11
845.27445133771903
 21
637.3246753803445
 31
0.0
  0
LINE
  5
B27
  8
0
 10
840.47445133771896
 20
667.52467538034455
 30
0.0
 11
840.47445133771896
 21
646.41967538034453
 31
0.0
  0
ARC
  5
B28
  8
0
 10
840.96945133771885
 20
646.4196753803443
 30
0.0
 40
0.4949999999999477
 50
179.99999999998681
 51
270.0
  0
LINE
  5
B29
  8
0
 10
809.07445133771898
 20
667.52467538034455
 30
0.0
 11
840.47445133771896
 21
667.52467538034455
 31
0.0
  0
LINE
  5
B2A
  8
0
 10
840.96945133771885
 20
645.92467538034452
 30
0.0
 11
840.97945133771896
 21
645.92467538034452
 31
0.0
  0
LINE
  5
B2B
  8
0
 10
809.07445133771898
 20
646.41967538034453
 30
0.0
 11
809.07445133771898
 21
667.52467538034455
 31
0.0
  0
ARC
  5
B2C
  8
0
 10
840.97945133771896
 20
646.4196753803443
 30
0.0
 40
0.4949999999999477
 50
270.0
 51
0.0000000000131894
  0
ARC
  5
B2D
  8
0
 10
808.57945133771909
 20
646.4196753803443
 30
0.0
 40
0.4950000000000045
 50
269.99999999998681
 51
0.0000000000131095
  0
LINE
  5
B2E
  8
0
 10
841.47445133771885
 20
646.41967538034453
 30
0.0
 11
841.47445133771896
 21
646.5796753803445
 31
0.0
  0
LINE
  5
B2F
  8
0
 10
808.5694513377191
 20
645.92467538034452
 30
0.0
 11
808.57945133771887
 21
645.92467538034452
 31
0.0
  0
ARC
  5
B30
  8
0
 10
841.96945133771908
 20
646.57967538034427
 30
0.0
 40
0.4950000000000152
 50
90.000000000013159
 51
179.99999999998681
  0
ARC
  5
B31
  8
0
 10
808.5694513377191
 20
646.41967538034453
 30
0.0
 40
0.4950000000000616
 50
180.0
 51
270.0
  0
LINE
  5
B32
  8
0
 10
841.96945133771885
 20
647.0746753803445
 30
0.0
 11
842.77445133771903
 21
647.0746753803445
 31
0.0
  0
LINE
  5
B33
  8
0
 10
808.07445133771898
 20
646.5796753803445
 30
0.0
 11
808.07445133771898
 21
646.41967538034453
 31
0.0
  0
ARC
  5
B34
  8
0
 10
842.77445133771994
 20
644.32467538034359
 30
0.0
 40
2.750000000000778
 50
7.8247569391562211
 51
90.000000000018971
  0
ARC
  5
B35
  8
0
 10
807.57945133771887
 20
646.5796753803445
 30
0.0
 40
0.4949999999999584
 50
0.0
 51
89.999999999986898
  0
LINE
  5
B36
  8
0
 10
845.498846380955
 20
644.69907042358102
 30
0.0
 11
845.1244513377186
 21
644.32467538034439
 31
0.0
  0
LINE
  5
B37
  8
0
 10
806.77445133771892
 20
647.0746753803445
 30
0.0
 11
807.57945133771909
 21
647.0746753803445
 31
0.0
  0
LINE
  5
B38
  8
0
 10
845.1244513377186
 20
644.32467538034439
 30
0.0
 11
845.49884638095341
 21
643.95028033710821
 31
0.0
  0
ARC
  5
B39
  8
0
 10
806.77445133771801
 20
644.32467538034359
 30
0.0
 40
2.750000000000778
 50
89.999999999981043
 51
172.1752430608438
  0
ARC
  5
B3A
  8
0
 10
842.77445133771903
 20
644.32467538034439
 30
0.0
 40
2.74999999999998
 50
270.0
 51
352.1752430608629
  0
LINE
  5
B3B
  8
0
 10
804.42445133771935
 20
644.32467538034439
 30
0.0
 11
804.05005629448306
 21
644.69907042358102
 31
0.0
  0
LINE
  5
B3C
  8
0
 10
842.77445133771903
 20
641.57467538034439
 30
0.0
 11
841.96945133771885
 21
641.57467538034439
 31
0.0
  0
LINE
  5
B3D
  8
0
 10
804.05005629448465
 20
643.95028033710821
 30
0.0
 11
804.42445133771935
 21
644.32467538034439
 31
0.0
  0
ARC
  5
B3E
  8
0
 10
841.96945133771885
 20
642.06967538034462
 30
0.0
 40
0.4950000000000722
 50
180.0000000000131
 51
270.0
  0
ARC
  5
B3F
  8
0
 10
806.77445133771903
 20
644.32467538034439
 30
0.0
 40
2.74999999999998
 50
187.82475693913699
 51
270.0
  0
LINE
  5
B40
  8
0
 10
841.47445133771885
 20
642.06967538034439
 30
0.0
 11
841.47445133771885
 21
642.22967538034436
 31
0.0
  0
LINE
  5
B41
  8
0
 10
807.57945133771909
 20
641.57467538034439
 30
0.0
 11
806.77445133771903
 21
641.57467538034439
 31
0.0
  0
ARC
  5
B42
  8
0
 10
840.97945133771896
 20
642.22967538034447
 30
0.0
 40
0.4949999999999477
 50
359.99999999998681
 51
90.0
  0
ARC
  5
B43
  8
0
 10
807.57945133771887
 20
642.06967538034439
 30
0.0
 40
0.4949999999999584
 50
270.00000000001307
 51
0.0
  0
LINE
  5
B44
  8
0
 10
840.97945133771896
 20
642.72467538034437
 30
0.0
 11
840.96945133771885
 21
642.72467538034437
 31
0.0
  0
LINE
  5
B45
  8
0
 10
808.07445133771898
 20
642.22967538034436
 30
0.0
 11
808.07445133771898
 21
642.06967538034439
 31
0.0
  0
ARC
  5
B46
  8
0
 10
840.96945133771885
 20
642.22967538034447
 30
0.0
 40
0.4949999999999477
 50
90.0
 51
180.00000000001319
  0
ARC
  5
B47
  8
0
 10
808.5694513377191
 20
642.22967538034436
 30
0.0
 40
0.4950000000000613
 50
90.000000000000028
 51
180.0
  0
LINE
  5
B48
  8
0
 10
840.47445133771896
 20
642.22967538034436
 30
0.0
 11
840.47445133771896
 21
621.12467538034446
 31
0.0
  0
LINE
  5
B49
  8
0
 10
808.57945133771887
 20
642.72467538034437
 30
0.0
 11
808.5694513377191
 21
642.72467538034437
 31
0.0
  0
LINE
  5
B4A
  8
0
 10
840.47445133771896
 20
621.12467538034446
 30
0.0
 11
809.07445133771898
 21
621.12467538034446
 31
0.0
  0
ARC
  5
B4B
  8
0
 10
808.57945133771909
 20
642.22967538034447
 30
0.0
 40
0.4950000000000045
 50
359.99999999998681
 51
90.000000000013102
  0
LINE
  5
B4C
  8
0
 10
809.07445133771898
 20
621.12467538034446
 30
0.0
 11
809.07445133771898
 21
642.22967538034436
 31
0.0
  0
ENDBLK
  5
B4E
  8
0
  0
BLOCK
  8
0
  2
*U24
 70
     1
 10
0.0
 20
0.0
 30
0.0
  3
*U24
  1

  0
TEXT
  5
B70
  8
0
 62
     2
 10
822.46231930336307
 20
606.73114493365938
 30
0.0
 40
3.0
  1
45
  7
BYGG-014533$0$ISO
  0
ENDBLK
  5
B72
  8
0
  0
BLOCK
  8
0
  2
*U25
 70
     1
 10
0.0
 20
0.0
 30
0.0
  3
*U25
  1

  0
TEXT
  5
B74
  8
0
 62
     2
 10
857.95933842027637
 20
642.22349427798235
 30
0.0
 40
3.0
  1
50
 50
90.0
  7
BYGG-014533$0$ISO
  0
ENDBLK
  5
B76
  8
0
  0
BLOCK
  8
0
  2
*U26
 70
     1
 10
0.0
 20
0.0
 30
0.0
  3
*U26
  1

  0
TEXT
  5
B7A
  8
0
 10
200.7066197366058
 20
121.9761478607964
 30
0.0
 40
3.0
  1
55.15
 50
90.0
  7
BYGG-014247$0$ISO
  0
ENDBLK
  5
B7C
  8
0
  0
BLOCK
  8
0
  2
*U27
 70
     1
 10
0.0
 20
0.0
 30
0.0
  3
*U27
  1

  0
TEXT
  5
B86
  8
0
 10
169.4719591245163
 20
80.624583302187148
 30
0.0
 40
3.0
  1
25
  7
BYGG-014247$0$ISO
  0
ENDBLK
  5
B88
  8
0
  0
BLOCK
  8
0
  2
*U28
 70
     1
 10
0.0
 20
0.0
 30
0.0
  3
*U28
  1

  0
TEXT
  5
B91
  8
0
 10
176.20834500782911
 20
165.11646576828349
 30
0.0
 40
3.0
  1
12
  7
BYGG-014247$0$ISO
  0
ENDBLK
  5
B93
  8
0
  0
BLOCK
  8
0
  2
*U29
 70
     1
 10
0.0
 20
0.0
 30
0.0
  3
*U29
  1

  0
TEXT
  5
C36
  8
0
 10
84.734145127082726
 20
41.659162315746308
 30
0.0
 40
3.0
  1
55.15
 50
90.0
  7
BYGG-014247$0$ISO
  0
ENDBLK
  5
C38
  8
0
  0
BLOCK
  8
0
  2
*U30
 70
     1
 10
0.0
 20
0.0
 30
0.0
  3
*U30
  1

  0
TEXT
  5
C3A
  8
0
 10
113.7207227728225
 20
93.835581494248615
 30
0.0
 40
3.0
  1
25
  7
BYGG-014247$0$ISO
  0
ENDBLK
  5
C3C
  8
0
  0
BLOCK
  8
0
  2
*U31
 70
     1
 10
0.0
 20
0.0
 30
0.0
  3
*U31
  1

  0
TEXT
  5
C3E
  8
0
 10
107.4522426905051
 20
9.3436990281523062
 30
0.0
 40
3.0
  1
12
  7
BYGG-014247$0$ISO
  0
ENDBLK
  5
C40
  8
0
  0
BLOCK
  8
0
  2
*U32
 70
     1
 10
0.0
 20
0.0
 30
0.0
  3
*U32
  1

  0
TEXT
  5
C42
  8
0
 62
     2
 10
78.532632221641038
 20
5.653794336217401
 30
0.0
 40
3.0
  1
45
  7
BYGG-014533$0$ISO
  0
ENDBLK
  5
C44
  8
0
  0
BLOCK
  8
0
  2
*U33
 70
     1
 10
0.0
 20
0.0
 30
0.0
  3
*U33
  1

  0
TEXT
  5
C46
  8
0
 62
     2
 10
114.0296513385544
 20
41.146143680540227
 30
0.0
 40
3.0
  1
50
 50
90.0
  7
BYGG-014533$0$ISO
  0
ENDBLK
  5
C48
  8
0
  0
BLOCK
  8
0
  2
*U34
 70
     1
 10
0.0
 20
0.0
 30
0.0
  3
*U34
  1

  0
LINE
  5
C4A
  8
SAPA_PROFIL
 10
59.344764255997013
 20
50.24732478290241
 30
0.0
 11
60.344764255996999
 21
50.24732478290241
 31
0.0
  0
LINE
  5
C4B
  8
SAPA_PROFIL
 10
58.544764255996938
 20
49.447324782902449
 30
0.0
 11
59.344764255997013
 21
50.24732478290241
 31
0.0
  0
LINE
  5
C4C
  8
SAPA_PROFIL
 10
60.344764255996999
 20
50.24732478290241
 30
0.0
 11
60.344764255996999
 21
47.74732478290241
 31
0.0
  0
LINE
  5
C4D
  8
SAPA_PROFIL
 10
58.544764255996938
 20
43.766940025173078
 30
0.0
 11
58.544764255996938
 21
49.447324782902449
 31
0.0
  0
LINE
  5
C4E
  8
SAPA_PROFIL
 10
60.344764255996999
 20
47.74732478290241
 30
0.0
 11
63.344764255996999
 21
47.74732478290241
 31
0.0
  0
LINE
  5
C4F
  8
SAPA_PROFIL
 10
58.844764255996999
 20
43.24732478290241
 30
0.0
 11
58.544764255996938
 21
43.766940025173078
 31
0.0
  0
LINE
  5
C50
  8
SAPA_PROFIL
 10
63.344764255996999
 20
47.74732478290241
 30
0.0
 11
63.344764255996999
 21
66.447324782902456
 31
0.0
  0
LINE
  5
C51
  8
SAPA_PROFIL
 10
58.544764255996938
 20
42.727709540631729
 30
0.0
 11
58.844764255996999
 21
43.24732478290241
 31
0.0
  0
LINE
  5
C52
  8
SAPA_PROFIL
 10
63.344764255996999
 20
66.447324782902456
 30
0.0
 11
60.344764255996999
 21
66.447324782902456
 31
0.0
  0
LINE
  5
C53
  8
SAPA_PROFIL
 10
58.544764255996938
 20
37.047324782902372
 30
0.0
 11
58.544764255996938
 21
42.727709540631729
 31
0.0
  0
LINE
  5
C54
  8
SAPA_PROFIL
 10
60.344764255996999
 20
66.447324782902456
 30
0.0
 11
60.344764255996999
 21
64.24732478290241
 31
0.0
  0
LINE
  5
C55
  8
SAPA_PROFIL
 10
59.344764255997013
 20
36.24732478290241
 30
0.0
 11
58.544764255996938
 21
37.047324782902372
 31
0.0
  0
LINE
  5
C56
  8
SAPA_PROFIL
 10
60.344764255996999
 20
64.24732478290241
 30
0.0
 11
59.344764255997013
 21
64.24732478290241
 31
0.0
  0
LINE
  5
C57
  8
SAPA_PROFIL
 10
60.344764255996999
 20
36.24732478290241
 30
0.0
 11
59.344764255997013
 21
36.24732478290241
 31
0.0
  0
LINE
  5
C58
  8
SAPA_PROFIL
 10
59.344764255997013
 20
64.24732478290241
 30
0.0
 11
58.344764255996999
 21
65.24732478290241
 31
0.0
  0
LINE
  5
C59
  8
SAPA_PROFIL
 10
60.344764255996999
 20
38.74732478290241
 30
0.0
 11
60.344764255996999
 21
36.24732478290241
 31
0.0
  0
LINE
  5
C5A
  8
SAPA_PROFIL
 10
58.344764255996999
 20
65.24732478290241
 30
0.0
 11
58.344764255996999
 21
68.24732478290241
 31
0.0
  0
LINE
  5
C5B
  8
SAPA_PROFIL
 10
63.344764255996999
 20
38.74732478290241
 30
0.0
 11
60.344764255996999
 21
38.74732478290241
 31
0.0
  0
LINE
  5
C5C
  8
SAPA_PROFIL
 10
58.344764255996999
 20
68.24732478290241
 30
0.0
 11
103.34476425599701
 21
68.24732478290241
 31
0.0
  0
LINE
  5
C5D
  8
SAPA_PROFIL
 10
63.344764255996999
 20
20.047324782902361
 30
0.0
 11
63.344764255996999
 21
38.74732478290241
 31
0.0
  0
LINE
  5
C5E
  8
SAPA_PROFIL
 10
103.34476425599701
 20
68.24732478290241
 30
0.0
 11
103.34476425599701
 21
65.24732478290241
 31
0.0
  0
LINE
  5
C5F
  8
SAPA_PROFIL
 10
60.344764255996999
 20
20.047324782902361
 30
0.0
 11
63.344764255996999
 21
20.047324782902361
 31
0.0
  0
LINE
  5
C60
  8
SAPA_PROFIL
 10
103.34476425599701
 20
65.24732478290241
 30
0.0
 11
102.34476425599701
 21
64.24732478290241
 31
0.0
  0
LINE
  5
C61
  8
SAPA_PROFIL
 10
60.344764255996999
 20
22.24732478290241
 30
0.0
 11
60.344764255996999
 21
20.047324782902361
 31
0.0
  0
LINE
  5
C62
  8
SAPA_PROFIL
 10
102.34476425599701
 20
64.24732478290241
 30
0.0
 11
101.34476425599701
 21
64.24732478290241
 31
0.0
  0
LINE
  5
C63
  8
SAPA_PROFIL
 10
59.344764255997013
 20
22.24732478290241
 30
0.0
 11
60.344764255996999
 21
22.24732478290241
 31
0.0
  0
LINE
  5
C64
  8
SAPA_PROFIL
 10
101.34476425599701
 20
64.24732478290241
 30
0.0
 11
101.34476425599701
 21
66.447324782902456
 31
0.0
  0
LINE
  5
C65
  8
SAPA_PROFIL
 10
58.344764255996999
 20
21.24732478290241
 30
0.0
 11
59.344764255997013
 21
22.24732478290241
 31
0.0
  0
LINE
  5
C66
  8
SAPA_PROFIL
 10
101.34476425599701
 20
66.447324782902456
 30
0.0
 11
98.344764255997006
 21
66.447324782902456
 31
0.0
  0
LINE
  5
C67
  8
SAPA_PROFIL
 10
58.344764255996999
 20
18.24732478290241
 30
0.0
 11
58.344764255996999
 21
21.24732478290241
 31
0.0
  0
LINE
  5
C68
  8
SAPA_PROFIL
 10
98.344764255997006
 20
66.447324782902456
 30
0.0
 11
98.344764255997006
 21
47.74732478290241
 31
0.0
  0
LINE
  5
C69
  8
SAPA_PROFIL
 10
103.34476425599701
 20
18.24732478290241
 30
0.0
 11
58.344764255996999
 21
18.24732478290241
 31
0.0
  0
LINE
  5
C6A
  8
SAPA_PROFIL
 10
98.344764255997006
 20
47.74732478290241
 30
0.0
 11
101.34476425599701
 21
47.74732478290241
 31
0.0
  0
LINE
  5
C6B
  8
SAPA_PROFIL
 10
103.34476425599701
 20
21.24732478290241
 30
0.0
 11
103.34476425599701
 21
18.24732478290241
 31
0.0
  0
LINE
  5
C6C
  8
SAPA_PROFIL
 10
101.34476425599701
 20
47.74732478290241
 30
0.0
 11
101.34476425599701
 21
50.24732478290241
 31
0.0
  0
LINE
  5
C6D
  8
SAPA_PROFIL
 10
102.34476425599701
 20
22.24732478290241
 30
0.0
 11
103.34476425599701
 21
21.24732478290241
 31
0.0
  0
LINE
  5
C6E
  8
SAPA_PROFIL
 10
101.34476425599701
 20
50.24732478290241
 30
0.0
 11
102.34476425599701
 21
50.24732478290241
 31
0.0
  0
LINE
  5
C6F
  8
SAPA_PROFIL
 10
101.34476425599701
 20
22.24732478290241
 30
0.0
 11
102.34476425599701
 21
22.24732478290241
 31
0.0
  0
LINE
  5
C70
  8
SAPA_PROFIL
 10
102.34476425599701
 20
50.24732478290241
 30
0.0
 11
103.1447642559969
 21
49.447324782902449
 31
0.0
  0
LINE
  5
C71
  8
SAPA_PROFIL
 10
101.34476425599701
 20
20.047324782902361
 30
0.0
 11
101.34476425599701
 21
22.24732478290241
 31
0.0
  0
LINE
  5
C72
  8
SAPA_PROFIL
 10
103.1447642559969
 20
49.447324782902449
 30
0.0
 11
103.1447642559969
 21
43.766940025173078
 31
0.0
  0
LINE
  5
C73
  8
SAPA_PROFIL
 10
98.344764255997006
 20
20.047324782902361
 30
0.0
 11
101.34476425599701
 21
20.047324782902361
 31
0.0
  0
LINE
  5
C74
  8
SAPA_PROFIL
 10
103.1447642559969
 20
43.766940025173078
 30
0.0
 11
102.84476425599701
 21
43.24732478290241
 31
0.0
  0
LINE
  5
C75
  8
SAPA_PROFIL
 10
98.344764255997006
 20
38.74732478290241
 30
0.0
 11
98.344764255997006
 21
20.047324782902361
 31
0.0
  0
LINE
  5
C76
  8
SAPA_PROFIL
 10
102.84476425599701
 20
43.24732478290241
 30
0.0
 11
103.1447642559969
 21
42.727709540631729
 31
0.0
  0
LINE
  5
C77
  8
SAPA_PROFIL
 10
101.34476425599701
 20
38.74732478290241
 30
0.0
 11
98.344764255997006
 21
38.74732478290241
 31
0.0
  0
LINE
  5
C78
  8
SAPA_PROFIL
 10
103.1447642559969
 20
42.727709540631729
 30
0.0
 11
103.1447642559969
 21
37.047324782902372
 31
0.0
  0
LINE
  5
C79
  8
SAPA_PROFIL
 10
101.34476425599701
 20
36.24732478290241
 30
0.0
 11
101.34476425599701
 21
38.74732478290241
 31
0.0
  0
LINE
  5
C7A
  8
SAPA_PROFIL
 10
103.1447642559969
 20
37.047324782902372
 30
0.0
 11
102.34476425599701
 21
36.24732478290241
 31
0.0
  0
LINE
  5
C7B
  8
SAPA_PROFIL
 10
102.34476425599701
 20
36.24732478290241
 30
0.0
 11
101.34476425599701
 21
36.24732478290241
 31
0.0
  0
LINE
  5
C7C
  8
SAPA_PROFIL
 10
96.544764255997052
 20
66.447324782902456
 30
0.0
 11
96.544764255997052
 21
45.342324782902438
 31
0.0
  0
ARC
  5
C7D
  8
SAPA_PROFIL
 10
97.039764255996943
 20
45.342324782902317
 30
0.0
 40
0.4949999999999477
 50
179.99999999998681
 51
270.0
  0
LINE
  5
C7E
  8
SAPA_PROFIL
 10
65.144764255996961
 20
66.447324782902456
 30
0.0
 11
96.544764255997052
 21
66.447324782902456
 31
0.0
  0
LINE
  5
C7F
  8
SAPA_PROFIL
 10
97.039764255996943
 20
44.847324782902433
 30
0.0
 11
97.049764255996934
 21
44.847324782902433
 31
0.0
  0
LINE
  5
C80
  8
SAPA_PROFIL
 10
65.144764255996961
 20
45.342324782902438
 30
0.0
 11
65.144764255996961
 21
66.447324782902456
 31
0.0
  0
ARC
  5
C81
  8
SAPA_PROFIL
 10
97.049764255996934
 20
45.342324782902317
 30
0.0
 40
0.4949999999999477
 50
270.0
 51
0.0000000000131894
  0
ARC
  5
C82
  8
SAPA_PROFIL
 10
64.64976425599707
 20
45.342324782902317
 30
0.0
 40
0.4950000000000045
 50
269.99999999998681
 51
0.0000000000131095
  0
LINE
  5
C83
  8
SAPA_PROFIL
 10
97.544764255996824
 20
45.342324782902438
 30
0.0
 11
97.544764255996938
 21
45.502324782902399
 31
0.0
  0
LINE
  5
C84
  8
SAPA_PROFIL
 10
64.639764255997079
 20
44.847324782902433
 30
0.0
 11
64.649764255996956
 21
44.847324782902433
 31
0.0
  0
ARC
  5
C85
  8
SAPA_PROFIL
 10
98.039764255997071
 20
45.502324782902292
 30
0.0
 40
0.4950000000000152
 50
90.000000000013159
 51
179.99999999998681
  0
ARC
  5
C86
  8
SAPA_PROFIL
 10
64.639764255997079
 20
45.342324782902438
 30
0.0
 40
0.4950000000000616
 50
180.0
 51
270.0
  0
LINE
  5
C87
  8
SAPA_PROFIL
 10
98.039764255996943
 20
45.99732478290241
 30
0.0
 11
98.844764255997006
 21
45.99732478290241
 31
0.0
  0
LINE
  5
C88
  8
SAPA_PROFIL
 10
64.144764255996961
 20
45.502324782902399
 30
0.0
 11
64.144764255996961
 21
45.342324782902438
 31
0.0
  0
ARC
  5
C89
  8
SAPA_PROFIL
 10
98.84476425599793
 20
43.247324782901607
 30
0.0
 40
2.750000000000778
 50
7.8247569391562211
 51
90.000000000018971
  0
ARC
  5
C8A
  8
SAPA_PROFIL
 10
63.649764255996963
 20
45.502324782902399
 30
0.0
 40
0.4949999999999584
 50
0.0
 51
89.999999999986898
  0
LINE
  5
C8B
  8
SAPA_PROFIL
 10
101.56915929923299
 20
43.621719826138929
 30
0.0
 11
101.1947642559967
 21
43.24732478290241
 31
0.0
  0
LINE
  5
C8C
  8
SAPA_PROFIL
 10
62.844764255996893
 20
45.99732478290241
 30
0.0
 11
63.649764255997063
 21
45.99732478290241
 31
0.0
  0
LINE
  5
C8D
  8
SAPA_PROFIL
 10
101.1947642559967
 20
43.24732478290241
 30
0.0
 11
101.5691592992314
 21
42.87292973966612
 31
0.0
  0
ARC
  5
C8E
  8
SAPA_PROFIL
 10
62.844764255995983
 20
43.247324782901607
 30
0.0
 40
2.750000000000778
 50
89.999999999981043
 51
172.1752430608438
  0
ARC
  5
C8F
  8
SAPA_PROFIL
 10
98.844764255997006
 20
43.24732478290241
 30
0.0
 40
2.74999999999998
 50
270.0
 51
352.1752430608629
  0
LINE
  5
C90
  8
SAPA_PROFIL
 10
60.494764255997318
 20
43.24732478290241
 30
0.0
 11
60.12036921276092
 21
43.621719826138929
 31
0.0
  0
LINE
  5
C91
  8
SAPA_PROFIL
 10
98.844764255997006
 20
40.497324782902403
 30
0.0
 11
98.039764255996943
 21
40.497324782902403
 31
0.0
  0
LINE
  5
C92
  8
SAPA_PROFIL
 10
60.120369212762618
 20
42.87292973966612
 30
0.0
 11
60.494764255997318
 21
43.24732478290241
 31
0.0
  0
ARC
  5
C93
  8
SAPA_PROFIL
 10
98.039764255996943
 20
40.992324782902529
 30
0.0
 40
0.4950000000000722
 50
180.0000000000131
 51
270.0
  0
ARC
  5
C94
  8
SAPA_PROFIL
 10
62.844764255996999
 20
43.24732478290241
 30
0.0
 40
2.74999999999998
 50
187.82475693913699
 51
270.0
  0
LINE
  5
C95
  8
SAPA_PROFIL
 10
97.544764255996824
 20
40.992324782902408
 30
0.0
 11
97.544764255996824
 21
41.152324782902383
 31
0.0
  0
LINE
  5
C96
  8
SAPA_PROFIL
 10
63.649764255997063
 20
40.497324782902403
 30
0.0
 11
62.844764255996999
 21
40.497324782902403
 31
0.0
  0
ARC
  5
C97
  8
SAPA_PROFIL
 10
97.049764255996934
 20
41.15232478290249
 30
0.0
 40
0.4949999999999477
 50
359.99999999998681
 51
90.0
  0
ARC
  5
C98
  8
SAPA_PROFIL
 10
63.649764255996963
 20
40.992324782902408
 30
0.0
 40
0.4949999999999584
 50
270.00000000001307
 51
0.0
  0
LINE
  5
C99
  8
SAPA_PROFIL
 10
97.049764255996934
 20
41.647324782902388
 30
0.0
 11
97.039764255996943
 21
41.647324782902388
 31
0.0
  0
LINE
  5
C9A
  8
SAPA_PROFIL
 10
64.144764255996961
 20
41.152324782902383
 30
0.0
 11
64.144764255996961
 21
40.992324782902408
 31
0.0
  0
ARC
  5
C9B
  8
SAPA_PROFIL
 10
97.039764255996943
 20
41.15232478290249
 30
0.0
 40
0.4949999999999477
 50
90.0
 51
180.00000000001319
  0
ARC
  5
C9C
  8
SAPA_PROFIL
 10
64.639764255997079
 20
41.152324782902383
 30
0.0
 40
0.4950000000000613
 50
90.000000000000028
 51
180.0
  0
LINE
  5
C9D
  8
SAPA_PROFIL
 10
96.544764255997052
 20
41.152324782902383
 30
0.0
 11
96.544764255997052
 21
20.047324782902361
 31
0.0
  0
LINE
  5
C9E
  8
SAPA_PROFIL
 10
64.649764255996956
 20
41.647324782902388
 30
0.0
 11
64.639764255997079
 21
41.647324782902388
 31
0.0
  0
LINE
  5
C9F
  8
SAPA_PROFIL
 10
96.544764255997052
 20
20.047324782902361
 30
0.0
 11
65.144764255996961
 21
20.047324782902361
 31
0.0
  0
ARC
  5
CA0
  8
SAPA_PROFIL
 10
64.64976425599707
 20
41.15232478290249
 30
0.0
 40
0.4950000000000045
 50
359.99999999998681
 51
90.000000000013102
  0
LINE
  5
CA1
  8
SAPA_PROFIL
 10
65.144764255996961
 20
20.047324782902361
 30
0.0
 11
65.144764255996961
 21
41.152324782902383
 31
0.0
  0
ENDBLK
  5
CA3
  8
0
  0
BLOCK
  8
0
  2
*U35
 70
     1
 10
0.0
 20
0.0
 30
0.0
  3
*U35
  1

  0
LINE
  5
CEA
  8
SAPA_PROFIL
 10
59.344764255997013
 20
50.24732478290241
 30
0.0
 11
60.344764255996999
 21
50.24732478290241
 31
0.0
  0
LINE
  5
CEB
  8
SAPA_PROFIL
 10
58.544764255996938
 20
49.447324782902449
 30
0.0
 11
59.344764255997013
 21
50.24732478290241
 31
0.0
  0
LINE
  5
CEC
  8
SAPA_PROFIL
 10
60.344764255996999
 20
50.24732478290241
 30
0.0
 11
60.344764255996999
 21
47.74732478290241
 31
0.0
  0
LINE
  5
CED
  8
SAPA_PROFIL
 10
58.544764255996938
 20
43.766940025173078
 30
0.0
 11
58.544764255996938
 21
49.447324782902449
 31
0.0
  0
LINE
  5
CEE
  8
SAPA_PROFIL
 10
60.344764255996999
 20
47.74732478290241
 30
0.0
 11
63.344764255996999
 21
47.74732478290241
 31
0.0
  0
LINE
  5
CEF
  8
SAPA_PROFIL
 10
58.844764255996999
 20
43.24732478290241
 30
0.0
 11
58.544764255996938
 21
43.766940025173078
 31
0.0
  0
LINE
  5
CF0
  8
SAPA_PROFIL
 10
63.344764255996999
 20
47.74732478290241
 30
0.0
 11
63.344764255996999
 21
66.447324782902456
 31
0.0
  0
LINE
  5
CF1
  8
SAPA_PROFIL
 10
58.544764255996938
 20
42.727709540631729
 30
0.0
 11
58.844764255996999
 21
43.24732478290241
 31
0.0
  0
LINE
  5
CF2
  8
SAPA_PROFIL
 10
63.344764255996999
 20
66.447324782902456
 30
0.0
 11
60.344764255996999
 21
66.447324782902456
 31
0.0
  0
LINE
  5
CF3
  8
SAPA_PROFIL
 10
58.544764255996938
 20
37.047324782902372
 30
0.0
 11
58.544764255996938
 21
42.727709540631729
 31
0.0
  0
LINE
  5
CF4
  8
SAPA_PROFIL
 10
60.344764255996999
 20
66.447324782902456
 30
0.0
 11
60.344764255996999
 21
64.24732478290241
 31
0.0
  0
LINE
  5
CF5
  8
SAPA_PROFIL
 10
59.344764255997013
 20
36.24732478290241
 30
0.0
 11
58.544764255996938
 21
37.047324782902372
 31
0.0
  0
LINE
  5
CF6
  8
SAPA_PROFIL
 10
60.344764255996999
 20
64.24732478290241
 30
0.0
 11
59.344764255997013
 21
64.24732478290241
 31
0.0
  0
LINE
  5
CF7
  8
SAPA_PROFIL
 10
60.344764255996999
 20
36.24732478290241
 30
0.0
 11
59.344764255997013
 21
36.24732478290241
 31
0.0
  0
LINE
  5
CF8
  8
SAPA_PROFIL
 10
59.344764255997013
 20
64.24732478290241
 30
0.0
 11
58.344764255996999
 21
65.24732478290241
 31
0.0
  0
LINE
  5
CF9
  8
SAPA_PROFIL
 10
60.344764255996999
 20
38.74732478290241
 30
0.0
 11
60.344764255996999
 21
36.24732478290241
 31
0.0
  0
LINE
  5
CFA
  8
SAPA_PROFIL
 10
58.344764255996999
 20
65.24732478290241
 30
0.0
 11
58.344764255996999
 21
68.24732478290241
 31
0.0
  0
LINE
  5
CFB
  8
SAPA_PROFIL
 10
63.344764255996999
 20
38.74732478290241
 30
0.0
 11
60.344764255996999
 21
38.74732478290241
 31
0.0
  0
LINE
  5
CFC
  8
SAPA_PROFIL
 10
58.344764255996999
 20
68.24732478290241
 30
0.0
 11
103.34476425599701
 21
68.24732478290241
 31
0.0
  0
LINE
  5
CFD
  8
SAPA_PROFIL
 10
63.344764255996999
 20
20.047324782902361
 30
0.0
 11
63.344764255996999
 21
38.74732478290241
 31
0.0
  0
LINE
  5
CFE
  8
SAPA_PROFIL
 10
103.34476425599701
 20
68.24732478290241
 30
0.0
 11
103.34476425599701
 21
65.24732478290241
 31
0.0
  0
LINE
  5
CFF
  8
SAPA_PROFIL
 10
60.344764255996999
 20
20.047324782902361
 30
0.0
 11
63.344764255996999
 21
20.047324782902361
 31
0.0
  0
LINE
  5
D00
  8
SAPA_PROFIL
 10
103.34476425599701
 20
65.24732478290241
 30
0.0
 11
102.34476425599701
 21
64.24732478290241
 31
0.0
  0
LINE
  5
D01
  8
SAPA_PROFIL
 10
60.344764255996999
 20
22.24732478290241
 30
0.0
 11
60.344764255996999
 21
20.047324782902361
 31
0.0
  0
LINE
  5
D02
  8
SAPA_PROFIL
 10
102.34476425599701
 20
64.24732478290241
 30
0.0
 11
101.34476425599701
 21
64.24732478290241
 31
0.0
  0
LINE
  5
D03
  8
SAPA_PROFIL
 10
59.344764255997013
 20
22.24732478290241
 30
0.0
 11
60.344764255996999
 21
22.24732478290241
 31
0.0
  0
LINE
  5
D04
  8
SAPA_PROFIL
 10
101.34476425599701
 20
64.24732478290241
 30
0.0
 11
101.34476425599701
 21
66.447324782902456
 31
0.0
  0
LINE
  5
D05
  8
SAPA_PROFIL
 10
58.344764255996999
 20
21.24732478290241
 30
0.0
 11
59.344764255997013
 21
22.24732478290241
 31
0.0
  0
LINE
  5
D06
  8
SAPA_PROFIL
 10
101.34476425599701
 20
66.447324782902456
 30
0.0
 11
98.344764255997006
 21
66.447324782902456
 31
0.0
  0
LINE
  5
D07
  8
SAPA_PROFIL
 10
58.344764255996999
 20
18.24732478290241
 30
0.0
 11
58.344764255996999
 21
21.24732478290241
 31
0.0
  0
LINE
  5
D08
  8
SAPA_PROFIL
 10
98.344764255997006
 20
66.447324782902456
 30
0.0
 11
98.344764255997006
 21
47.74732478290241
 31
0.0
  0
LINE
  5
D09
  8
SAPA_PROFIL
 10
103.34476425599701
 20
18.24732478290241
 30
0.0
 11
58.344764255996999
 21
18.24732478290241
 31
0.0
  0
LINE
  5
D0A
  8
SAPA_PROFIL
 10
98.344764255997006
 20
47.74732478290241
 30
0.0
 11
101.34476425599701
 21
47.74732478290241
 31
0.0
  0
LINE
  5
D0B
  8
SAPA_PROFIL
 10
103.34476425599701
 20
21.24732478290241
 30
0.0
 11
103.34476425599701
 21
18.24732478290241
 31
0.0
  0
LINE
  5
D0C
  8
SAPA_PROFIL
 10
101.34476425599701
 20
47.74732478290241
 30
0.0
 11
101.34476425599701
 21
50.24732478290241
 31
0.0
  0
LINE
  5
D0D
  8
SAPA_PROFIL
 10
102.34476425599701
 20
22.24732478290241
 30
0.0
 11
103.34476425599701
 21
21.24732478290241
 31
0.0
  0
LINE
  5
D0E
  8
SAPA_PROFIL
 10
101.34476425599701
 20
50.24732478290241
 30
0.0
 11
102.34476425599701
 21
50.24732478290241
 31
0.0
  0
LINE
  5
D0F
  8
SAPA_PROFIL
 10
101.34476425599701
 20
22.24732478290241
 30
0.0
 11
102.34476425599701
 21
22.24732478290241
 31
0.0
  0
LINE
  5
D10
  8
SAPA_PROFIL
 10
102.34476425599701
 20
50.24732478290241
 30
0.0
 11
103.1447642559969
 21
49.447324782902449
 31
0.0
  0
LINE
  5
D11
  8
SAPA_PROFIL
 10
101.34476425599701
 20
20.047324782902361
 30
0.0
 11
101.34476425599701
 21
22.24732478290241
 31
0.0
  0
LINE
  5
D12
  8
SAPA_PROFIL
 10
103.1447642559969
 20
49.447324782902449
 30
0.0
 11
103.1447642559969
 21
43.766940025173078
 31
0.0
  0
LINE
  5
D13
  8
SAPA_PROFIL
 10
98.344764255997006
 20
20.047324782902361
 30
0.0
 11
101.34476425599701
 21
20.047324782902361
 31
0.0
  0
LINE
  5
D14
  8
SAPA_PROFIL
 10
103.1447642559969
 20
43.766940025173078
 30
0.0
 11
102.84476425599701
 21
43.24732478290241
 31
0.0
  0
LINE
  5
D15
  8
SAPA_PROFIL
 10
98.344764255997006
 20
38.74732478290241
 30
0.0
 11
98.344764255997006
 21
20.047324782902361
 31
0.0
  0
LINE
  5
D16
  8
SAPA_PROFIL
 10
102.84476425599701
 20
43.24732478290241
 30
0.0
 11
103.1447642559969
 21
42.727709540631729
 31
0.0
  0
LINE
  5
D17
  8
SAPA_PROFIL
 10
101.34476425599701
 20
38.74732478290241
 30
0.0
 11
98.344764255997006
 21
38.74732478290241
 31
0.0
  0
LINE
  5
D18
  8
SAPA_PROFIL
 10
103.1447642559969
 20
42.727709540631729
 30
0.0
 11
103.1447642559969
 21
37.047324782902372
 31
0.0
  0
LINE
  5
D19
  8
SAPA_PROFIL
 10
101.34476425599701
 20
36.24732478290241
 30
0.0
 11
101.34476425599701
 21
38.74732478290241
 31
0.0
  0
LINE
  5
D1A
  8
SAPA_PROFIL
 10
103.1447642559969
 20
37.047324782902372
 30
0.0
 11
102.34476425599701
 21
36.24732478290241
 31
0.0
  0
LINE
  5
D1B
  8
SAPA_PROFIL
 10
102.34476425599701
 20
36.24732478290241
 30
0.0
 11
101.34476425599701
 21
36.24732478290241
 31
0.0
  0
LINE
  5
D1C
  8
SAPA_PROFIL
 10
96.544764255997052
 20
66.447324782902456
 30
0.0
 11
96.544764255997052
 21
45.342324782902438
 31
0.0
  0
ARC
  5
D1D
  8
SAPA_PROFIL
 10
97.039764255996943
 20
45.342324782902317
 30
0.0
 40
0.4949999999999477
 50
179.99999999998681
 51
270.0
  0
LINE
  5
D1E
  8
SAPA_PROFIL
 10
65.144764255996961
 20
66.447324782902456
 30
0.0
 11
96.544764255997052
 21
66.447324782902456
 31
0.0
  0
LINE
  5
D1F
  8
SAPA_PROFIL
 10
97.039764255996943
 20
44.847324782902433
 30
0.0
 11
97.049764255996934
 21
44.847324782902433
 31
0.0
  0
LINE
  5
D20
  8
SAPA_PROFIL
 10
65.144764255996961
 20
45.342324782902438
 30
0.0
 11
65.144764255996961
 21
66.447324782902456
 31
0.0
  0
ARC
  5
D21
  8
SAPA_PROFIL
 10
97.049764255996934
 20
45.342324782902317
 30
0.0
 40
0.4949999999999477
 50
270.0
 51
0.0000000000131894
  0
ARC
  5
D22
  8
SAPA_PROFIL
 10
64.64976425599707
 20
45.342324782902317
 30
0.0
 40
0.4950000000000045
 50
269.99999999998681
 51
0.0000000000131095
  0
LINE
  5
D23
  8
SAPA_PROFIL
 10
97.544764255996824
 20
45.342324782902438
 30
0.0
 11
97.544764255996938
 21
45.502324782902399
 31
0.0
  0
LINE
  5
D24
  8
SAPA_PROFIL
 10
64.639764255997079
 20
44.847324782902433
 30
0.0
 11
64.649764255996956
 21
44.847324782902433
 31
0.0
  0
ARC
  5
D25
  8
SAPA_PROFIL
 10
98.039764255997071
 20
45.502324782902292
 30
0.0
 40
0.4950000000000152
 50
90.000000000013159
 51
179.99999999998681
  0
ARC
  5
D26
  8
SAPA_PROFIL
 10
64.639764255997079
 20
45.342324782902438
 30
0.0
 40
0.4950000000000616
 50
180.0
 51
270.0
  0
LINE
  5
D27
  8
SAPA_PROFIL
 10
98.039764255996943
 20
45.99732478290241
 30
0.0
 11
98.844764255997006
 21
45.99732478290241
 31
0.0
  0
LINE
  5
D28
  8
SAPA_PROFIL
 10
64.144764255996961
 20
45.502324782902399
 30
0.0
 11
64.144764255996961
 21
45.342324782902438
 31
0.0
  0
ARC
  5
D29
  8
SAPA_PROFIL
 10
98.84476425599793
 20
43.247324782901607
 30
0.0
 40
2.750000000000778
 50
7.8247569391562211
 51
90.000000000018971
  0
ARC
  5
D2A
  8
SAPA_PROFIL
 10
63.649764255996963
 20
45.502324782902399
 30
0.0
 40
0.4949999999999584
 50
0.0
 51
89.999999999986898
  0
LINE
  5
D2B
  8
SAPA_PROFIL
 10
101.56915929923299
 20
43.621719826138929
 30
0.0
 11
101.1947642559967
 21
43.24732478290241
 31
0.0
  0
LINE
  5
D2C
  8
SAPA_PROFIL
 10
62.844764255996893
 20
45.99732478290241
 30
0.0
 11
63.649764255997063
 21
45.99732478290241
 31
0.0
  0
LINE
  5
D2D
  8
SAPA_PROFIL
 10
101.1947642559967
 20
43.24732478290241
 30
0.0
 11
101.5691592992314
 21
42.87292973966612
 31
0.0
  0
ARC
  5
D2E
  8
SAPA_PROFIL
 10
62.844764255995983
 20
43.247324782901607
 30
0.0
 40
2.750000000000778
 50
89.999999999981043
 51
172.1752430608438
  0
ARC
  5
D2F
  8
SAPA_PROFIL
 10
98.844764255997006
 20
43.24732478290241
 30
0.0
 40
2.74999999999998
 50
270.0
 51
352.1752430608629
  0
LINE
  5
D30
  8
SAPA_PROFIL
 10
60.494764255997318
 20
43.24732478290241
 30
0.0
 11
60.12036921276092
 21
43.621719826138929
 31
0.0
  0
LINE
  5
D31
  8
SAPA_PROFIL
 10
98.844764255997006
 20
40.497324782902403
 30
0.0
 11
98.039764255996943
 21
40.497324782902403
 31
0.0
  0
LINE
  5
D32
  8
SAPA_PROFIL
 10
60.120369212762618
 20
42.87292973966612
 30
0.0
 11
60.494764255997318
 21
43.24732478290241
 31
0.0
  0
ARC
  5
D33
  8
SAPA_PROFIL
 10
98.039764255996943
 20
40.992324782902529
 30
0.0
 40
0.4950000000000722
 50
180.0000000000131
 51
270.0
  0
ARC
  5
D34
  8
SAPA_PROFIL
 10
62.844764255996999
 20
43.24732478290241
 30
0.0
 40
2.74999999999998
 50
187.82475693913699
 51
270.0
  0
LINE
  5
D35
  8
SAPA_PROFIL
 10
97.544764255996824
 20
40.992324782902408
 30
0.0
 11
97.544764255996824
 21
41.152324782902383
 31
0.0
  0
LINE
  5
D36
  8
SAPA_PROFIL
 10
63.649764255997063
 20
40.497324782902403
 30
0.0
 11
62.844764255996999
 21
40.497324782902403
 31
0.0
  0
ARC
  5
D37
  8
SAPA_PROFIL
 10
97.049764255996934
 20
41.15232478290249
 30
0.0
 40
0.4949999999999477
 50
359.99999999998681
 51
90.0
  0
ARC
  5
D38
  8
SAPA_PROFIL
 10
63.649764255996963
 20
40.992324782902408
 30
0.0
 40
0.4949999999999584
 50
270.00000000001307
 51
0.0
  0
LINE
  5
D39
  8
SAPA_PROFIL
 10
97.049764255996934
 20
41.647324782902388
 30
0.0
 11
97.039764255996943
 21
41.647324782902388
 31
0.0
  0
LINE
  5
D3A
  8
SAPA_PROFIL
 10
64.144764255996961
 20
41.152324782902383
 30
0.0
 11
64.144764255996961
 21
40.992324782902408
 31
0.0
  0
ARC
  5
D3B
  8
SAPA_PROFIL
 10
97.039764255996943
 20
41.15232478290249
 30
0.0
 40
0.4949999999999477
 50
90.0
 51
180.00000000001319
  0
ARC
  5
D3C
  8
SAPA_PROFIL
 10
64.639764255997079
 20
41.152324782902383
 30
0.0
 40
0.4950000000000613
 50
90.000000000000028
 51
180.0
  0
LINE
  5
D3D
  8
SAPA_PROFIL
 10
96.544764255997052
 20
41.152324782902383
 30
0.0
 11
96.544764255997052
 21
20.047324782902361
 31
0.0
  0
LINE
  5
D3E
  8
SAPA_PROFIL
 10
64.649764255996956
 20
41.647324782902388
 30
0.0
 11
64.639764255997079
 21
41.647324782902388
 31
0.0
  0
LINE
  5
D3F
  8
SAPA_PROFIL
 10
96.544764255997052
 20
20.047324782902361
 30
0.0
 11
65.144764255996961
 21
20.047324782902361
 31
0.0
  0
ARC
  5
D40
  8
SAPA_PROFIL
 10
64.64976425599707
 20
41.15232478290249
 30
0.0
 40
0.4950000000000045
 50
359.99999999998681
 51
90.000000000013102
  0
LINE
  5
D41
  8
SAPA_PROFIL
 10
65.144764255996961
 20
20.047324782902361
 30
0.0
 11
65.144764255996961
 21
41.152324782902383
 31
0.0
  0
ENDBLK
  5
D43
  8
0
  0
ENDSEC
  0
SECTION
  2
ENTITIES
  0
LINE
  5
609
  8
SAPA_ANSLUTNING
 62
     7
 10
38.344764255996957
 20
87.609968036464608
 30
0.0
 11
38.344764255996957
 21
-0.09003196353531
 31
0.0
  0
INSERT
  5
8EC
  8
SAPA_ANSLUTNING
  6
CONTINUOUS
 62
     7
  2
*X22
 10
0.0
 20
0.0
 30
0.0
1001
ACAD
1000
HATCH
1002
{
1070
    19
1000
ANSI31
1040
1.0
1040
0.0
1000
R14_HATCH_DATA
1000
8EC
1011
1.0
1021
-1.8154130696126725E+180
1031
2.5388972829054111E+114
1021
0.0
1031
0.0
1011
0.0
1021
-1.8154130696126725E+180
1031
2.5388972829054111E+114
1021
1.0
1031
0.0
1011
0.0
1021
-1.8154130696126725E+180
1031
2.5388972829054111E+114
1021
0.0
1031
1.0
1040
0.0
1010
0.0
1020
0.0
1030
1.0
1000
ANSI31
1070
     0
1070
     0
1071
        1
1071
        7
1070
     0
1070
     1
1071
        4
1040
38.344764255996957
1040
87.609968036464608
1040
0.1132349643964972
1040
87.609968036464608
1040
0.1132349643964972
1040
0.0858647605998613
1040
38.344764255996957
1040
0.0858647605998613
1071
        0
1070
     0
1070
     1
1040
0.0
1040
1.0
1070
     0
1070
     1
1040
0.7853981633974483
1040
0.0
1040
0.0
1040
-2.2450640302672871
1040
2.245064030267288
1070
     0
1040
0.243525469902168
1071
        1
1040
26.18244857219975
1040
42.702822167755293
1040
0.0
1002
}
  0
POLYLINE
  5
917
  8
SAPA_ANSLUTNING
 66
     1
 10
0.0
 20
0.0
 30
0.0
  0
VERTEX
  5
AC6
  8
SAPA_ANSLUTNING
 10
58.344764255996893
 20
20.800481723755091
 30
0.0
  0
VERTEX
  5
AC7
  8
SAPA_ANSLUTNING
 10
40.29471151974743
 20
20.800481723754839
 30
0.0
 42
-0.9999989466455055
  0
VERTEX
  5
AC8
  8
SAPA_ANSLUTNING
 10
40.294707306327233
 20
24.800481723750519
 30
0.0
  0
VERTEX
  5
AC9
  8
SAPA_ANSLUTNING
 10
61.243490881243673
 20
24.800481723750519
 30
0.0
 42
0.9999999999999998
  0
VERTEX
  5
ACA
  8
SAPA_ANSLUTNING
 10
61.243490881243673
 20
28.800481723750519
 30
0.0
  0
VERTEX
  5
ACB
  8
SAPA_ANSLUTNING
 10
40.294704674549017
 20
28.800481723750408
 30
0.0
 42
-0.9999974985601646
  0
VERTEX
  5
ACC
  8
SAPA_ANSLUTNING
 10
40.294704674549017
 20
32.80048172373791
 30
0.0
  0
VERTEX
  5
ACD
  8
SAPA_ANSLUTNING
 10
61.344764255996857
 20
32.800481723737818
 30
0.0
 42
0.9999999999999998
  0
VERTEX
  5
ACE
  8
SAPA_ANSLUTNING
 10
61.344764255996857
 20
36.800481723737867
 30
0.0
  0
VERTEX
  5
ACF
  8
SAPA_ANSLUTNING
 10
60.344764255996893
 20
36.80048172373786
 30
0.0
  0
SEQEND
  5
AD0
  8
SAPA_ANSLUTNING
  0
POLYLINE
  5
918
  8
SAPA_ANSLUTNING
 66
     1
 10
0.0
 20
0.0
 30
0.0
  0
VERTEX
  5
AD1
  8
SAPA_ANSLUTNING
 10
58.791607315161293
 20
36.80048172373786
 30
0.0
  0
VERTEX
  5
AD2
  8
SAPA_ANSLUTNING
 10
40.294707306327233
 20
36.800481723737789
 30
0.0
 42
-0.9999989466455052
  0
VERTEX
  5
AD3
  8
SAPA_ANSLUTNING
 10
40.29471151974743
 20
40.800481723733469
 30
0.0
  0
VERTEX
  5
AD4
  8
SAPA_ANSLUTNING
 10
56.629482272060471
 20
40.800481723733242
 30
0.0
 42
0.9999999999999998
  0
VERTEX
  5
AD5
  8
SAPA_ANSLUTNING
 10
56.629482272060471
 20
44.800481723733242
 30
0.0
  0
VERTEX
  5
AD6
  8
SAPA_ANSLUTNING
 10
40.29471151974743
 20
44.800481723733007
 30
0.0
 42
-0.9999989466455055
  0
VERTEX
  5
AD7
  8
SAPA_ANSLUTNING
 10
40.294707306327233
 20
48.800481723728701
 30
0.0
  0
VERTEX
  5
AD8
  8
SAPA_ANSLUTNING
 10
58.544764255996938
 20
48.800481723728701
 30
0.0
  0
SEQEND
  5
AD9
  8
SAPA_ANSLUTNING
  0
POLYLINE
  5
919
  8
SAPA_ANSLUTNING
 66
     1
 10
0.0
 20
0.0
 30
0.0
  0
VERTEX
  5
ADA
  8
SAPA_ANSLUTNING
 10
60.344764255996893
 20
48.800481723728701
 30
0.0
  0
VERTEX
  5
ADB
  8
SAPA_ANSLUTNING
 10
61.301012046004963
 20
48.800481723728701
 30
0.0
 42
0.9999999999999998
  0
VERTEX
  5
ADC
  8
SAPA_ANSLUTNING
 10
61.301012046004963
 20
52.800481723728687
 30
0.0
  0
VERTEX
  5
ADD
  8
SAPA_ANSLUTNING
 10
40.294704674549017
 20
52.800481723728581
 30
0.0
 42
-0.9999974985601646
  0
VERTEX
  5
ADE
  8
SAPA_ANSLUTNING
 10
40.294704674549017
 20
56.800481723716068
 30
0.0
  0
VERTEX
  5
ADF
  8
SAPA_ANSLUTNING
 10
61.344764255996893
 20
56.800481723715983
 30
0.0
 42
0.9999999999999998
  0
VERTEX
  5
AE0
  8
SAPA_ANSLUTNING
 10
61.344764255996893
 20
60.80048172371604
 30
0.0
  0
VERTEX
  5
AE1
  8
SAPA_ANSLUTNING
 10
40.294707306327233
 20
60.800481723715961
 30
0.0
 42
-0.9999989466455052
  0
VERTEX
  5
AE2
  8
SAPA_ANSLUTNING
 10
40.29471151974743
 20
64.800481723711641
 30
0.0
  0
VERTEX
  5
AE3
  8
SAPA_ANSLUTNING
 10
56.629482272060471
 20
64.800481723711414
 30
0.0
 42
0.2635240997481427
  0
VERTEX
  5
AE4
  8
SAPA_ANSLUTNING
 10
58.344764255996949
 20
65.77198392809737
 30
0.0
  0
SEQEND
  5
AE5
  8
SAPA_ANSLUTNING
  0
POLYLINE
  5
91A
  8
SAPA_ANSLUTNING
 62
     7
 66
     1
 10
0.0
 20
0.0
 30
0.0
 70
     1
  0
VERTEX
  5
AE6
  8
SAPA_ANSLUTNING
 62
     7
 10
40.360739396076553
 20
68.488258523332718
 30
0.0
  0
VERTEX
  5
AE7
  8
SAPA_ANSLUTNING
 62
     7
 10
81.209705847544456
 20
68.488258523332718
 30
0.0
  0
VERTEX
  5
AE8
  8
SAPA_ANSLUTNING
 62
     7
 10
81.209705847544456
 20
69.988258523332718
 30
0.0
  0
VERTEX
  5
AE9
  8
SAPA_ANSLUTNING
 62
     7
 10
41.617171963823637
 20
69.988258523332718
 30
0.0
  0
VERTEX
  5
AEA
  8
SAPA_ANSLUTNING
 62
     7
 10
39.924270115742672
 20
79.492678724196423
 30
0.0
  0
VERTEX
  5
AEB
  8
SAPA_ANSLUTNING
 62
     7
 10
38.447512844471191
 20
79.229642677718232
 30
0.0
  0
SEQEND
  5
AEC
  8
SAPA_ANSLUTNING
 62
     7
  0
POLYLINE
  5
91B
  8
SAPA_ANSLUTNING
 62
     7
 66
     1
 10
0.0
 20
0.0
 30
0.0
 70
     1
  0
VERTEX
  5
AED
  8
SAPA_ANSLUTNING
 62
     7
 10
40.360739396076553
 20
18.006391042471758
 30
0.0
  0
VERTEX
  5
AEE
  8
SAPA_ANSLUTNING
 62
     7
 10
81.209705847544456
 20
18.006391042471758
 30
0.0
  0
VERTEX
  5
AEF
  8
SAPA_ANSLUTNING
 62
     7
 10
81.209705847544456
 20
16.506391042471758
 30
0.0
  0
VERTEX
  5
AF0
  8
SAPA_ANSLUTNING
 62
     7
 10
41.617171963823637
 20
16.506391042471758
 30
0.0
  0
VERTEX
  5
AF1
  8
SAPA_ANSLUTNING
 62
     7
 10
39.924270115742672
 20
7.0019708416080562
 30
0.0
  0
VERTEX
  5
AF2
  8
SAPA_ANSLUTNING
 62
     7
 10
38.447512844471191
 20
7.2650068880862468
 30
0.0
  0
SEQEND
  5
AF3
  8
SAPA_ANSLUTNING
 62
     7
  0
INSERT
  5
A93
  8
0
  2
*U35
 10
0.0
 20
0.0
 30
0.0
  0
POLYLINE
  5
A94
  8
SAPA_PROFIL
 66
     1
 10
0.0
 20
0.0
 30
0.0
 70
     1
  0
VERTEX
  5
D44
  8
SAPA_PROFIL
 10
115.3434997309614
 20
30.078285319261202
 30
0.0
 42
0.4557262555325856
  0
VERTEX
  5
D45
  8
SAPA_PROFIL
 10
114.8483661483058
 20
30.64787135010226
 30
0.0
  0
VERTEX
  5
D46
  8
SAPA_PROFIL
 10
113.3416222559969
 20
30.64787135010226
 30
0.0
  0
VERTEX
  5
D47
  8
SAPA_PROFIL
 10
113.3416222559969
 20
32.147871350102257
 30
0.0
  0
VERTEX
  5
D48
  8
SAPA_PROFIL
 10
112.3416222559969
 20
32.147871350102257
 30
0.0
  0
VERTEX
  5
D49
  8
SAPA_PROFIL
 10
112.3416222559969
 20
42.380339946317939
 30
0.0
  0
VERTEX
  5
D4A
  8
SAPA_PROFIL
 10
111.8416222559969
 20
43.246365350102359
 30
0.0
  0
VERTEX
  5
D4B
  8
SAPA_PROFIL
 10
112.3416222559969
 20
44.112390753886729
 30
0.0
  0
VERTEX
  5
D4C
  8
SAPA_PROFIL
 10
112.3416222559969
 20
54.344859350102432
 30
0.0
  0
VERTEX
  5
D4D
  8
SAPA_PROFIL
 10
113.3416222559969
 20
54.344859350102432
 30
0.0
  0
VERTEX
  5
D4E
  8
SAPA_PROFIL
 10
113.3416222559969
 20
55.84485935010246
 30
0.0
  0
VERTEX
  5
D4F
  8
SAPA_PROFIL
 10
115.3416222559969
 20
55.844859350102439
 30
0.0
  0
VERTEX
  5
D50
  8
SAPA_PROFIL
 10
116.3703046828949
 20
61.678807295929431
 30
0.0
 42
0.4142135623730531
  0
VERTEX
  5
D51
  8
SAPA_PROFIL
 10
115.9647248952223
 20
62.258035261268923
 30
0.0
  0
VERTEX
  5
D52
  8
SAPA_PROFIL
 10
115.4723210187162
 20
62.344859350102439
 30
0.0
  0
VERTEX
  5
D53
  8
SAPA_PROFIL
 10
115.3507672943494
 20
61.655493922993799
 30
0.0
 42
-0.6705660098148247
  0
VERTEX
  5
D54
  8
SAPA_PROFIL
 10
114.808449941096
 20
61.5371397891155
 30
0.0
  0
VERTEX
  5
D55
  8
SAPA_PROFIL
 10
113.16051112987481
 20
63.923988197926391
 30
0.0
 42
-0.4103557430781616
  0
VERTEX
  5
D56
  8
SAPA_PROFIL
 10
113.2807809836504
 20
64.606072433091825
 30
0.0
  0
VERTEX
  5
D57
  8
SAPA_PROFIL
 10
115.64568715893989
 20
66.285348001380143
 30
0.0
 42
-0.6705660098148535
  0
VERTEX
  5
D58
  8
SAPA_PROFIL
 10
116.11481927608379
 20
65.988648036247497
 30
0.0
  0
VERTEX
  5
D59
  8
SAPA_PROFIL
 10
115.993265551717
 20
65.299282609138999
 30
0.0
  0
VERTEX
  5
D5A
  8
SAPA_PROFIL
 10
116.4856694282231
 20
65.212458520305532
 30
0.0
 42
0.4142135623731039
  0
VERTEX
  5
D5B
  8
SAPA_PROFIL
 10
117.0648973935626
 20
65.618038307978182
 30
0.0
  0
VERTEX
  5
D5C
  8
SAPA_PROFIL
 10
117.14172148239609
 20
66.053729366288124
 30
0.0
  0
VERTEX
  5
D5D
  8
SAPA_PROFIL
 10
117.1390508946803
 20
67.640213345247261
 30
0.0
 42
-0.4147066859862996
  0
VERTEX
  5
D5E
  8
SAPA_PROFIL
 10
120.1390466442525
 20
70.645263350102326
 30
0.0
  0
VERTEX
  5
D5F
  8
SAPA_PROFIL
 10
127.84567525599689
 20
70.645263350102326
 30
0.0
 42
0.6638253569871671
  0
VERTEX
  5
D60
  8
SAPA_PROFIL
 10
128.203649062984
 20
71.524449543036908
 30
0.0
  0
VERTEX
  5
D61
  8
SAPA_PROFIL
 10
126.2246108653254
 20
73.503487740695633
 30
0.0
 42
0.1989123673796449
  0
VERTEX
  5
D62
  8
SAPA_PROFIL
 10
125.8710574747321
 20
73.649934350102299
 30
0.0
  0
VERTEX
  5
D63
  8
SAPA_PROFIL
 10
114.0527825003319
 20
73.649934350102299
 30
0.0
 42
0.1989123673796422
  0
VERTEX
  5
D64
  8
SAPA_PROFIL
 10
113.6992291097386
 20
73.503487740695604
 30
0.0
  0
VERTEX
  5
D65
  8
SAPA_PROFIL
 10
108.3384823285521
 20
68.142740959509041
 30
0.0
 42
-0.1989123673796659
  0
VERTEX
  5
D66
  8
SAPA_PROFIL
 10
107.9849289379588
 20
67.996294350102303
 30
0.0
  0
VERTEX
  5
D67
  8
SAPA_PROFIL
 10
103.34476425599691
 20
67.996294350102303
 30
0.0
  0
VERTEX
  5
D68
  8
SAPA_PROFIL
 10
103.34476425599691
 20
64.746294350102318
 30
0.0
  0
VERTEX
  5
D69
  8
SAPA_PROFIL
 10
101.84476425599691
 20
63.246294350102318
 30
0.0
  0
VERTEX
  5
D6A
  8
SAPA_PROFIL
 10
103.34476425599691
 20
61.74629435010231
 30
0.0
  0
VERTEX
  5
D6B
  8
SAPA_PROFIL
 10
103.34476425599691
 20
58.147325350102321
 30
0.0
 42
-0.4142140000000165
  0
VERTEX
  5
D6C
  8
SAPA_PROFIL
 10
102.84476425599691
 20
57.647325350102321
 30
0.0
  0
VERTEX
  5
D6D
  8
SAPA_PROFIL
 10
101.3416222559969
 20
57.647325350102321
 30
0.0
 42
0.4142140000000145
  0
VERTEX
  5
D6E
  8
SAPA_PROFIL
 10
100.3416222559969
 20
56.647325350102321
 30
0.0
  0
VERTEX
  5
D6F
  8
SAPA_PROFIL
 10
100.3416222559969
 20
55.647325350102292
 30
0.0
  0
VERTEX
  5
D70
  8
SAPA_PROFIL
 10
107.6004413879195
 20
53.702329926413917
 30
0.0
 42
-0.3394542338034085
  0
VERTEX
  5
D71
  8
SAPA_PROFIL
 10
108.3416222559969
 20
52.736404123388212
 30
0.0
  0
VERTEX
  5
D72
  8
SAPA_PROFIL
 10
108.3416222559969
 20
33.758245442416637
 30
0.0
 42
-0.3394542744563553
  0
VERTEX
  5
D73
  8
SAPA_PROFIL
 10
107.6004412470776
 20
32.79231960165243
 30
0.0
  0
VERTEX
  5
D74
  8
SAPA_PROFIL
 10
100.3416222559969
 20
30.84732535010227
 30
0.0
  0
VERTEX
  5
D75
  8
SAPA_PROFIL
 10
100.3416222559969
 20
29.84732535010227
 30
0.0
 42
0.4142139999999982
  0
VERTEX
  5
D76
  8
SAPA_PROFIL
 10
101.3416222559969
 20
28.847325350102381
 30
0.0
  0
VERTEX
  5
D77
  8
SAPA_PROFIL
 10
102.8320282559968
 20
28.84732535010227
 30
0.0
 42
-0.4142140000000124
  0
VERTEX
  5
D78
  8
SAPA_PROFIL
 10
103.3320282559968
 20
28.347325350102299
 30
0.0
  0
VERTEX
  5
D79
  8
SAPA_PROFIL
 10
103.3320282559968
 20
24.747325350102361
 30
0.0
  0
VERTEX
  5
D7A
  8
SAPA_PROFIL
 10
101.8320282559969
 20
23.247325350102361
 30
0.0
  0
VERTEX
  5
D7B
  8
SAPA_PROFIL
 10
103.3320282559968
 20
21.747325350102361
 30
0.0
  0
VERTEX
  5
D7C
  8
SAPA_PROFIL
 10
103.3320282559968
 20
18.497325350102301
 30
0.0
  0
VERTEX
  5
D7D
  8
SAPA_PROFIL
 10
111.3445823129952
 20
18.497325350102301
 30
0.0
 42
0.3780475071674513
  0
VERTEX
  5
D7E
  8
SAPA_PROFIL
 10
114.3211613915922
 20
21.123190362618971
 30
0.0
  0
VERTEX
  5
D7F
  8
SAPA_PROFIL
 10
114.68452480391851
 20
24.014071908697499
 30
0.0
 42
0.4247728136669583
  0
VERTEX
  5
D80
  8
SAPA_PROFIL
 10
113.7977812559969
 20
25.147871350102321
 30
0.0
  0
VERTEX
  5
D81
  8
SAPA_PROFIL
 10
113.7977812559969
 20
23.897871350102271
 30
0.0
  0
VERTEX
  5
D82
  8
SAPA_PROFIL
 10
112.6977812559969
 20
23.897871350102271
 30
0.0
  0
VERTEX
  5
D83
  8
SAPA_PROFIL
 10
112.6977812559969
 20
29.097871350102341
 30
0.0
  0
VERTEX
  5
D84
  8
SAPA_PROFIL
 10
113.7977812559969
 20
29.097871350102341
 30
0.0
  0
VERTEX
  5
D85
  8
SAPA_PROFIL
 10
113.7977812559969
 20
27.847871350102341
 30
0.0
  0
VERTEX
  5
D86
  8
SAPA_PROFIL
 10
114.1713033993497
 20
27.847871350102341
 30
0.0
 42
0.3760477967976817
  0
VERTEX
  5
D87
  8
SAPA_PROFIL
 10
115.16259871755619
 20
28.716214249641698
 30
0.0
  0
SEQEND
  5
D88
  8
SAPA_PROFIL
  0
ENDSEC
  0
EOF
