  0
SECTION
  2
HEADER
  9
$ACADVER
  1
AC1009
  9
$INSBASE
 10
38.163526022609261
 20
444.14249232610922
 30
0.0
  9
$EXTMIN
 10
-9.4873567464377331
 20
-5.0000000000000027
 30
0.0
  9
$EXTMAX
 10
84.937961435755653
 20
133.2315292916004
 30
0.0
  9
$LIMMIN
 10
0.0
 20
0.0
  9
$LIMMAX
 10
998.0
 20
710.0
  9
$ORTHOMODE
 70
     1
  9
$REGENMODE
 70
     1
  9
$FILLMODE
 70
     1
  9
$QTEXTMODE
 70
     0
  9
$MIRRTEXT
 70
     1
  9
$DRAGMODE
 70
     2
  9
$LTSCALE
 40
7.0
  9
$OSMODE
 70
   167
  9
$ATTMODE
 70
     1
  9
$TEXTSIZE
 40
6.0
  9
$TRACEWID
 40
0.05
  9
$TEXTSTYLE
  7
ISO
  9
$CLAYER
  8
0
  9
$CELTYPE
  6
BYLAYER
  9
$CECOLOR
 62
   256
  9
$DIMSCALE
 40
0.0
  9
$DIMASZ
 40
3.0
  9
$DIMEXO
 40
1.5
  9
$DIMDLI
 40
10.0
  9
$DIMRND
 40
0.0
  9
$DIMDLE
 40
0.0
  9
$DIMEXE
 40
1.5
  9
$DIMTP
 40
0.0
  9
$DIMTM
 40
0.0
  9
$DIMTXT
 40
3.0
  9
$DIMCEN
 40
-5.0
  9
$DIMTSZ
 40
0.0
  9
$DIMTOL
 70
     0
  9
$DIMLIM
 70
     0
  9
$DIMTIH
 70
     0
  9
$DIMTOH
 70
     1
  9
$DIMSE1
 70
     0
  9
$DIMSE2
 70
     0
  9
$DIMTAD
 70
     1
  9
$DIMZIN
 70
     8
  9
$DIMBLK
  1

  9
$DIMASO
 70
     1
  9
$DIMSHO
 70
     1
  9
$DIMPOST
  1

  9
$DIMAPOST
  1

  9
$DIMALT
 70
     0
  9
$DIMALTD
 70
     0
  9
$DIMALTF
 40
25.399999999999999
  9
$DIMLFAC
 40
-1.0
  9
$DIMTOFL
 70
     1
  9
$DIMTVP
 40
0.0
  9
$DIMTIX
 70
     0
  9
$DIMSOXD
 70
     0
  9
$DIMSAH
 70
     0
  9
$DIMBLK1
  1

  9
$DIMBLK2
  1

  9
$DIMSTYLE
  2
MASKIN
  9
$DIMCLRD
 70
   256
  9
$DIMCLRE
 70
   256
  9
$DIMCLRT
 70
     2
  9
$DIMTFAC
 40
1.0
  9
$DIMGAP
 40
1.0
  9
$LUNITS
 70
     2
  9
$LUPREC
 70
     2
  9
$SKETCHINC
 40
0.1
  9
$FILLETRAD
 40
0.0
  9
$AUNITS
 70
     0
  9
$AUPREC
 70
     2
  9
$MENU
  1
ACAD
  9
$ELEVATION
 40
0.0
  9
$PELEVATION
 40
0.0
  9
$THICKNESS
 40
0.0
  9
$LIMCHECK
 70
     0
  9
$BLIPMODE
 70
     0
  9
$CHAMFERA
 40
0.0
  9
$CHAMFERB
 40
0.0
  9
$SKPOLY
 70
     0
  9
$TDCREATE
 40
2450345.6217337959
  9
$TDUPDATE
 40
2454966.6557263662
  9
$TDINDWG
 40
0.3582637731
  9
$TDUSRTIMER
 40
0.3582637731
  9
$USRTIMER
 70
     1
  9
$ANGBASE
 50
0.0
  9
$ANGDIR
 70
     0
  9
$PDMODE
 70
     3
  9
$PDSIZE
 40
0.0
  9
$PLINEWID
 40
0.0
  9
$COORDS
 70
     1
  9
$SPLFRAME
 70
     0
  9
$SPLINETYPE
 70
     6
  9
$SPLINESEGS
 70
     8
  9
$ATTDIA
 70
     0
  9
$ATTREQ
 70
     1
  9
$HANDLING
 70
     1
  9
$HANDSEED
  5
DAF
  9
$SURFTAB1
 70
     6
  9
$SURFTAB2
 70
     6
  9
$SURFTYPE
 70
     6
  9
$SURFU
 70
     6
  9
$SURFV
 70
     6
  9
$UCSNAME
  2

  9
$UCSORG
 10
0.0
 20
0.0
 30
0.0
  9
$UCSXDIR
 10
1.0
 20
0.0
 30
0.0
  9
$UCSYDIR
 10
0.0
 20
1.0
 30
0.0
  9
$PUCSNAME
  2

  9
$PUCSORG
 10
0.0
 20
0.0
 30
0.0
  9
$PUCSXDIR
 10
1.0
 20
0.0
 30
0.0
  9
$PUCSYDIR
 10
0.0
 20
1.0
 30
0.0
  9
$USERI1
 70
     0
  9
$USERI2
 70
     0
  9
$USERI3
 70
     0
  9
$USERI4
 70
     0
  9
$USERI5
 70
     0
  9
$USERR1
 40
0.0
  9
$USERR2
 40
0.0
  9
$USERR3
 40
0.0
  9
$USERR4
 40
0.0
  9
$USERR5
 40
0.0
  9
$WORLDVIEW
 70
     1
  9
$SHADEDGE
 70
     1
  9
$SHADEDIF
 70
    70
  9
$TILEMODE
 70
     1
  9
$MAXACTVP
 70
    16
  9
$PLIMCHECK
 70
     0
  9
$PEXTMIN
 10
1.0000000000000000E+020
 20
1.0000000000000000E+020
 30
1.0000000000000000E+020
  9
$PEXTMAX
 10
-1.0000000000000000E+020
 20
-1.0000000000000000E+020
 30
-1.0000000000000000E+020
  9
$PLIMMIN
 10
-0.1666668268639272
 20
-0.166666657905879
  9
$PLIMMAX
 10
10.833332932840181
 20
8.3333331017982317
  9
$UNITMODE
 70
     0
  9
$VISRETAIN
 70
     1
  9
$PLINEGEN
 70
     0
  9
$PSLTSCALE
 70
     1
  0
ENDSEC
  0
SECTION
  2
TABLES
  0
TABLE
  2
VPORT
 70
     1
  0
VPORT
  2
*ACTIVE
 70
     0
 10
0.0
 20
0.0
 11
1.0
 21
1.0
 12
147.6944506766209
 22
59.137627762935303
 13
0.0
 23
0.0
 14
5.0
 24
5.0
 15
10.0
 25
10.0
 16
0.0
 26
0.0
 36
1.0
 17
0.0
 27
0.0
 37
0.0
 40
221.13456270741051
 41
2.362776025236593
 42
50.0
 43
0.0
 44
0.0
 50
0.0
 51
0.0
 71
     0
 72
   100
 73
     1
 74
     0
 75
     0
 76
     0
 77
     0
 78
     2
  0
ENDTAB
  0
TABLE
  2
LTYPE
 70
     7
  0
LTYPE
  2
CONTINUOUS
 70
     0
  3
Solid line
 72
    65
 73
     0
 40
0.0
  0
LTYPE
  2
BYGG-014533$0$NEWDOT
 70
     0
  3
____ . ____ . ____ . ____ . ____ . ____ . ____
 72
    65
 73
     4
 40
2.0
 49
1.0
 49
-0.5
 49
0.0
 49
-0.5
  0
LTYPE
  2
BYGG-014247$0$DASHDOT
 70
     0
  3
__ . __ . __ . __ . __ . __ . __ . __ . __ . __
 72
    65
 73
     4
 40
1.0
 49
0.5
 49
-0.25
 49
0.0
 49
-0.25
  0
LTYPE
  2
BYGG-022308$0$NEWDOT
 70
     0
  3
____ . ____ . ____ . ____ . ____ . ____ . ____
 72
    65
 73
     4
 40
2.0
 49
1.0
 49
-0.5
 49
0.0
 49
-0.5
  0
LTYPE
  2
BYGG-022308$0$DASHDOT
 70
     0
  3
__ . __ . __ . __ . __ . __ . __ . __ . __ . __
 72
    65
 73
     4
 40
1.0
 49
0.5
 49
-0.25
 49
0.0
 49
-0.25
  0
LTYPE
  2
BYGG-022308$0$DASHED
 70
     0
  3
__ __ __ __ __ __ __ __ __ __ __ __ __ __ __
 72
    65
 73
     2
 40
0.75
 49
0.5
 49
-0.25
  0
LTYPE
  2
BYGG-022308$0$PHANTOM
 70
     0
  3
Phantom ______  __  __  ______  __  __  ______
 72
    65
 73
     6
 40
63.5
 49
31.75
 49
-6.3499999999999988
 49
6.3499999999999988
 49
-6.3499999999999988
 49
6.3499999999999988
 49
-6.3499999999999988
  0
ENDTAB
  0
TABLE
  2
LAYER
 70
    56
  0
LAYER
  2
0
 70
     0
 62
     7
  6
CONTINUOUS
  0
LAYER
  2
SAPA_ANSLUTNING
 70
     0
 62
     6
  6
CONTINUOUS
  0
LAYER
  2
SAPA_PROFIL
 70
     0
 62
     7
  6
CONTINUOUS
  0
ENDTAB
  0
TABLE
  2
STYLE
 70
     9
  0
STYLE
  2
STANDARD
 70
     0
 40
0.0
 41
1.0
 50
0.0
 71
     0
 42
0.2
  3
txt
  4

  0
STYLE
  2
ISO
 70
     0
 40
0.0
 41
1.0
 50
0.0
 71
     0
 42
6.0
  3
isocp3.shx
  4

  0
STYLE
  2
BYGG-023667$0$STANDARD
 70
     0
 40
0.0
 41
1.0
 50
0.0
 71
     0
 42
0.2
  3
txt
  4

  0
STYLE
  2
BYGG-014247$0$STANDARD
 70
     0
 40
0.0
 41
1.0
 50
0.0
 71
     0
 42
0.2
  3
txt
  4

  0
STYLE
  2
BYGG-014247$0$ISO
 70
     0
 40
0.0
 41
1.0
 50
0.0
 71
     0
 42
3.5
  3
isocp3.shx
  4

  0
STYLE
  2
BYGG-022308$0$STANDARD
 70
     0
 40
0.0
 41
1.0
 50
0.0
 71
     0
 42
0.2
  3
txt
  4

  0
STYLE
  2
BYGG-022308$0$ISO
 70
     0
 40
0.0
 41
1.0
 50
0.0
 71
     0
 42
3.5
  3
txt
  4

  0
STYLE
  2
BYGG-014533$0$STANDARD
 70
     0
 40
0.0
 41
1.0
 50
0.0
 71
     0
 42
0.2
  3
txt
  4

  0
STYLE
  2
BYGG-014533$0$ISO
 70
     0
 40
0.0
 41
1.0
 50
0.0
 71
     0
 42
2.5
  3
isocp3.shx
  4

  0
ENDTAB
  0
TABLE
  2
VIEW
 70
     0
  0
ENDTAB
  0
TABLE
  2
UCS
 70
     0
  0
ENDTAB
  0
TABLE
  2
APPID
 70
    18
  0
APPID
  2
ACAD
 70
     0
  0
APPID
  2
ACAD_PSEXT
 70
     0
  0
APPID
  2
ACAECLAYERSTANDARD
 70
     0
  0
APPID
  2
ACAD_MLEADERVER
 70
     0
  0
APPID
  2
ACAD_DSTYLE_DIMTEXT_FILL
 70
     0
  0
APPID
  2
ACAD_DSTYLE_DIMEXT_LENGTH
 70
     0
  0
APPID
  2
ACAD_DSTYLE_DIMEXT_ENABLED
 70
     0
  0
APPID
  2
ACAD_DSTYLE_DIM_LINETYPE
 70
     0
  0
APPID
  2
ACAD_DSTYLE_DIM_EXT1_LINETYPE
 70
     0
  0
APPID
  2
ACAD_DSTYLE_DIM_EXT2_LINETYPE
 70
     0
  0
APPID
  2
ACAD_DSTYLE_DIMJOGGED_JOGA
 70
     0
  0
APPID
  2
ACAD_DSTYLE_DIMARC_LENGTH_
 70
     0
  0
APPID
  2
AMG_ARCHIVE11
 70
     0
  0
APPID
  2
ACAD_EXEMPT_FROM_CAD_STANDARDS
 70
     0
  0
APPID
  2
ACDBBLOCKREPETAG
 70
     0
  0
APPID
  2
ACAD_DSTYLE_DIMJAG
 70
     0
  0
APPID
  2
ACAD_DSTYLE_DIMTALN
 70
     0
  0
APPID
  2
ACADANNOTATIVE
 70
     0
  0
ENDTAB
  0
TABLE
  2
DIMSTYLE
 70
     8
  0
DIMSTYLE
  2
MASKIN
 70
     0
  3

  4

  5

  6

  7

 40
0.0
 41
3.0
 42
1.5
 43
10.0
 44
1.5
 45
0.0
 46
0.0
 47
0.0
 48
0.0
140
3.0
141
-5.0
142
0.0
143
25.399999999999999
144
-1.0
145
0.0
146
1.0
147
1.0
 71
     0
 72
     0
 73
     0
 74
     1
 75
     0
 76
     0
 77
     1
 78
     8
170
     0
171
     0
172
     1
173
     0
174
     0
175
     0
176
   256
177
   256
178
     2
  0
DIMSTYLE
  2
BYGG-023667$0$STANDARD
 70
     0
  3

  4

  5

  6

  7

 40
1.0
 41
0.18
 42
0.0625
 43
0.38
 44
0.18
 45
0.0
 46
0.0
 47
0.0
 48
0.0
140
0.18
141
0.09
142
0.0
143
25.399999999999999
144
1.0
145
0.0
146
1.0
147
0.09
 71
     0
 72
     0
 73
     1
 74
     1
 75
     0
 76
     0
 77
     0
 78
     0
170
     0
171
     2
172
     0
173
     0
174
     0
175
     0
176
     0
177
     0
178
     0
  0
DIMSTYLE
  2
BYGG-014247$0$STANDARD
 70
     0
  3

  4

  5

  6

  7

 40
1.0
 41
0.18
 42
0.0625
 43
0.38
 44
0.18
 45
0.0
 46
0.0
 47
0.0
 48
0.0
140
0.18
141
0.09
142
0.0
143
25.399999999999999
144
1.0
145
0.0
146
1.0
147
0.09
 71
     0
 72
     0
 73
     1
 74
     1
 75
     0
 76
     0
 77
     0
 78
     0
170
     0
171
     2
172
     0
173
     0
174
     0
175
     0
176
     0
177
     0
178
     0
  0
DIMSTYLE
  2
BYGG-014247$0$MASKIN
 70
     0
  3

  4

  5

  6

  7

 40
0.0
 41
3.0
 42
1.5
 43
10.0
 44
1.5
 45
0.0
 46
0.0
 47
0.0
 48
0.0
140
3.0
141
-5.0
142
0.0
143
25.399999999999999
144
-1.0
145
0.0
146
1.0
147
1.0
 71
     0
 72
     0
 73
     0
 74
     0
 75
     0
 76
     0
 77
     1
 78
     8
170
     0
171
     0
172
     1
173
     0
174
     0
175
     0
176
   256
177
   256
178
   256
  0
DIMSTYLE
  2
BYGG-022308$0$STANDARD
 70
     0
  3

  4

  5

  6

  7

 40
1.0
 41
0.18
 42
0.0625
 43
0.38
 44
0.18
 45
0.0
 46
0.0
 47
0.0
 48
0.0
140
0.18
141
0.09
142
0.0
143
25.399999999999999
144
1.0
145
0.0
146
1.0
147
0.09
 71
     0
 72
     0
 73
     1
 74
     1
 75
     0
 76
     0
 77
     0
 78
     0
170
     0
171
     2
172
     0
173
     0
174
     0
175
     0
176
     0
177
     0
178
     0
  0
DIMSTYLE
  2
BYGG-022308$0$MASKIN
 70
     0
  3

  4

  5

  6

  7

 40
0.0
 41
3.0
 42
1.5
 43
10.0
 44
1.5
 45
0.0
 46
0.0
 47
0.0
 48
0.0
140
3.0
141
-5.0
142
0.0
143
25.399999999999999
144
-1.0
145
0.0
146
1.0
147
1.0
 71
     0
 72
     0
 73
     0
 74
     0
 75
     0
 76
     0
 77
     1
 78
     8
170
     0
171
     0
172
     1
173
     0
174
     0
175
     0
176
   256
177
   256
178
     2
  0
DIMSTYLE
  2
BYGG-014533$0$STANDARD
 70
     0
  3

  4

  5

  6

  7

 40
1.0
 41
0.18
 42
0.0625
 43
0.38
 44
0.18
 45
0.0
 46
0.0
 47
0.0
 48
0.0
140
0.18
141
0.09
142
0.0
143
25.399999999999999
144
1.0
145
0.0
146
1.0
147
0.09
 71
     0
 72
     0
 73
     1
 74
     1
 75
     0
 76
     0
 77
     0
 78
     0
170
     0
171
     2
172
     0
173
     0
174
     0
175
     0
176
     0
177
     0
178
     0
  0
DIMSTYLE
  2
BYGG-014533$0$MASKIN
 70
     0
  3

  4

  5

  6

  7

 40
0.0
 41
3.0
 42
1.5
 43
10.0
 44
1.5
 45
0.0
 46
0.0
 47
0.0
 48
0.0
140
3.0
141
-5.0
142
0.0
143
25.399999999999999
144
-1.0
145
0.0
146
1.0
147
1.0
 71
     0
 72
     0
 73
     0
 74
     1
 75
     0
 76
     0
 77
     1
 78
     8
170
     0
171
     0
172
     1
173
     0
174
     0
175
     0
176
   256
177
   256
178
     2
  0
ENDTAB
  0
ENDSEC
  0
SECTION
  2
BLOCKS
  0
BLOCK
  8
0
  2
$MODEL_SPACE
 70
     0
 10
0.0
 20
0.0
 30
0.0
  3
$MODEL_SPACE
  1

  0
ENDBLK
  5
D
  8
0
  0
BLOCK
 67
     1
  8
0
  2
$PAPER_SPACE
 70
     0
 10
0.0
 20
0.0
 30
0.0
  3
$PAPER_SPACE
  1

  0
ENDBLK
  5
12
 67
     1
  8
0
  0
BLOCK
  8
0
  2
*X22
 70
     1
 10
0.0
 20
0.0
 30
0.0
  3
*X22
  1

  0
LINE
  5
ACE
  8
0
 62
     0
 10
-9.3114600223025619
 20
97.337875011120474
 30
0.0
 11
-6.9735850111820774
 21
94.999999999999986
 31
0.0
  0
LINE
  5
ACF
  8
0
 62
     0
 10
-9.3114600223025583
 20
101.828003071655
 30
0.0
 11
-2.4834569506475002
 21
94.999999999999986
 31
0.0
  0
LINE
  5
AD0
  8
0
 62
     0
 10
-9.3114600223025636
 20
106.31813113218961
 30
0.0
 11
2.0066711098870722
 21
94.999999999999986
 31
0.0
  0
LINE
  5
AD1
  8
0
 62
     0
 10
-9.3114600223025601
 20
110.80825919272419
 30
0.0
 11
6.496799170421645
 21
94.999999999999986
 31
0.0
  0
LINE
  5
AD2
  8
0
 62
     0
 10
-9.3114600223025636
 20
115.2983872532587
 30
0.0
 11
10.986927230956219
 21
94.999999999999986
 31
0.0
  0
LINE
  5
AD3
  8
0
 62
     0
 10
-9.3114600223025636
 20
119.7885153137933
 30
0.0
 11
15.477055291490791
 21
94.999999999999986
 31
0.0
  0
LINE
  5
AD4
  8
0
 62
     0
 10
-9.3114600223025583
 20
124.2786433743279
 30
0.0
 11
19.967183352025369
 21
94.999999999999986
 31
0.0
  0
LINE
  5
AD5
  8
0
 62
     0
 10
-9.3114600223025565
 20
128.76877143486249
 30
0.0
 11
24.45731141255996
 21
94.999999999999957
 31
0.0
  0
LINE
  5
AD6
  8
0
 62
     0
 10
-9.2840898185059242
 20
133.2315292916004
 30
0.0
 11
28.94743947309453
 21
94.999999999999986
 31
0.0
  0
LINE
  5
AD7
  8
0
 62
     0
 10
-4.7939617579713509
 20
133.2315292916004
 30
0.0
 11
33.4375675336291
 21
94.999999999999986
 31
0.0
  0
LINE
  5
AD8
  8
0
 62
     0
 10
-0.3038336974367706
 20
133.2315292916004
 30
0.0
 11
37.92769559416368
 21
94.999999999999957
 31
0.0
  0
LINE
  5
AD9
  8
0
 62
     0
 10
4.1862943630978027
 20
133.2315292916004
 30
0.0
 11
42.417823654698239
 21
94.999999999999986
 31
0.0
  0
LINE
  5
ADA
  8
0
 62
     0
 10
8.6764224236323848
 20
133.2315292916004
 30
0.0
 11
46.907951715232819
 21
94.999999999999986
 31
0.0
  0
LINE
  5
ADB
  8
0
 62
     0
 10
13.16655048416696
 20
133.2315292916004
 30
0.0
 11
51.3980797757674
 21
94.999999999999986
 31
0.0
  0
LINE
  5
ADC
  8
0
 62
     0
 10
17.656678544701538
 20
133.2315292916004
 30
0.0
 11
55.888207836301959
 21
94.999999999999986
 31
0.0
  0
LINE
  5
ADD
  8
0
 62
     0
 10
22.146806605236119
 20
133.2315292916004
 30
0.0
 11
60.378335896836532
 21
94.999999999999986
 31
0.0
  0
LINE
  5
ADE
  8
0
 62
     0
 10
26.636934665770699
 20
133.2315292916004
 30
0.0
 11
64.868463957371105
 21
94.999999999999986
 31
0.0
  0
LINE
  5
ADF
  8
0
 62
     0
 10
31.127062726305279
 20
133.2315292916004
 30
0.0
 11
69.358592017905693
 21
94.999999999999986
 31
0.0
  0
LINE
  5
AE0
  8
0
 62
     0
 10
35.617190786839863
 20
133.2315292916004
 30
0.0
 11
73.848720078440266
 21
94.999999999999986
 31
0.0
  0
LINE
  5
AE1
  8
0
 62
     0
 10
40.107318847374437
 20
133.2315292916004
 30
0.0
 11
78.212643253562192
 21
95.126204885412619
 31
0.0
  0
LINE
  5
AE2
  8
0
 62
     0
 10
44.59744690790901
 20
133.2315292916004
 30
0.0
 11
78.212643253562192
 21
99.616332945947192
 31
0.0
  0
LINE
  5
AE3
  8
0
 62
     0
 10
49.08757496844359
 20
133.23152929160031
 30
0.0
 11
78.212643253562192
 21
104.10646100648169
 31
0.0
  0
LINE
  5
AE4
  8
0
 62
     0
 10
53.577703028978171
 20
133.2315292916004
 30
0.0
 11
78.212643253562192
 21
108.5965890670163
 31
0.0
  0
LINE
  5
AE5
  8
0
 62
     0
 10
58.067831089512737
 20
133.23152929160031
 30
0.0
 11
78.212643253562192
 21
113.0867171275509
 31
0.0
  0
LINE
  5
AE6
  8
0
 62
     0
 10
62.55795915004731
 20
133.2315292916004
 30
0.0
 11
78.212643253562192
 21
117.5768451880855
 31
0.0
  0
LINE
  5
AE7
  8
0
 62
     0
 10
67.048087210581883
 20
133.2315292916004
 30
0.0
 11
78.212643253562192
 21
122.0669732486201
 31
0.0
  0
LINE
  5
AE8
  8
0
 62
     0
 10
71.538215271116457
 20
133.2315292916004
 30
0.0
 11
78.212643253562192
 21
126.5571013091546
 31
0.0
  0
LINE
  5
AE9
  8
0
 62
     0
 10
76.028343331651044
 20
133.23152929160031
 30
0.0
 11
78.212643253562192
 21
131.04722936968921
 31
0.0
  0
ENDBLK
  5
AEB
  8
0
  0
BLOCK
  8
0
  2
*U23
 70
     1
 10
0.0
 20
0.0
 30
0.0
  3
*U23
  1

  0
LINE
  5
B1B
  8
0
 10
803.27445133771903
 20
651.3246753803445
 30
0.0
 11
804.27445133771903
 21
651.3246753803445
 31
0.0
  0
LINE
  5
B1C
  8
0
 10
802.47445133771885
 20
650.52467538034455
 30
0.0
 11
803.27445133771903
 21
651.3246753803445
 31
0.0
  0
LINE
  5
B1D
  8
0
 10
804.27445133771903
 20
651.3246753803445
 30
0.0
 11
804.27445133771903
 21
648.82467538034439
 31
0.0
  0
LINE
  5
B1E
  8
0
 10
802.47445133771885
 20
644.84429062261506
 30
0.0
 11
802.47445133771885
 21
650.52467538034455
 31
0.0
  0
LINE
  5
B1F
  8
0
 10
804.27445133771903
 20
648.82467538034439
 30
0.0
 11
807.27445133771892
 21
648.82467538034439
 31
0.0
  0
LINE
  5
B20
  8
0
 10
802.77445133771892
 20
644.32467538034439
 30
0.0
 11
802.47445133771885
 21
644.84429062261506
 31
0.0
  0
LINE
  5
B21
  8
0
 10
807.27445133771892
 20
648.82467538034439
 30
0.0
 11
807.27445133771892
 21
667.52467538034455
 31
0.0
  0
LINE
  5
B22
  8
0
 10
802.47445133771885
 20
643.80506013807383
 30
0.0
 11
802.77445133771892
 21
644.32467538034439
 31
0.0
  0
LINE
  5
B23
  8
0
 10
807.27445133771892
 20
667.52467538034455
 30
0.0
 11
804.27445133771903
 21
667.52467538034455
 31
0.0
  0
LINE
  5
B24
  8
0
 10
802.47445133771885
 20
638.12467538034446
 30
0.0
 11
802.47445133771885
 21
643.80506013807383
 31
0.0
  0
LINE
  5
B25
  8
0
 10
804.27445133771903
 20
667.52467538034455
 30
0.0
 11
804.27445133771903
 21
665.32467538034439
 31
0.0
  0
LINE
  5
B26
  8
0
 10
803.27445133771903
 20
637.3246753803445
 30
0.0
 11
802.47445133771885
 21
638.12467538034446
 31
0.0
  0
LINE
  5
B27
  8
0
 10
804.27445133771903
 20
665.32467538034439
 30
0.0
 11
803.27445133771903
 21
665.32467538034439
 31
0.0
  0
LINE
  5
B28
  8
0
 10
804.27445133771903
 20
637.3246753803445
 30
0.0
 11
803.27445133771903
 21
637.3246753803445
 31
0.0
  0
LINE
  5
B29
  8
0
 10
803.27445133771903
 20
665.32467538034439
 30
0.0
 11
802.27445133771903
 21
666.3246753803445
 31
0.0
  0
LINE
  5
B2A
  8
0
 10
804.27445133771903
 20
639.82467538034439
 30
0.0
 11
804.27445133771903
 21
637.3246753803445
 31
0.0
  0
LINE
  5
B2B
  8
0
 10
802.27445133771903
 20
666.3246753803445
 30
0.0
 11
802.27445133771903
 21
669.32467538034439
 31
0.0
  0
LINE
  5
B2C
  8
0
 10
807.27445133771892
 20
639.82467538034439
 30
0.0
 11
804.27445133771903
 21
639.82467538034439
 31
0.0
  0
LINE
  5
B2D
  8
0
 10
802.27445133771903
 20
669.32467538034439
 30
0.0
 11
847.27445133771903
 21
669.32467538034439
 31
0.0
  0
LINE
  5
B2E
  8
0
 10
807.27445133771892
 20
621.12467538034446
 30
0.0
 11
807.27445133771892
 21
639.82467538034439
 31
0.0
  0
LINE
  5
B2F
  8
0
 10
847.27445133771903
 20
669.32467538034439
 30
0.0
 11
847.27445133771903
 21
666.3246753803445
 31
0.0
  0
LINE
  5
B30
  8
0
 10
804.27445133771903
 20
621.12467538034446
 30
0.0
 11
807.27445133771892
 21
621.12467538034446
 31
0.0
  0
LINE
  5
B31
  8
0
 10
847.27445133771903
 20
666.3246753803445
 30
0.0
 11
846.27445133771903
 21
665.32467538034439
 31
0.0
  0
LINE
  5
B32
  8
0
 10
804.27445133771903
 20
623.32467538034439
 30
0.0
 11
804.27445133771903
 21
621.12467538034446
 31
0.0
  0
LINE
  5
B33
  8
0
 10
846.27445133771903
 20
665.32467538034439
 30
0.0
 11
845.27445133771903
 21
665.32467538034439
 31
0.0
  0
LINE
  5
B34
  8
0
 10
803.27445133771903
 20
623.32467538034439
 30
0.0
 11
804.27445133771903
 21
623.32467538034439
 31
0.0
  0
LINE
  5
B35
  8
0
 10
845.27445133771903
 20
665.32467538034439
 30
0.0
 11
845.27445133771903
 21
667.52467538034455
 31
0.0
  0
LINE
  5
B36
  8
0
 10
802.27445133771903
 20
622.3246753803445
 30
0.0
 11
803.27445133771903
 21
623.32467538034439
 31
0.0
  0
LINE
  5
B37
  8
0
 10
845.27445133771903
 20
667.52467538034455
 30
0.0
 11
842.27445133771914
 21
667.52467538034455
 31
0.0
  0
LINE
  5
B38
  8
0
 10
802.27445133771903
 20
619.32467538034439
 30
0.0
 11
802.27445133771903
 21
622.3246753803445
 31
0.0
  0
LINE
  5
B39
  8
0
 10
842.27445133771914
 20
667.52467538034455
 30
0.0
 11
842.27445133771914
 21
648.82467538034439
 31
0.0
  0
LINE
  5
B3A
  8
0
 10
847.27445133771903
 20
619.32467538034439
 30
0.0
 11
802.27445133771903
 21
619.32467538034439
 31
0.0
  0
LINE
  5
B3B
  8
0
 10
842.27445133771914
 20
648.82467538034439
 30
0.0
 11
845.27445133771903
 21
648.82467538034439
 31
0.0
  0
LINE
  5
B3C
  8
0
 10
847.27445133771903
 20
622.3246753803445
 30
0.0
 11
847.27445133771903
 21
619.32467538034439
 31
0.0
  0
LINE
  5
B3D
  8
0
 10
845.27445133771903
 20
648.82467538034439
 30
0.0
 11
845.27445133771903
 21
651.3246753803445
 31
0.0
  0
LINE
  5
B3E
  8
0
 10
846.27445133771903
 20
623.32467538034439
 30
0.0
 11
847.27445133771903
 21
622.3246753803445
 31
0.0
  0
LINE
  5
B3F
  8
0
 10
845.27445133771903
 20
651.3246753803445
 30
0.0
 11
846.27445133771903
 21
651.3246753803445
 31
0.0
  0
LINE
  5
B40
  8
0
 10
845.27445133771903
 20
623.32467538034439
 30
0.0
 11
846.27445133771903
 21
623.32467538034439
 31
0.0
  0
LINE
  5
B41
  8
0
 10
846.27445133771903
 20
651.3246753803445
 30
0.0
 11
847.07445133771887
 21
650.52467538034455
 31
0.0
  0
LINE
  5
B42
  8
0
 10
845.27445133771903
 20
621.12467538034446
 30
0.0
 11
845.27445133771903
 21
623.32467538034439
 31
0.0
  0
LINE
  5
B43
  8
0
 10
847.07445133771887
 20
650.52467538034455
 30
0.0
 11
847.07445133771887
 21
644.84429062261506
 31
0.0
  0
LINE
  5
B44
  8
0
 10
842.27445133771914
 20
621.12467538034446
 30
0.0
 11
845.27445133771903
 21
621.12467538034446
 31
0.0
  0
LINE
  5
B45
  8
0
 10
847.07445133771887
 20
644.84429062261506
 30
0.0
 11
846.77445133771914
 21
644.32467538034439
 31
0.0
  0
LINE
  5
B46
  8
0
 10
842.27445133771914
 20
639.82467538034439
 30
0.0
 11
842.27445133771914
 21
621.12467538034446
 31
0.0
  0
LINE
  5
B47
  8
0
 10
846.77445133771914
 20
644.32467538034439
 30
0.0
 11
847.07445133771887
 21
643.80506013807383
 31
0.0
  0
LINE
  5
B48
  8
0
 10
845.27445133771903
 20
639.82467538034439
 30
0.0
 11
842.27445133771914
 21
639.82467538034439
 31
0.0
  0
LINE
  5
B49
  8
0
 10
847.07445133771887
 20
643.80506013807383
 30
0.0
 11
847.07445133771887
 21
638.12467538034446
 31
0.0
  0
LINE
  5
B4A
  8
0
 10
845.27445133771903
 20
637.3246753803445
 30
0.0
 11
845.27445133771903
 21
639.82467538034439
 31
0.0
  0
LINE
  5
B4B
  8
0
 10
847.07445133771887
 20
638.12467538034446
 30
0.0
 11
846.27445133771903
 21
637.3246753803445
 31
0.0
  0
LINE
  5
B4C
  8
0
 10
846.27445133771903
 20
637.3246753803445
 30
0.0
 11
845.27445133771903
 21
637.3246753803445
 31
0.0
  0
LINE
  5
B4D
  8
0
 10
840.47445133771896
 20
667.52467538034455
 30
0.0
 11
840.47445133771896
 21
646.41967538034453
 31
0.0
  0
ARC
  5
B4E
  8
0
 10
840.96945133771885
 20
646.4196753803443
 30
0.0
 40
0.4949999999999477
 50
179.99999999998681
 51
270.0
  0
LINE
  5
B4F
  8
0
 10
809.07445133771898
 20
667.52467538034455
 30
0.0
 11
840.47445133771896
 21
667.52467538034455
 31
0.0
  0
LINE
  5
B50
  8
0
 10
840.96945133771885
 20
645.92467538034452
 30
0.0
 11
840.97945133771896
 21
645.92467538034452
 31
0.0
  0
LINE
  5
B51
  8
0
 10
809.07445133771898
 20
646.41967538034453
 30
0.0
 11
809.07445133771898
 21
667.52467538034455
 31
0.0
  0
ARC
  5
B52
  8
0
 10
840.97945133771896
 20
646.4196753803443
 30
0.0
 40
0.4949999999999477
 50
270.0
 51
0.0000000000131894
  0
ARC
  5
B53
  8
0
 10
808.57945133771909
 20
646.4196753803443
 30
0.0
 40
0.4950000000000045
 50
269.99999999998681
 51
0.0000000000131095
  0
LINE
  5
B54
  8
0
 10
841.47445133771885
 20
646.41967538034453
 30
0.0
 11
841.47445133771896
 21
646.5796753803445
 31
0.0
  0
LINE
  5
B55
  8
0
 10
808.5694513377191
 20
645.92467538034452
 30
0.0
 11
808.57945133771887
 21
645.92467538034452
 31
0.0
  0
ARC
  5
B56
  8
0
 10
841.96945133771908
 20
646.57967538034427
 30
0.0
 40
0.4950000000000152
 50
90.000000000013159
 51
179.99999999998681
  0
ARC
  5
B57
  8
0
 10
808.5694513377191
 20
646.41967538034453
 30
0.0
 40
0.4950000000000616
 50
180.0
 51
270.0
  0
LINE
  5
B58
  8
0
 10
841.96945133771885
 20
647.0746753803445
 30
0.0
 11
842.77445133771903
 21
647.0746753803445
 31
0.0
  0
LINE
  5
B59
  8
0
 10
808.07445133771898
 20
646.5796753803445
 30
0.0
 11
808.07445133771898
 21
646.41967538034453
 31
0.0
  0
ARC
  5
B5A
  8
0
 10
842.77445133771994
 20
644.32467538034359
 30
0.0
 40
2.750000000000778
 50
7.8247569391562211
 51
90.000000000018971
  0
ARC
  5
B5B
  8
0
 10
807.57945133771887
 20
646.5796753803445
 30
0.0
 40
0.4949999999999584
 50
0.0
 51
89.999999999986898
  0
LINE
  5
B5C
  8
0
 10
845.498846380955
 20
644.69907042358102
 30
0.0
 11
845.1244513377186
 21
644.32467538034439
 31
0.0
  0
LINE
  5
B5D
  8
0
 10
806.77445133771892
 20
647.0746753803445
 30
0.0
 11
807.57945133771909
 21
647.0746753803445
 31
0.0
  0
LINE
  5
B5E
  8
0
 10
845.1244513377186
 20
644.32467538034439
 30
0.0
 11
845.49884638095341
 21
643.95028033710821
 31
0.0
  0
ARC
  5
B5F
  8
0
 10
806.77445133771801
 20
644.32467538034359
 30
0.0
 40
2.750000000000778
 50
89.999999999981043
 51
172.1752430608438
  0
ARC
  5
B60
  8
0
 10
842.77445133771903
 20
644.32467538034439
 30
0.0
 40
2.74999999999998
 50
270.0
 51
352.1752430608629
  0
LINE
  5
B61
  8
0
 10
804.42445133771935
 20
644.32467538034439
 30
0.0
 11
804.05005629448306
 21
644.69907042358102
 31
0.0
  0
LINE
  5
B62
  8
0
 10
842.77445133771903
 20
641.57467538034439
 30
0.0
 11
841.96945133771885
 21
641.57467538034439
 31
0.0
  0
LINE
  5
B63
  8
0
 10
804.05005629448465
 20
643.95028033710821
 30
0.0
 11
804.42445133771935
 21
644.32467538034439
 31
0.0
  0
ARC
  5
B64
  8
0
 10
841.96945133771885
 20
642.06967538034462
 30
0.0
 40
0.4950000000000722
 50
180.0000000000131
 51
270.0
  0
ARC
  5
B65
  8
0
 10
806.77445133771903
 20
644.32467538034439
 30
0.0
 40
2.74999999999998
 50
187.82475693913699
 51
270.0
  0
LINE
  5
B66
  8
0
 10
841.47445133771885
 20
642.06967538034439
 30
0.0
 11
841.47445133771885
 21
642.22967538034436
 31
0.0
  0
LINE
  5
B67
  8
0
 10
807.57945133771909
 20
641.57467538034439
 30
0.0
 11
806.77445133771903
 21
641.57467538034439
 31
0.0
  0
ARC
  5
B68
  8
0
 10
840.97945133771896
 20
642.22967538034447
 30
0.0
 40
0.4949999999999477
 50
359.99999999998681
 51
90.0
  0
ARC
  5
B69
  8
0
 10
807.57945133771887
 20
642.06967538034439
 30
0.0
 40
0.4949999999999584
 50
270.00000000001307
 51
0.0
  0
LINE
  5
B6A
  8
0
 10
840.97945133771896
 20
642.72467538034437
 30
0.0
 11
840.96945133771885
 21
642.72467538034437
 31
0.0
  0
LINE
  5
B6B
  8
0
 10
808.07445133771898
 20
642.22967538034436
 30
0.0
 11
808.07445133771898
 21
642.06967538034439
 31
0.0
  0
ARC
  5
B6C
  8
0
 10
840.96945133771885
 20
642.22967538034447
 30
0.0
 40
0.4949999999999477
 50
90.0
 51
180.00000000001319
  0
ARC
  5
B6D
  8
0
 10
808.5694513377191
 20
642.22967538034436
 30
0.0
 40
0.4950000000000613
 50
90.000000000000028
 51
180.0
  0
LINE
  5
B6E
  8
0
 10
840.47445133771896
 20
642.22967538034436
 30
0.0
 11
840.47445133771896
 21
621.12467538034446
 31
0.0
  0
LINE
  5
B6F
  8
0
 10
808.57945133771887
 20
642.72467538034437
 30
0.0
 11
808.5694513377191
 21
642.72467538034437
 31
0.0
  0
LINE
  5
B70
  8
0
 10
840.47445133771896
 20
621.12467538034446
 30
0.0
 11
809.07445133771898
 21
621.12467538034446
 31
0.0
  0
ARC
  5
B71
  8
0
 10
808.57945133771909
 20
642.22967538034447
 30
0.0
 40
0.4950000000000045
 50
359.99999999998681
 51
90.000000000013102
  0
LINE
  5
B72
  8
0
 10
809.07445133771898
 20
621.12467538034446
 30
0.0
 11
809.07445133771898
 21
642.22967538034436
 31
0.0
  0
ENDBLK
  5
B74
  8
0
  0
BLOCK
  8
0
  2
*U24
 70
     1
 10
0.0
 20
0.0
 30
0.0
  3
*U24
  1

  0
TEXT
  5
B96
  8
0
 62
     2
 10
822.46231930336307
 20
606.73114493365938
 30
0.0
 40
3.0
  1
45
  7
BYGG-014533$0$ISO
  0
ENDBLK
  5
B98
  8
0
  0
BLOCK
  8
0
  2
*U25
 70
     1
 10
0.0
 20
0.0
 30
0.0
  3
*U25
  1

  0
TEXT
  5
B9A
  8
0
 62
     2
 10
857.95933842027637
 20
642.22349427798235
 30
0.0
 40
3.0
  1
50
 50
90.0
  7
BYGG-014533$0$ISO
  0
ENDBLK
  5
B9C
  8
0
  0
BLOCK
  8
0
  2
*U26
 70
     1
 10
0.0
 20
0.0
 30
0.0
  3
*U26
  1

  0
TEXT
  5
BA0
  8
0
 10
200.7066197366058
 20
121.9761478607964
 30
0.0
 40
3.0
  1
55.15
 50
90.0
  7
BYGG-014247$0$ISO
  0
ENDBLK
  5
BA2
  8
0
  0
BLOCK
  8
0
  2
*U27
 70
     1
 10
0.0
 20
0.0
 30
0.0
  3
*U27
  1

  0
TEXT
  5
BAC
  8
0
 10
169.4719591245163
 20
80.624583302187148
 30
0.0
 40
3.0
  1
25
  7
BYGG-014247$0$ISO
  0
ENDBLK
  5
BAE
  8
0
  0
BLOCK
  8
0
  2
*U28
 70
     1
 10
0.0
 20
0.0
 30
0.0
  3
*U28
  1

  0
TEXT
  5
BB7
  8
0
 10
176.20834500782911
 20
165.11646576828349
 30
0.0
 40
3.0
  1
12
  7
BYGG-014247$0$ISO
  0
ENDBLK
  5
BB9
  8
0
  0
BLOCK
  8
0
  2
*U29
 70
     1
 10
0.0
 20
0.0
 30
0.0
  3
*U29
  1

  0
TEXT
  5
C5C
  8
0
 10
32.26183753284387
 20
48.610619128914209
 30
0.0
 40
3.0
  1
55.15
  7
BYGG-014247$0$ISO
  0
ENDBLK
  5
C5E
  8
0
  0
BLOCK
  8
0
  2
*U30
 70
     1
 10
0.0
 20
0.0
 30
0.0
  3
*U30
  1

  0
TEXT
  5
C60
  8
0
 10
82.437666160165136
 20
15.37595851682469
 30
0.0
 40
3.0
  1
25
 50
90.0
  7
BYGG-014247$0$ISO
  0
ENDBLK
  5
C62
  8
0
  0
BLOCK
  8
0
  2
*U31
 70
     1
 10
0.0
 20
0.0
 30
0.0
  3
*U31
  1

  0
TEXT
  5
C64
  8
0
 10
-2.054216305931245
 20
22.112344400137481
 30
0.0
 40
3.0
  1
12
 50
90.0
  7
BYGG-014247$0$ISO
  0
ENDBLK
  5
C66
  8
0
  0
BLOCK
  8
0
  2
*U32
 70
     1
 10
0.0
 20
0.0
 30
0.0
  3
*U32
  1

  0
TEXT
  5
C68
  8
0
 62
     2
 10
-5.743530446685102
 20
50.18786796564391
 30
0.0
 40
3.0
  1
45
 50
90.0
  7
BYGG-014533$0$ISO
  0
ENDBLK
  5
C6A
  8
0
  0
BLOCK
  8
0
  2
*U33
 70
     1
 10
0.0
 20
0.0
 30
0.0
  3
*U33
  1

  0
TEXT
  5
C6C
  8
0
 62
     2
 10
31.748818897637712
 20
19.315112917442431
 30
0.0
 40
3.0
  1
50
  7
BYGG-014533$0$ISO
  0
ENDBLK
  5
C6E
  8
0
  0
BLOCK
  8
0
  2
*U34
 70
     1
 10
0.0
 20
0.0
 30
0.0
  3
*U34
  1

  0
LINE
  5
C70
  8
SAPA_PROFIL
 10
40.849999999999909
 20
73.999999999999886
 30
0.0
 11
40.849999999999909
 21
72.999999999999886
 31
0.0
  0
LINE
  5
C71
  8
SAPA_PROFIL
 10
40.049999999999947
 20
74.799999999999955
 30
0.0
 11
40.849999999999909
 21
73.999999999999886
 31
0.0
  0
LINE
  5
C72
  8
SAPA_PROFIL
 10
40.849999999999909
 20
72.999999999999886
 30
0.0
 11
38.349999999999909
 21
72.999999999999886
 31
0.0
  0
LINE
  5
C73
  8
SAPA_PROFIL
 10
34.369615242270577
 20
74.799999999999955
 30
0.0
 11
40.049999999999947
 21
74.799999999999955
 31
0.0
  0
LINE
  5
C74
  8
SAPA_PROFIL
 10
38.349999999999909
 20
72.999999999999886
 30
0.0
 11
38.349999999999909
 21
69.999999999999886
 31
0.0
  0
LINE
  5
C75
  8
SAPA_PROFIL
 10
33.849999999999909
 20
74.499999999999886
 30
0.0
 11
34.369615242270577
 21
74.799999999999955
 31
0.0
  0
LINE
  5
C76
  8
SAPA_PROFIL
 10
38.349999999999909
 20
69.999999999999886
 30
0.0
 11
57.049999999999947
 21
69.999999999999886
 31
0.0
  0
LINE
  5
C77
  8
SAPA_PROFIL
 10
33.330384757729227
 20
74.799999999999955
 30
0.0
 11
33.849999999999909
 21
74.499999999999886
 31
0.0
  0
LINE
  5
C78
  8
SAPA_PROFIL
 10
57.049999999999947
 20
69.999999999999886
 30
0.0
 11
57.049999999999947
 21
72.999999999999886
 31
0.0
  0
LINE
  5
C79
  8
SAPA_PROFIL
 10
27.64999999999986
 20
74.799999999999955
 30
0.0
 11
33.330384757729227
 21
74.799999999999955
 31
0.0
  0
LINE
  5
C7A
  8
SAPA_PROFIL
 10
57.049999999999947
 20
72.999999999999886
 30
0.0
 11
54.849999999999909
 21
72.999999999999886
 31
0.0
  0
LINE
  5
C7B
  8
SAPA_PROFIL
 10
26.849999999999909
 20
73.999999999999886
 30
0.0
 11
27.64999999999986
 21
74.799999999999955
 31
0.0
  0
LINE
  5
C7C
  8
SAPA_PROFIL
 10
54.849999999999909
 20
72.999999999999886
 30
0.0
 11
54.849999999999909
 21
73.999999999999886
 31
0.0
  0
LINE
  5
C7D
  8
SAPA_PROFIL
 10
26.849999999999909
 20
72.999999999999886
 30
0.0
 11
26.849999999999909
 21
73.999999999999886
 31
0.0
  0
LINE
  5
C7E
  8
SAPA_PROFIL
 10
54.849999999999909
 20
73.999999999999886
 30
0.0
 11
55.849999999999909
 21
74.999999999999886
 31
0.0
  0
LINE
  5
C7F
  8
SAPA_PROFIL
 10
29.349999999999909
 20
72.999999999999886
 30
0.0
 11
26.849999999999909
 21
72.999999999999886
 31
0.0
  0
LINE
  5
C80
  8
SAPA_PROFIL
 10
55.849999999999909
 20
74.999999999999886
 30
0.0
 11
58.849999999999902
 21
74.999999999999886
 31
0.0
  0
LINE
  5
C81
  8
SAPA_PROFIL
 10
29.349999999999909
 20
69.999999999999886
 30
0.0
 11
29.349999999999909
 21
72.999999999999886
 31
0.0
  0
LINE
  5
C82
  8
SAPA_PROFIL
 10
58.849999999999902
 20
74.999999999999886
 30
0.0
 11
58.849999999999902
 21
29.99999999999989
 31
0.0
  0
LINE
  5
C83
  8
SAPA_PROFIL
 10
10.64999999999986
 20
69.999999999999886
 30
0.0
 11
29.349999999999909
 21
69.999999999999886
 31
0.0
  0
LINE
  5
C84
  8
SAPA_PROFIL
 10
58.849999999999902
 20
29.99999999999989
 30
0.0
 11
55.849999999999909
 21
29.99999999999989
 31
0.0
  0
LINE
  5
C85
  8
SAPA_PROFIL
 10
10.64999999999986
 20
72.999999999999886
 30
0.0
 11
10.64999999999986
 21
69.999999999999886
 31
0.0
  0
LINE
  5
C86
  8
SAPA_PROFIL
 10
55.849999999999909
 20
29.99999999999989
 30
0.0
 11
54.849999999999909
 21
30.99999999999989
 31
0.0
  0
LINE
  5
C87
  8
SAPA_PROFIL
 10
12.849999999999911
 20
72.999999999999886
 30
0.0
 11
10.64999999999986
 21
72.999999999999886
 31
0.0
  0
LINE
  5
C88
  8
SAPA_PROFIL
 10
54.849999999999909
 20
30.99999999999989
 30
0.0
 11
54.849999999999909
 21
31.99999999999989
 31
0.0
  0
LINE
  5
C89
  8
SAPA_PROFIL
 10
12.849999999999911
 20
73.999999999999886
 30
0.0
 11
12.849999999999911
 21
72.999999999999886
 31
0.0
  0
LINE
  5
C8A
  8
SAPA_PROFIL
 10
54.849999999999909
 20
31.99999999999989
 30
0.0
 11
57.049999999999947
 21
31.99999999999989
 31
0.0
  0
LINE
  5
C8B
  8
SAPA_PROFIL
 10
11.849999999999911
 20
74.999999999999886
 30
0.0
 11
12.849999999999911
 21
73.999999999999886
 31
0.0
  0
LINE
  5
C8C
  8
SAPA_PROFIL
 10
57.049999999999947
 20
31.99999999999989
 30
0.0
 11
57.049999999999947
 21
34.999999999999893
 31
0.0
  0
LINE
  5
C8D
  8
SAPA_PROFIL
 10
8.8499999999999091
 20
74.999999999999886
 30
0.0
 11
11.849999999999911
 21
74.999999999999886
 31
0.0
  0
LINE
  5
C8E
  8
SAPA_PROFIL
 10
57.049999999999947
 20
34.999999999999893
 30
0.0
 11
38.349999999999909
 21
34.999999999999893
 31
0.0
  0
LINE
  5
C8F
  8
SAPA_PROFIL
 10
8.8499999999999091
 20
29.99999999999989
 30
0.0
 11
8.8499999999999091
 21
74.999999999999886
 31
0.0
  0
LINE
  5
C90
  8
SAPA_PROFIL
 10
38.349999999999909
 20
34.999999999999893
 30
0.0
 11
38.349999999999909
 21
31.99999999999989
 31
0.0
  0
LINE
  5
C91
  8
SAPA_PROFIL
 10
11.849999999999911
 20
29.99999999999989
 30
0.0
 11
8.8499999999999091
 21
29.99999999999989
 31
0.0
  0
LINE
  5
C92
  8
SAPA_PROFIL
 10
38.349999999999909
 20
31.99999999999989
 30
0.0
 11
40.849999999999909
 21
31.99999999999989
 31
0.0
  0
LINE
  5
C93
  8
SAPA_PROFIL
 10
12.849999999999911
 20
30.99999999999989
 30
0.0
 11
11.849999999999911
 21
29.99999999999989
 31
0.0
  0
LINE
  5
C94
  8
SAPA_PROFIL
 10
40.849999999999909
 20
31.99999999999989
 30
0.0
 11
40.849999999999909
 21
30.99999999999989
 31
0.0
  0
LINE
  5
C95
  8
SAPA_PROFIL
 10
12.849999999999911
 20
31.99999999999989
 30
0.0
 11
12.849999999999911
 21
30.99999999999989
 31
0.0
  0
LINE
  5
C96
  8
SAPA_PROFIL
 10
40.849999999999909
 20
30.99999999999989
 30
0.0
 11
40.049999999999947
 21
30.199999999999928
 31
0.0
  0
LINE
  5
C97
  8
SAPA_PROFIL
 10
10.64999999999986
 20
31.99999999999989
 30
0.0
 11
12.849999999999911
 21
31.99999999999989
 31
0.0
  0
LINE
  5
C98
  8
SAPA_PROFIL
 10
40.049999999999947
 20
30.199999999999928
 30
0.0
 11
34.369615242270577
 21
30.199999999999928
 31
0.0
  0
LINE
  5
C99
  8
SAPA_PROFIL
 10
10.64999999999986
 20
34.999999999999893
 30
0.0
 11
10.64999999999986
 21
31.99999999999989
 31
0.0
  0
LINE
  5
C9A
  8
SAPA_PROFIL
 10
34.369615242270577
 20
30.199999999999928
 30
0.0
 11
33.849999999999909
 21
30.49999999999989
 31
0.0
  0
LINE
  5
C9B
  8
SAPA_PROFIL
 10
29.349999999999909
 20
34.999999999999893
 30
0.0
 11
10.64999999999986
 21
34.999999999999893
 31
0.0
  0
LINE
  5
C9C
  8
SAPA_PROFIL
 10
33.849999999999909
 20
30.49999999999989
 30
0.0
 11
33.330384757729227
 21
30.199999999999928
 31
0.0
  0
LINE
  5
C9D
  8
SAPA_PROFIL
 10
29.349999999999909
 20
31.99999999999989
 30
0.0
 11
29.349999999999909
 21
34.999999999999893
 31
0.0
  0
LINE
  5
C9E
  8
SAPA_PROFIL
 10
33.330384757729227
 20
30.199999999999928
 30
0.0
 11
27.64999999999986
 21
30.199999999999928
 31
0.0
  0
LINE
  5
C9F
  8
SAPA_PROFIL
 10
26.849999999999909
 20
31.99999999999989
 30
0.0
 11
29.349999999999909
 21
31.99999999999989
 31
0.0
  0
LINE
  5
CA0
  8
SAPA_PROFIL
 10
27.64999999999986
 20
30.199999999999928
 30
0.0
 11
26.849999999999909
 21
30.99999999999989
 31
0.0
  0
LINE
  5
CA1
  8
SAPA_PROFIL
 10
26.849999999999909
 20
30.99999999999989
 30
0.0
 11
26.849999999999909
 21
31.99999999999989
 31
0.0
  0
LINE
  5
CA2
  8
SAPA_PROFIL
 10
57.049999999999947
 20
36.799999999999841
 30
0.0
 11
35.944999999999943
 21
36.799999999999841
 31
0.0
  0
ARC
  5
CA3
  8
SAPA_PROFIL
 10
35.944999999999823
 20
36.30499999999995
 30
0.0
 40
0.4949999999999477
 50
89.999999999986827
 51
180.0
  0
LINE
  5
CA4
  8
SAPA_PROFIL
 10
57.049999999999947
 20
68.199999999999932
 30
0.0
 11
57.049999999999947
 21
36.799999999999841
 31
0.0
  0
LINE
  5
CA5
  8
SAPA_PROFIL
 10
35.449999999999932
 20
36.30499999999995
 30
0.0
 11
35.449999999999932
 21
36.294999999999959
 31
0.0
  0
LINE
  5
CA6
  8
SAPA_PROFIL
 10
35.944999999999943
 20
68.199999999999932
 30
0.0
 11
57.049999999999947
 21
68.199999999999932
 31
0.0
  0
ARC
  5
CA7
  8
SAPA_PROFIL
 10
35.944999999999823
 20
36.294999999999959
 30
0.0
 40
0.4949999999999477
 50
180.0
 51
270.00000000001307
  0
ARC
  5
CA8
  8
SAPA_PROFIL
 10
35.944999999999823
 20
68.694999999999823
 30
0.0
 40
0.4950000000000045
 50
179.99999999998681
 51
270.00000000001307
  0
LINE
  5
CA9
  8
SAPA_PROFIL
 10
35.944999999999943
 20
35.800000000000068
 30
0.0
 11
36.104999999999912
 21
35.799999999999962
 31
0.0
  0
LINE
  5
CAA
  8
SAPA_PROFIL
 10
35.449999999999932
 20
68.704999999999814
 30
0.0
 11
35.449999999999932
 21
68.694999999999936
 31
0.0
  0
ARC
  5
CAB
  8
SAPA_PROFIL
 10
36.104999999999791
 20
35.304999999999843
 30
0.0
 40
0.4950000000000152
 50
0.0000000000131548
 51
89.999999999986812
  0
ARC
  5
CAC
  8
SAPA_PROFIL
 10
35.944999999999943
 20
68.704999999999814
 30
0.0
 40
0.4950000000000616
 50
90.0
 51
180.0
  0
LINE
  5
CAD
  8
SAPA_PROFIL
 10
36.599999999999909
 20
35.30499999999995
 30
0.0
 11
36.599999999999909
 21
34.499999999999893
 31
0.0
  0
LINE
  5
CAE
  8
SAPA_PROFIL
 10
36.104999999999912
 20
69.199999999999932
 30
0.0
 11
35.944999999999943
 21
69.199999999999932
 31
0.0
  0
ARC
  5
CAF
  8
SAPA_PROFIL
 10
33.849999999999113
 20
34.499999999998977
 30
0.0
 40
2.750000000000778
 50
277.8247569391562
 51
0.0000000000189448
  0
ARC
  5
CB0
  8
SAPA_PROFIL
 10
36.104999999999912
 20
69.694999999999936
 30
0.0
 40
0.4949999999999585
 50
270.0
 51
359.99999999998681
  0
LINE
  5
CB1
  8
SAPA_PROFIL
 10
34.224395043236427
 20
31.775604956763921
 30
0.0
 11
33.849999999999909
 21
32.150000000000212
 31
0.0
  0
LINE
  5
CB2
  8
SAPA_PROFIL
 10
36.599999999999909
 20
70.5
 30
0.0
 11
36.599999999999909
 21
69.694999999999823
 31
0.0
  0
LINE
  5
CB3
  8
SAPA_PROFIL
 10
33.849999999999909
 20
32.150000000000212
 30
0.0
 11
33.475604956763618
 21
31.775604956765509
 31
0.0
  0
ARC
  5
CB4
  8
SAPA_PROFIL
 10
33.849999999999113
 20
70.500000000000909
 30
0.0
 40
2.750000000000778
 50
359.99999999998113
 51
82.175243060843755
  0
ARC
  5
CB5
  8
SAPA_PROFIL
 10
33.849999999999909
 20
34.499999999999893
 30
0.0
 40
2.74999999999998
 50
180.0
 51
262.1752430608629
  0
LINE
  5
CB6
  8
SAPA_PROFIL
 10
33.849999999999909
 20
72.849999999999568
 30
0.0
 11
34.224395043236427
 21
73.224395043235972
 31
0.0
  0
LINE
  5
CB7
  8
SAPA_PROFIL
 10
31.099999999999909
 20
34.499999999999893
 30
0.0
 11
31.099999999999909
 21
35.30499999999995
 31
0.0
  0
LINE
  5
CB8
  8
SAPA_PROFIL
 10
33.475604956763618
 20
73.224395043234253
 30
0.0
 11
33.849999999999909
 21
72.849999999999568
 31
0.0
  0
ARC
  5
CB9
  8
SAPA_PROFIL
 10
31.595000000000031
 20
35.30499999999995
 30
0.0
 40
0.4950000000000722
 50
90.000000000013159
 51
180.0
  0
ARC
  5
CBA
  8
SAPA_PROFIL
 10
33.849999999999909
 20
70.499999999999886
 30
0.0
 40
2.74999999999998
 50
97.824756939137032
 51
180.0
  0
LINE
  5
CBB
  8
SAPA_PROFIL
 10
31.59499999999991
 20
35.800000000000068
 30
0.0
 11
31.754999999999882
 21
35.800000000000068
 31
0.0
  0
LINE
  5
CBC
  8
SAPA_PROFIL
 10
31.099999999999909
 20
69.694999999999823
 30
0.0
 11
31.099999999999909
 21
70.499999999999886
 31
0.0
  0
ARC
  5
CBD
  8
SAPA_PROFIL
 10
31.754999999999988
 20
36.294999999999959
 30
0.0
 40
0.4949999999999477
 50
269.99999999998693
 51
0.0
  0
ARC
  5
CBE
  8
SAPA_PROFIL
 10
31.59499999999991
 20
69.694999999999936
 30
0.0
 40
0.4949999999999584
 50
180.00000000001319
 51
270.0
  0
LINE
  5
CBF
  8
SAPA_PROFIL
 10
32.249999999999893
 20
36.294999999999959
 30
0.0
 11
32.249999999999893
 21
36.30499999999995
 31
0.0
  0
LINE
  5
CC0
  8
SAPA_PROFIL
 10
31.754999999999882
 20
69.199999999999932
 30
0.0
 11
31.59499999999991
 21
69.199999999999932
 31
0.0
  0
ARC
  5
CC1
  8
SAPA_PROFIL
 10
31.754999999999988
 20
36.30499999999995
 30
0.0
 40
0.4949999999999477
 50
0.0
 51
90.000000000013102
  0
ARC
  5
CC2
  8
SAPA_PROFIL
 10
31.754999999999882
 20
68.704999999999814
 30
0.0
 40
0.4950000000000613
 50
0.0
 51
90.0
  0
LINE
  5
CC3
  8
SAPA_PROFIL
 10
31.754999999999882
 20
36.799999999999841
 30
0.0
 11
10.64999999999986
 21
36.799999999999841
 31
0.0
  0
LINE
  5
CC4
  8
SAPA_PROFIL
 10
32.249999999999893
 20
68.694999999999936
 30
0.0
 11
32.249999999999893
 21
68.704999999999814
 31
0.0
  0
LINE
  5
CC5
  8
SAPA_PROFIL
 10
10.64999999999986
 20
36.799999999999841
 30
0.0
 11
10.64999999999986
 21
68.199999999999932
 31
0.0
  0
ARC
  5
CC6
  8
SAPA_PROFIL
 10
31.754999999999988
 20
68.694999999999823
 30
0.0
 40
0.4950000000000045
 50
269.99999999998693
 51
0.0000000000131894
  0
LINE
  5
CC7
  8
SAPA_PROFIL
 10
10.64999999999986
 20
68.199999999999932
 30
0.0
 11
31.754999999999882
 21
68.199999999999932
 31
0.0
  0
ENDBLK
  5
CC9
  8
0
  0
BLOCK
  8
0
  2
*U35
 70
     1
 10
0.0
 20
0.0
 30
0.0
  3
*U35
  1

  0
LINE
  5
D10
  8
SAPA_PROFIL
 10
40.849999999999909
 20
73.999999999999886
 30
0.0
 11
40.849999999999909
 21
72.999999999999886
 31
0.0
  0
LINE
  5
D11
  8
SAPA_PROFIL
 10
40.049999999999947
 20
74.799999999999955
 30
0.0
 11
40.849999999999909
 21
73.999999999999886
 31
0.0
  0
LINE
  5
D12
  8
SAPA_PROFIL
 10
40.849999999999909
 20
72.999999999999886
 30
0.0
 11
38.349999999999909
 21
72.999999999999886
 31
0.0
  0
LINE
  5
D13
  8
SAPA_PROFIL
 10
34.369615242270577
 20
74.799999999999955
 30
0.0
 11
40.049999999999947
 21
74.799999999999955
 31
0.0
  0
LINE
  5
D14
  8
SAPA_PROFIL
 10
38.349999999999909
 20
72.999999999999886
 30
0.0
 11
38.349999999999909
 21
69.999999999999886
 31
0.0
  0
LINE
  5
D15
  8
SAPA_PROFIL
 10
33.849999999999909
 20
74.499999999999886
 30
0.0
 11
34.369615242270577
 21
74.799999999999955
 31
0.0
  0
LINE
  5
D16
  8
SAPA_PROFIL
 10
38.349999999999909
 20
69.999999999999886
 30
0.0
 11
57.049999999999947
 21
69.999999999999886
 31
0.0
  0
LINE
  5
D17
  8
SAPA_PROFIL
 10
33.330384757729227
 20
74.799999999999955
 30
0.0
 11
33.849999999999909
 21
74.499999999999886
 31
0.0
  0
LINE
  5
D18
  8
SAPA_PROFIL
 10
57.049999999999947
 20
69.999999999999886
 30
0.0
 11
57.049999999999947
 21
72.999999999999886
 31
0.0
  0
LINE
  5
D19
  8
SAPA_PROFIL
 10
27.64999999999986
 20
74.799999999999955
 30
0.0
 11
33.330384757729227
 21
74.799999999999955
 31
0.0
  0
LINE
  5
D1A
  8
SAPA_PROFIL
 10
57.049999999999947
 20
72.999999999999886
 30
0.0
 11
54.849999999999909
 21
72.999999999999886
 31
0.0
  0
LINE
  5
D1B
  8
SAPA_PROFIL
 10
26.849999999999909
 20
73.999999999999886
 30
0.0
 11
27.64999999999986
 21
74.799999999999955
 31
0.0
  0
LINE
  5
D1C
  8
SAPA_PROFIL
 10
54.849999999999909
 20
72.999999999999886
 30
0.0
 11
54.849999999999909
 21
73.999999999999886
 31
0.0
  0
LINE
  5
D1D
  8
SAPA_PROFIL
 10
26.849999999999909
 20
72.999999999999886
 30
0.0
 11
26.849999999999909
 21
73.999999999999886
 31
0.0
  0
LINE
  5
D1E
  8
SAPA_PROFIL
 10
54.849999999999909
 20
73.999999999999886
 30
0.0
 11
55.849999999999909
 21
74.999999999999886
 31
0.0
  0
LINE
  5
D1F
  8
SAPA_PROFIL
 10
29.349999999999909
 20
72.999999999999886
 30
0.0
 11
26.849999999999909
 21
72.999999999999886
 31
0.0
  0
LINE
  5
D20
  8
SAPA_PROFIL
 10
55.849999999999909
 20
74.999999999999886
 30
0.0
 11
58.849999999999902
 21
74.999999999999886
 31
0.0
  0
LINE
  5
D21
  8
SAPA_PROFIL
 10
29.349999999999909
 20
69.999999999999886
 30
0.0
 11
29.349999999999909
 21
72.999999999999886
 31
0.0
  0
LINE
  5
D22
  8
SAPA_PROFIL
 10
58.849999999999902
 20
74.999999999999886
 30
0.0
 11
58.849999999999902
 21
29.99999999999989
 31
0.0
  0
LINE
  5
D23
  8
SAPA_PROFIL
 10
10.64999999999986
 20
69.999999999999886
 30
0.0
 11
29.349999999999909
 21
69.999999999999886
 31
0.0
  0
LINE
  5
D24
  8
SAPA_PROFIL
 10
58.849999999999902
 20
29.99999999999989
 30
0.0
 11
55.849999999999909
 21
29.99999999999989
 31
0.0
  0
LINE
  5
D25
  8
SAPA_PROFIL
 10
10.64999999999986
 20
72.999999999999886
 30
0.0
 11
10.64999999999986
 21
69.999999999999886
 31
0.0
  0
LINE
  5
D26
  8
SAPA_PROFIL
 10
55.849999999999909
 20
29.99999999999989
 30
0.0
 11
54.849999999999909
 21
30.99999999999989
 31
0.0
  0
LINE
  5
D27
  8
SAPA_PROFIL
 10
12.849999999999911
 20
72.999999999999886
 30
0.0
 11
10.64999999999986
 21
72.999999999999886
 31
0.0
  0
LINE
  5
D28
  8
SAPA_PROFIL
 10
54.849999999999909
 20
30.99999999999989
 30
0.0
 11
54.849999999999909
 21
31.99999999999989
 31
0.0
  0
LINE
  5
D29
  8
SAPA_PROFIL
 10
12.849999999999911
 20
73.999999999999886
 30
0.0
 11
12.849999999999911
 21
72.999999999999886
 31
0.0
  0
LINE
  5
D2A
  8
SAPA_PROFIL
 10
54.849999999999909
 20
31.99999999999989
 30
0.0
 11
57.049999999999947
 21
31.99999999999989
 31
0.0
  0
LINE
  5
D2B
  8
SAPA_PROFIL
 10
11.849999999999911
 20
74.999999999999886
 30
0.0
 11
12.849999999999911
 21
73.999999999999886
 31
0.0
  0
LINE
  5
D2C
  8
SAPA_PROFIL
 10
57.049999999999947
 20
31.99999999999989
 30
0.0
 11
57.049999999999947
 21
34.999999999999893
 31
0.0
  0
LINE
  5
D2D
  8
SAPA_PROFIL
 10
8.8499999999999091
 20
74.999999999999886
 30
0.0
 11
11.849999999999911
 21
74.999999999999886
 31
0.0
  0
LINE
  5
D2E
  8
SAPA_PROFIL
 10
57.049999999999947
 20
34.999999999999893
 30
0.0
 11
38.349999999999909
 21
34.999999999999893
 31
0.0
  0
LINE
  5
D2F
  8
SAPA_PROFIL
 10
8.8499999999999091
 20
29.99999999999989
 30
0.0
 11
8.8499999999999091
 21
74.999999999999886
 31
0.0
  0
LINE
  5
D30
  8
SAPA_PROFIL
 10
38.349999999999909
 20
34.999999999999893
 30
0.0
 11
38.349999999999909
 21
31.99999999999989
 31
0.0
  0
LINE
  5
D31
  8
SAPA_PROFIL
 10
11.849999999999911
 20
29.99999999999989
 30
0.0
 11
8.8499999999999091
 21
29.99999999999989
 31
0.0
  0
LINE
  5
D32
  8
SAPA_PROFIL
 10
38.349999999999909
 20
31.99999999999989
 30
0.0
 11
40.849999999999909
 21
31.99999999999989
 31
0.0
  0
LINE
  5
D33
  8
SAPA_PROFIL
 10
12.849999999999911
 20
30.99999999999989
 30
0.0
 11
11.849999999999911
 21
29.99999999999989
 31
0.0
  0
LINE
  5
D34
  8
SAPA_PROFIL
 10
40.849999999999909
 20
31.99999999999989
 30
0.0
 11
40.849999999999909
 21
30.99999999999989
 31
0.0
  0
LINE
  5
D35
  8
SAPA_PROFIL
 10
12.849999999999911
 20
31.99999999999989
 30
0.0
 11
12.849999999999911
 21
30.99999999999989
 31
0.0
  0
LINE
  5
D36
  8
SAPA_PROFIL
 10
40.849999999999909
 20
30.99999999999989
 30
0.0
 11
40.049999999999947
 21
30.199999999999928
 31
0.0
  0
LINE
  5
D37
  8
SAPA_PROFIL
 10
10.64999999999986
 20
31.99999999999989
 30
0.0
 11
12.849999999999911
 21
31.99999999999989
 31
0.0
  0
LINE
  5
D38
  8
SAPA_PROFIL
 10
40.049999999999947
 20
30.199999999999928
 30
0.0
 11
34.369615242270577
 21
30.199999999999928
 31
0.0
  0
LINE
  5
D39
  8
SAPA_PROFIL
 10
10.64999999999986
 20
34.999999999999893
 30
0.0
 11
10.64999999999986
 21
31.99999999999989
 31
0.0
  0
LINE
  5
D3A
  8
SAPA_PROFIL
 10
34.369615242270577
 20
30.199999999999928
 30
0.0
 11
33.849999999999909
 21
30.49999999999989
 31
0.0
  0
LINE
  5
D3B
  8
SAPA_PROFIL
 10
29.349999999999909
 20
34.999999999999893
 30
0.0
 11
10.64999999999986
 21
34.999999999999893
 31
0.0
  0
LINE
  5
D3C
  8
SAPA_PROFIL
 10
33.849999999999909
 20
30.49999999999989
 30
0.0
 11
33.330384757729227
 21
30.199999999999928
 31
0.0
  0
LINE
  5
D3D
  8
SAPA_PROFIL
 10
29.349999999999909
 20
31.99999999999989
 30
0.0
 11
29.349999999999909
 21
34.999999999999893
 31
0.0
  0
LINE
  5
D3E
  8
SAPA_PROFIL
 10
33.330384757729227
 20
30.199999999999928
 30
0.0
 11
27.64999999999986
 21
30.199999999999928
 31
0.0
  0
LINE
  5
D3F
  8
SAPA_PROFIL
 10
26.849999999999909
 20
31.99999999999989
 30
0.0
 11
29.349999999999909
 21
31.99999999999989
 31
0.0
  0
LINE
  5
D40
  8
SAPA_PROFIL
 10
27.64999999999986
 20
30.199999999999928
 30
0.0
 11
26.849999999999909
 21
30.99999999999989
 31
0.0
  0
LINE
  5
D41
  8
SAPA_PROFIL
 10
26.849999999999909
 20
30.99999999999989
 30
0.0
 11
26.849999999999909
 21
31.99999999999989
 31
0.0
  0
LINE
  5
D42
  8
SAPA_PROFIL
 10
57.049999999999947
 20
36.799999999999841
 30
0.0
 11
35.944999999999943
 21
36.799999999999841
 31
0.0
  0
ARC
  5
D43
  8
SAPA_PROFIL
 10
35.944999999999823
 20
36.30499999999995
 30
0.0
 40
0.4949999999999477
 50
89.999999999986827
 51
180.0
  0
LINE
  5
D44
  8
SAPA_PROFIL
 10
57.049999999999947
 20
68.199999999999932
 30
0.0
 11
57.049999999999947
 21
36.799999999999841
 31
0.0
  0
LINE
  5
D45
  8
SAPA_PROFIL
 10
35.449999999999932
 20
36.30499999999995
 30
0.0
 11
35.449999999999932
 21
36.294999999999959
 31
0.0
  0
LINE
  5
D46
  8
SAPA_PROFIL
 10
35.944999999999943
 20
68.199999999999932
 30
0.0
 11
57.049999999999947
 21
68.199999999999932
 31
0.0
  0
ARC
  5
D47
  8
SAPA_PROFIL
 10
35.944999999999823
 20
36.294999999999959
 30
0.0
 40
0.4949999999999477
 50
180.0
 51
270.00000000001307
  0
ARC
  5
D48
  8
SAPA_PROFIL
 10
35.944999999999823
 20
68.694999999999823
 30
0.0
 40
0.4950000000000045
 50
179.99999999998681
 51
270.00000000001307
  0
LINE
  5
D49
  8
SAPA_PROFIL
 10
35.944999999999943
 20
35.800000000000068
 30
0.0
 11
36.104999999999912
 21
35.799999999999962
 31
0.0
  0
LINE
  5
D4A
  8
SAPA_PROFIL
 10
35.449999999999932
 20
68.704999999999814
 30
0.0
 11
35.449999999999932
 21
68.694999999999936
 31
0.0
  0
ARC
  5
D4B
  8
SAPA_PROFIL
 10
36.104999999999791
 20
35.304999999999843
 30
0.0
 40
0.4950000000000152
 50
0.0000000000131548
 51
89.999999999986812
  0
ARC
  5
D4C
  8
SAPA_PROFIL
 10
35.944999999999943
 20
68.704999999999814
 30
0.0
 40
0.4950000000000616
 50
90.0
 51
180.0
  0
LINE
  5
D4D
  8
SAPA_PROFIL
 10
36.599999999999909
 20
35.30499999999995
 30
0.0
 11
36.599999999999909
 21
34.499999999999893
 31
0.0
  0
LINE
  5
D4E
  8
SAPA_PROFIL
 10
36.104999999999912
 20
69.199999999999932
 30
0.0
 11
35.944999999999943
 21
69.199999999999932
 31
0.0
  0
ARC
  5
D4F
  8
SAPA_PROFIL
 10
33.849999999999113
 20
34.499999999998977
 30
0.0
 40
2.750000000000778
 50
277.8247569391562
 51
0.0000000000189448
  0
ARC
  5
D50
  8
SAPA_PROFIL
 10
36.104999999999912
 20
69.694999999999936
 30
0.0
 40
0.4949999999999585
 50
270.0
 51
359.99999999998681
  0
LINE
  5
D51
  8
SAPA_PROFIL
 10
34.224395043236427
 20
31.775604956763921
 30
0.0
 11
33.849999999999909
 21
32.150000000000212
 31
0.0
  0
LINE
  5
D52
  8
SAPA_PROFIL
 10
36.599999999999909
 20
70.5
 30
0.0
 11
36.599999999999909
 21
69.694999999999823
 31
0.0
  0
LINE
  5
D53
  8
SAPA_PROFIL
 10
33.849999999999909
 20
32.150000000000212
 30
0.0
 11
33.475604956763618
 21
31.775604956765509
 31
0.0
  0
ARC
  5
D54
  8
SAPA_PROFIL
 10
33.849999999999113
 20
70.500000000000909
 30
0.0
 40
2.750000000000778
 50
359.99999999998113
 51
82.175243060843755
  0
ARC
  5
D55
  8
SAPA_PROFIL
 10
33.849999999999909
 20
34.499999999999893
 30
0.0
 40
2.74999999999998
 50
180.0
 51
262.1752430608629
  0
LINE
  5
D56
  8
SAPA_PROFIL
 10
33.849999999999909
 20
72.849999999999568
 30
0.0
 11
34.224395043236427
 21
73.224395043235972
 31
0.0
  0
LINE
  5
D57
  8
SAPA_PROFIL
 10
31.099999999999909
 20
34.499999999999893
 30
0.0
 11
31.099999999999909
 21
35.30499999999995
 31
0.0
  0
LINE
  5
D58
  8
SAPA_PROFIL
 10
33.475604956763618
 20
73.224395043234253
 30
0.0
 11
33.849999999999909
 21
72.849999999999568
 31
0.0
  0
ARC
  5
D59
  8
SAPA_PROFIL
 10
31.595000000000031
 20
35.30499999999995
 30
0.0
 40
0.4950000000000722
 50
90.000000000013159
 51
180.0
  0
ARC
  5
D5A
  8
SAPA_PROFIL
 10
33.849999999999909
 20
70.499999999999886
 30
0.0
 40
2.74999999999998
 50
97.824756939137032
 51
180.0
  0
LINE
  5
D5B
  8
SAPA_PROFIL
 10
31.59499999999991
 20
35.800000000000068
 30
0.0
 11
31.754999999999882
 21
35.800000000000068
 31
0.0
  0
LINE
  5
D5C
  8
SAPA_PROFIL
 10
31.099999999999909
 20
69.694999999999823
 30
0.0
 11
31.099999999999909
 21
70.499999999999886
 31
0.0
  0
ARC
  5
D5D
  8
SAPA_PROFIL
 10
31.754999999999988
 20
36.294999999999959
 30
0.0
 40
0.4949999999999477
 50
269.99999999998693
 51
0.0
  0
ARC
  5
D5E
  8
SAPA_PROFIL
 10
31.59499999999991
 20
69.694999999999936
 30
0.0
 40
0.4949999999999584
 50
180.00000000001319
 51
270.0
  0
LINE
  5
D5F
  8
SAPA_PROFIL
 10
32.249999999999893
 20
36.294999999999959
 30
0.0
 11
32.249999999999893
 21
36.30499999999995
 31
0.0
  0
LINE
  5
D60
  8
SAPA_PROFIL
 10
31.754999999999882
 20
69.199999999999932
 30
0.0
 11
31.59499999999991
 21
69.199999999999932
 31
0.0
  0
ARC
  5
D61
  8
SAPA_PROFIL
 10
31.754999999999988
 20
36.30499999999995
 30
0.0
 40
0.4949999999999477
 50
0.0
 51
90.000000000013102
  0
ARC
  5
D62
  8
SAPA_PROFIL
 10
31.754999999999882
 20
68.704999999999814
 30
0.0
 40
0.4950000000000613
 50
0.0
 51
90.0
  0
LINE
  5
D63
  8
SAPA_PROFIL
 10
31.754999999999882
 20
36.799999999999841
 30
0.0
 11
10.64999999999986
 21
36.799999999999841
 31
0.0
  0
LINE
  5
D64
  8
SAPA_PROFIL
 10
32.249999999999893
 20
68.694999999999936
 30
0.0
 11
32.249999999999893
 21
68.704999999999814
 31
0.0
  0
LINE
  5
D65
  8
SAPA_PROFIL
 10
10.64999999999986
 20
36.799999999999841
 30
0.0
 11
10.64999999999986
 21
68.199999999999932
 31
0.0
  0
ARC
  5
D66
  8
SAPA_PROFIL
 10
31.754999999999988
 20
68.694999999999823
 30
0.0
 40
0.4950000000000045
 50
269.99999999998693
 51
0.0000000000131894
  0
LINE
  5
D67
  8
SAPA_PROFIL
 10
10.64999999999986
 20
68.199999999999932
 30
0.0
 11
31.754999999999882
 21
68.199999999999932
 31
0.0
  0
ENDBLK
  5
D69
  8
0
  0
ENDSEC
  0
SECTION
  2
ENTITIES
  0
LINE
  5
609
  8
SAPA_ANSLUTNING
 62
     7
 10
78.212643253562192
 20
94.999999999999943
 30
0.0
 11
-9.4873567464377331
 21
94.999999999999957
 31
0.0
  0
INSERT
  5
8EC
  8
SAPA_ANSLUTNING
  6
CONTINUOUS
 62
     7
  2
*X22
 10
0.0
 20
0.0
 30
0.0
1001
ACAD
1000
HATCH
1002
{
1070
    19
1000
ANSI31
1040
1.0
1040
-1.5707963267948959
1000
R14_HATCH_DATA
1000
8EC
1011
1.0
1021
0.0
1031
0.0
1021
0.0
1031
0.0
1011
0.0
1021
0.0
1031
0.0
1021
1.0
1031
0.0
1011
0.0
1021
0.0
1031
0.0
1021
0.0
1031
1.0
1040
0.0
1010
0.0
1020
0.0
1030
1.0
1000
ANSI31
1070
     0
1070
     0
1071
        1
1071
        7
1070
     0
1070
     1
1071
        4
1040
78.212643253562192
1040
94.999999999999957
1040
78.212643253562192
1040
133.2315292916004
1040
-9.3114600223025548
1040
133.2315292916004
1040
-9.3114600223025619
1040
94.999999999999957
1071
        0
1070
     0
1070
     1
1040
-1.5707963267948959
1040
1.0
1070
     0
1070
     1
1040
5.4977871437821371
1040
-9.397324782902416
1040
133.34476425599689
1040
2.245064030267288
1040
2.2450640302672871
1070
     0
1040
0.243525469902168
1071
        1
1040
33.30549738485287
1040
107.1623156837971
1040
0.0
1002
}
  0
POLYLINE
  5
942
  8
SAPA_ANSLUTNING
 66
     1
 10
0.0
 20
0.0
 30
0.0
  0
VERTEX
  5
AEC
  8
SAPA_ANSLUTNING
 10
11.403156940852719
 20
75.000000000000028
 30
0.0
  0
VERTEX
  5
AED
  8
SAPA_ANSLUTNING
 10
11.40315694085248
 20
90.000000000001023
 30
0.0
 42
-0.9999989466455055
  0
VERTEX
  5
AEE
  8
SAPA_ANSLUTNING
 10
15.403156940848159
 20
90.000004213421221
 30
0.0
  0
VERTEX
  5
AEF
  8
SAPA_ANSLUTNING
 10
15.403156940848159
 20
72.101273374753234
 30
0.0
 42
0.9999999999999998
  0
VERTEX
  5
AF0
  8
SAPA_ANSLUTNING
 10
19.403156940848159
 20
72.101273374753234
 30
0.0
  0
VERTEX
  5
AF1
  8
SAPA_ANSLUTNING
 10
19.403156940848049
 20
90.000005002885885
 30
0.0
 42
-0.9999974985601646
  0
VERTEX
  5
AF2
  8
SAPA_ANSLUTNING
 10
23.40315694083554
 20
90.000005002885885
 30
0.0
  0
VERTEX
  5
AF3
  8
SAPA_ANSLUTNING
 10
23.403156940835458
 20
72.000000000000043
 30
0.0
 42
0.9999999999999998
  0
VERTEX
  5
AF4
  8
SAPA_ANSLUTNING
 10
27.403156940835501
 20
72.000000000000043
 30
0.0
  0
VERTEX
  5
AF5
  8
SAPA_ANSLUTNING
 10
27.403156940835501
 20
73.000000000000014
 30
0.0
  0
SEQEND
  5
AF6
  8
SAPA_ANSLUTNING
  0
POLYLINE
  5
943
  8
SAPA_ANSLUTNING
 66
     1
 10
0.0
 20
0.0
 30
0.0
  0
VERTEX
  5
AF7
  8
SAPA_ANSLUTNING
 10
27.403156940835501
 20
74.553156940835649
 30
0.0
  0
VERTEX
  5
AF8
  8
SAPA_ANSLUTNING
 10
27.40315694083543
 20
90.006552347438117
 30
0.0
 42
-0.9999989466455052
  0
VERTEX
  5
AF9
  8
SAPA_ANSLUTNING
 10
31.403156940831099
 20
90.006548134017919
 30
0.0
  0
VERTEX
  5
AFA
  8
SAPA_ANSLUTNING
 10
31.403156940830868
 20
76.715281983936435
 30
0.0
 42
0.9999999999999998
  0
VERTEX
  5
AFB
  8
SAPA_ANSLUTNING
 10
35.403156940830868
 20
76.715281983936435
 30
0.0
  0
VERTEX
  5
AFC
  8
SAPA_ANSLUTNING
 10
35.403156940830641
 20
93.050052736249484
 30
0.0
 42
-0.9999989466455055
  0
VERTEX
  5
AFD
  8
SAPA_ANSLUTNING
 10
39.403156940826321
 20
93.050056949669681
 30
0.0
  0
VERTEX
  5
AFE
  8
SAPA_ANSLUTNING
 10
39.403156940826321
 20
74.799999999999983
 30
0.0
  0
SEQEND
  5
AFF
  8
SAPA_ANSLUTNING
  0
POLYLINE
  5
944
  8
SAPA_ANSLUTNING
 66
     1
 10
0.0
 20
0.0
 30
0.0
  0
VERTEX
  5
B00
  8
SAPA_ANSLUTNING
 10
39.403156940826321
 20
73.000000000000028
 30
0.0
  0
VERTEX
  5
B01
  8
SAPA_ANSLUTNING
 10
39.403156940826321
 20
72.043752209991965
 30
0.0
 42
0.9999999999999998
  0
VERTEX
  5
B02
  8
SAPA_ANSLUTNING
 10
43.403156940826321
 20
72.043752209991965
 30
0.0
  0
VERTEX
  5
B03
  8
SAPA_ANSLUTNING
 10
43.403156940826207
 20
93.050059581447897
 30
0.0
 42
-0.9999974985601646
  0
VERTEX
  5
B04
  8
SAPA_ANSLUTNING
 10
47.403156940813687
 20
93.050059581447897
 30
0.0
  0
VERTEX
  5
B05
  8
SAPA_ANSLUTNING
 10
47.403156940813638
 20
72.000000000000014
 30
0.0
 42
0.9999999999999998
  0
VERTEX
  5
B06
  8
SAPA_ANSLUTNING
 10
51.403156940813673
 20
72.000000000000014
 30
0.0
  0
VERTEX
  5
B07
  8
SAPA_ANSLUTNING
 10
51.403156940813581
 20
93.050056949669681
 30
0.0
 42
-0.9999989466455052
  0
VERTEX
  5
B08
  8
SAPA_ANSLUTNING
 10
55.403156940809268
 20
93.050052736249484
 30
0.0
  0
VERTEX
  5
B09
  8
SAPA_ANSLUTNING
 10
55.403156940809041
 20
76.715281983936435
 30
0.0
 42
0.2635240997481427
  0
VERTEX
  5
B0A
  8
SAPA_ANSLUTNING
 10
56.37465914519499
 20
74.999999999999957
 30
0.0
  0
SEQEND
  5
B0B
  8
SAPA_ANSLUTNING
  0
POLYLINE
  5
945
  8
SAPA_ANSLUTNING
 62
     7
 66
     1
 10
0.0
 20
0.0
 30
0.0
 70
     1
  0
VERTEX
  5
B0C
  8
SAPA_ANSLUTNING
 62
     7
 10
84.333796388980716
 20
91.999999999999972
 30
0.0
  0
VERTEX
  5
B0D
  8
SAPA_ANSLUTNING
 62
     7
 10
62.33379638898073
 20
91.999999999999972
 30
0.0
  0
VERTEX
  5
B0E
  8
SAPA_ANSLUTNING
 62
     7
 10
62.33379638898073
 20
54.999999999999922
 30
0.0
  0
VERTEX
  5
B0F
  8
SAPA_ANSLUTNING
 62
     7
 10
59.33379638898073
 20
54.999999999999922
 30
0.0
  0
VERTEX
  5
B10
  8
SAPA_ANSLUTNING
 62
     7
 10
59.33379638898073
 20
94.999999999999986
 30
0.0
  0
VERTEX
  5
B11
  8
SAPA_ANSLUTNING
 62
     7
 10
84.333796388980716
 20
94.999999999999986
 30
0.0
  0
SEQEND
  5
B12
  8
SAPA_ANSLUTNING
 62
     7
  0
POLYLINE
  5
946
  8
SAPA_ANSLUTNING
 62
     7
 66
     1
 10
0.0
 20
0.0
 30
0.0
 70
     1
  0
VERTEX
  5
B13
  8
SAPA_ANSLUTNING
 62
     7
 10
30.48586594423973
 20
91.999999999999972
 30
0.0
  0
VERTEX
  5
B14
  8
SAPA_ANSLUTNING
 62
     7
 10
8.4858659442397322
 20
91.999999999999972
 30
0.0
  0
VERTEX
  5
B15
  8
SAPA_ANSLUTNING
 62
     7
 10
8.4858659442397322
 20
54.999999999999922
 30
0.0
  0
VERTEX
  5
B16
  8
SAPA_ANSLUTNING
 62
     7
 10
5.4858659442397331
 20
54.999999999999922
 30
0.0
  0
VERTEX
  5
B17
  8
SAPA_ANSLUTNING
 62
     7
 10
5.4858659442397331
 20
94.999999999999986
 30
0.0
  0
VERTEX
  5
B18
  8
SAPA_ANSLUTNING
 62
     7
 10
30.48586594423973
 20
94.999999999999986
 30
0.0
  0
SEQEND
  5
B19
  8
SAPA_ANSLUTNING
 62
     7
  0
INSERT
  5
AB9
  8
0
  2
*U35
 10
0.0
 20
0.0
 30
0.0
  0
POLYLINE
  5
ABA
  8
SAPA_PROFIL
 66
     1
 10
0.0
 20
0.0
 30
0.0
 70
     1
  0
VERTEX
  5
D6A
  8
SAPA_PROFIL
 10
20.68096053635875
 20
18.001264525035449
 30
0.0
 42
0.4557262555325856
  0
VERTEX
  5
D6B
  8
SAPA_PROFIL
 10
21.250546567199819
 20
18.49639810769105
 30
0.0
  0
VERTEX
  5
D6C
  8
SAPA_PROFIL
 10
21.250546567199819
 20
20.003142000000029
 30
0.0
  0
VERTEX
  5
D6D
  8
SAPA_PROFIL
 10
22.750546567199819
 20
20.003142000000029
 30
0.0
  0
VERTEX
  5
D6E
  8
SAPA_PROFIL
 10
22.750546567199819
 20
21.003142000000029
 30
0.0
  0
VERTEX
  5
D6F
  8
SAPA_PROFIL
 10
32.983015163415502
 20
21.003142000000029
 30
0.0
  0
VERTEX
  5
D70
  8
SAPA_PROFIL
 10
33.849040567199921
 20
21.503142000000029
 30
0.0
  0
VERTEX
  5
D71
  8
SAPA_PROFIL
 10
34.715065970984291
 20
21.003142000000029
 30
0.0
  0
VERTEX
  5
D72
  8
SAPA_PROFIL
 10
44.947534567200002
 20
21.003142000000029
 30
0.0
  0
VERTEX
  5
D73
  8
SAPA_PROFIL
 10
44.947534567200002
 20
20.003142000000029
 30
0.0
  0
VERTEX
  5
D74
  8
SAPA_PROFIL
 10
46.447534567200023
 20
20.003142000000029
 30
0.0
  0
VERTEX
  5
D75
  8
SAPA_PROFIL
 10
46.447534567200023
 20
18.003142000000022
 30
0.0
  0
VERTEX
  5
D76
  8
SAPA_PROFIL
 10
52.281482513027022
 20
16.97445957310202
 30
0.0
 42
0.4142135623730531
  0
VERTEX
  5
D77
  8
SAPA_PROFIL
 10
52.860710478366492
 20
17.38003936077461
 30
0.0
  0
VERTEX
  5
D78
  8
SAPA_PROFIL
 10
52.947534567200023
 20
17.87244323728072
 30
0.0
  0
VERTEX
  5
D79
  8
SAPA_PROFIL
 10
52.258169140091383
 20
17.9939969616475
 30
0.0
 42
-0.6705660098148247
  0
VERTEX
  5
D7A
  8
SAPA_PROFIL
 10
52.139815006213077
 20
18.53631431490092
 30
0.0
  0
VERTEX
  5
D7B
  8
SAPA_PROFIL
 10
54.526663415023961
 20
20.184253126122091
 30
0.0
 42
-0.4103557430781616
  0
VERTEX
  5
D7C
  8
SAPA_PROFIL
 10
55.208747650189409
 20
20.063983272346519
 30
0.0
  0
VERTEX
  5
D7D
  8
SAPA_PROFIL
 10
56.888023218477727
 20
17.699077097057049
 30
0.0
 42
-0.6705660098148535
  0
VERTEX
  5
D7E
  8
SAPA_PROFIL
 10
56.591323253345081
 20
17.229944979913139
 30
0.0
  0
VERTEX
  5
D7F
  8
SAPA_PROFIL
 10
55.901957826236583
 20
17.351498704279951
 30
0.0
  0
VERTEX
  5
D80
  8
SAPA_PROFIL
 10
55.815133737403109
 20
16.859094827773841
 30
0.0
 42
0.4142135623731039
  0
VERTEX
  5
D81
  8
SAPA_PROFIL
 10
56.220713525075759
 20
16.279866862434339
 30
0.0
  0
VERTEX
  5
D82
  8
SAPA_PROFIL
 10
56.656404583385708
 20
16.203042773600799
 30
0.0
  0
VERTEX
  5
D83
  8
SAPA_PROFIL
 10
58.242888562344852
 20
16.20571336131658
 30
0.0
 42
-0.4147066859862996
  0
VERTEX
  5
D84
  8
SAPA_PROFIL
 10
61.24793856719991
 20
13.205717611744429
 30
0.0
  0
VERTEX
  5
D85
  8
SAPA_PROFIL
 10
61.24793856719991
 20
5.4990890000000263
 30
0.0
 42
0.6638253569871671
  0
VERTEX
  5
D86
  8
SAPA_PROFIL
 10
62.127124760134492
 20
5.1411151930129222
 30
0.0
  0
VERTEX
  5
D87
  8
SAPA_PROFIL
 10
64.106162957793217
 20
7.1201533906715042
 30
0.0
 42
0.1989123673796449
  0
VERTEX
  5
D88
  8
SAPA_PROFIL
 10
64.252609567199883
 20
7.4737067812648093
 30
0.0
  0
VERTEX
  5
D89
  8
SAPA_PROFIL
 10
64.252609567199883
 20
19.291981755664999
 30
0.0
 42
0.1989123673796422
  0
VERTEX
  5
D8A
  8
SAPA_PROFIL
 10
64.106162957793188
 20
19.645535146258279
 30
0.0
  0
VERTEX
  5
D8B
  8
SAPA_PROFIL
 10
58.745416176606611
 20
25.006281927444832
 30
0.0
 42
-0.1989123673796659
  0
VERTEX
  5
D8C
  8
SAPA_PROFIL
 10
58.598969567199887
 20
25.359835318038112
 30
0.0
  0
VERTEX
  5
D8D
  8
SAPA_PROFIL
 10
58.598969567199887
 20
30.0
 30
0.0
  0
VERTEX
  5
D8E
  8
SAPA_PROFIL
 10
55.348969567199887
 20
30.0
 30
0.0
  0
VERTEX
  5
D8F
  8
SAPA_PROFIL
 10
53.84896956719988
 20
31.5
 30
0.0
  0
VERTEX
  5
D90
  8
SAPA_PROFIL
 10
52.348969567199887
 20
30.0
 30
0.0
  0
VERTEX
  5
D91
  8
SAPA_PROFIL
 10
48.750000567199891
 20
30.0
 30
0.0
 42
-0.4142140000000165
  0
VERTEX
  5
D92
  8
SAPA_PROFIL
 10
48.250000567199891
 20
30.5
 30
0.0
  0
VERTEX
  5
D93
  8
SAPA_PROFIL
 10
48.250000567199891
 20
32.003141999999997
 30
0.0
 42
0.4142140000000145
  0
VERTEX
  5
D94
  8
SAPA_PROFIL
 10
47.250000567199891
 20
33.003142000000018
 30
0.0
  0
VERTEX
  5
D95
  8
SAPA_PROFIL
 10
46.250000567199862
 20
33.003141999999997
 30
0.0
  0
VERTEX
  5
D96
  8
SAPA_PROFIL
 10
44.305005143511487
 20
25.74432286807744
 30
0.0
 42
-0.3394542338034085
  0
VERTEX
  5
D97
  8
SAPA_PROFIL
 10
43.339079340485767
 20
25.003142000000029
 30
0.0
  0
VERTEX
  5
D98
  8
SAPA_PROFIL
 10
24.360920659514189
 20
25.003142000000029
 30
0.0
 42
-0.3394542744563553
  0
VERTEX
  5
D99
  8
SAPA_PROFIL
 10
23.394994818749979
 20
25.744323008919249
 30
0.0
  0
VERTEX
  5
D9A
  8
SAPA_PROFIL
 10
21.450000567199819
 20
33.003142000000018
 30
0.0
  0
VERTEX
  5
D9B
  8
SAPA_PROFIL
 10
20.450000567199819
 20
33.003142000000018
 30
0.0
 42
0.4142139999999982
  0
VERTEX
  5
D9C
  8
SAPA_PROFIL
 10
19.450000567199929
 20
32.003142000000032
 30
0.0
  0
VERTEX
  5
D9D
  8
SAPA_PROFIL
 10
19.450000567199819
 20
30.51273600000005
 30
0.0
 42
-0.4142140000000124
  0
VERTEX
  5
D9E
  8
SAPA_PROFIL
 10
18.950000567199851
 20
30.01273600000005
 30
0.0
  0
VERTEX
  5
D9F
  8
SAPA_PROFIL
 10
15.35000056719991
 20
30.01273600000005
 30
0.0
  0
VERTEX
  5
DA0
  8
SAPA_PROFIL
 10
13.85000056719991
 20
31.51273600000005
 30
0.0
  0
VERTEX
  5
DA1
  8
SAPA_PROFIL
 10
12.35000056719991
 20
30.01273600000005
 30
0.0
  0
VERTEX
  5
DA2
  8
SAPA_PROFIL
 10
9.1000005671998565
 20
30.01273600000005
 30
0.0
  0
VERTEX
  5
DA3
  8
SAPA_PROFIL
 10
9.1000005671998565
 20
22.00018194300165
 30
0.0
 42
0.3780475071674513
  0
VERTEX
  5
DA4
  8
SAPA_PROFIL
 10
11.725865579716521
 20
19.02360286440469
 30
0.0
  0
VERTEX
  5
DA5
  8
SAPA_PROFIL
 10
14.61674712579506
 20
18.66023945207834
 30
0.0
 42
0.4247728136669583
  0
VERTEX
  5
DA6
  8
SAPA_PROFIL
 10
15.750546567199869
 20
19.546983000000012
 30
0.0
  0
VERTEX
  5
DA7
  8
SAPA_PROFIL
 10
14.500546567199819
 20
19.546983000000012
 30
0.0
  0
VERTEX
  5
DA8
  8
SAPA_PROFIL
 10
14.500546567199819
 20
20.646983000000031
 30
0.0
  0
VERTEX
  5
DA9
  8
SAPA_PROFIL
 10
19.70054656719989
 20
20.646983000000031
 30
0.0
  0
VERTEX
  5
DAA
  8
SAPA_PROFIL
 10
19.70054656719989
 20
19.546983000000012
 30
0.0
  0
VERTEX
  5
DAB
  8
SAPA_PROFIL
 10
18.45054656719989
 20
19.546983000000012
 30
0.0
  0
VERTEX
  5
DAC
  8
SAPA_PROFIL
 10
18.45054656719989
 20
19.173460856647239
 30
0.0
 42
0.3760477967976817
  0
VERTEX
  5
DAD
  8
SAPA_PROFIL
 10
19.31888946673925
 20
18.182165538440639
 30
0.0
  0
SEQEND
  5
DAE
  8
SAPA_PROFIL
  0
ENDSEC
  0
EOF
