  0
SECTION
  2
HEADER
  9
$ACADVER
  1
AC1009
  9
$INSBASE
 10
87.250141474393345
 20
464.4985451671987
 30
0.0
  9
$EXTMIN
 10
16.002538975514849
 20
-3.7664451474969449
 30
-0.0000000048844204
  9
$EXTMAX
 10
369.70472811031777
 20
187.06864135985279
 30
0.0
  9
$LIMMIN
 10
0.0
 20
0.0
  9
$LIMMAX
 10
790.0
 20
790.0
  9
$ORTHOMODE
 70
     0
  9
$REGENMODE
 70
     1
  9
$FILLMODE
 70
     1
  9
$QTEXTMODE
 70
     0
  9
$MIRRTEXT
 70
     0
  9
$DRAGMODE
 70
     2
  9
$LTSCALE
 40
2.5
  9
$OSMODE
 70
   167
  9
$ATTMODE
 70
     1
  9
$TEXTSIZE
 40
5.0
  9
$TRACEWID
 40
0.05
  9
$TEXTSTYLE
  7
ISO
  9
$CLAYER
  8
0
  9
$CELTYPE
  6
BYLAYER
  9
$CECOLOR
 62
   256
  9
$DIMSCALE
 40
2.5
  9
$DIMASZ
 40
3.0
  9
$DIMEXO
 40
1.5
  9
$DIMDLI
 40
10.0
  9
$DIMRND
 40
0.0
  9
$DIMDLE
 40
0.0
  9
$DIMEXE
 40
1.5
  9
$DIMTP
 40
0.0
  9
$DIMTM
 40
0.0
  9
$DIMTXT
 40
3.0
  9
$DIMCEN
 40
-5.0
  9
$DIMTSZ
 40
0.0
  9
$DIMTOL
 70
     0
  9
$DIMLIM
 70
     0
  9
$DIMTIH
 70
     0
  9
$DIMTOH
 70
     0
  9
$DIMSE1
 70
     0
  9
$DIMSE2
 70
     0
  9
$DIMTAD
 70
     1
  9
$DIMZIN
 70
     8
  9
$DIMBLK
  1

  9
$DIMASO
 70
     1
  9
$DIMSHO
 70
     1
  9
$DIMPOST
  1

  9
$DIMAPOST
  1

  9
$DIMALT
 70
     0
  9
$DIMALTD
 70
     0
  9
$DIMALTF
 40
25.399999999999999
  9
$DIMLFAC
 40
1.0
  9
$DIMTOFL
 70
     1
  9
$DIMTVP
 40
0.0
  9
$DIMTIX
 70
     0
  9
$DIMSOXD
 70
     0
  9
$DIMSAH
 70
     0
  9
$DIMBLK1
  1

  9
$DIMBLK2
  1

  9
$DIMSTYLE
  2
MASKIN1
  9
$DIMCLRD
 70
   256
  9
$DIMCLRE
 70
   256
  9
$DIMCLRT
 70
   256
  9
$DIMTFAC
 40
1.0
  9
$DIMGAP
 40
1.0
  9
$LUNITS
 70
     2
  9
$LUPREC
 70
     1
  9
$SKETCHINC
 40
0.1
  9
$FILLETRAD
 40
0.0
  9
$AUNITS
 70
     0
  9
$AUPREC
 70
     0
  9
$MENU
  1
ACAD
  9
$ELEVATION
 40
0.0
  9
$PELEVATION
 40
0.0
  9
$THICKNESS
 40
0.0
  9
$LIMCHECK
 70
     0
  9
$BLIPMODE
 70
     0
  9
$CHAMFERA
 40
0.0
  9
$CHAMFERB
 40
0.0
  9
$SKPOLY
 70
     0
  9
$TDCREATE
 40
2451169.4270083099
  9
$TDUPDATE
 40
2458452.5875712498
  9
$TDINDWG
 40
1.242307037
  9
$TDUSRTIMER
 40
1.242307037
  9
$USRTIMER
 70
     1
  9
$ANGBASE
 50
0.0
  9
$ANGDIR
 70
     0
  9
$PDMODE
 70
     0
  9
$PDSIZE
 40
0.0
  9
$PLINEWID
 40
0.0
  9
$COORDS
 70
     1
  9
$SPLFRAME
 70
     0
  9
$SPLINETYPE
 70
     6
  9
$SPLINESEGS
 70
     8
  9
$ATTDIA
 70
     1
  9
$ATTREQ
 70
     1
  9
$HANDLING
 70
     1
  9
$HANDSEED
  5
1787
  9
$SURFTAB1
 70
     6
  9
$SURFTAB2
 70
     6
  9
$SURFTYPE
 70
     6
  9
$SURFU
 70
     6
  9
$SURFV
 70
     6
  9
$UCSNAME
  2

  9
$UCSORG
 10
0.0
 20
0.0
 30
0.0
  9
$UCSXDIR
 10
1.0
 20
0.0
 30
0.0
  9
$UCSYDIR
 10
0.0
 20
1.0
 30
0.0
  9
$PUCSNAME
  2

  9
$PUCSORG
 10
0.0
 20
0.0
 30
0.0
  9
$PUCSXDIR
 10
1.0
 20
0.0
 30
0.0
  9
$PUCSYDIR
 10
0.0
 20
1.0
 30
0.0
  9
$USERI1
 70
     0
  9
$USERI2
 70
     0
  9
$USERI3
 70
     0
  9
$USERI4
 70
     0
  9
$USERI5
 70
     0
  9
$USERR1
 40
0.0
  9
$USERR2
 40
0.0
  9
$USERR3
 40
0.0
  9
$USERR4
 40
0.0
  9
$USERR5
 40
0.0
  9
$WORLDVIEW
 70
     1
  9
$SHADEDGE
 70
     3
  9
$SHADEDIF
 70
    70
  9
$TILEMODE
 70
     1
  9
$MAXACTVP
 70
    16
  9
$PLIMCHECK
 70
     0
  9
$PEXTMIN
 10
1.0000000000000000E+020
 20
1.0000000000000000E+020
 30
1.0000000000000000E+020
  9
$PEXTMAX
 10
-1.0000000000000000E+020
 20
-1.0000000000000000E+020
 30
-1.0000000000000000E+020
  9
$PLIMMIN
 10
-4.23333740234375
 20
-4.2333331108093262
  9
$PLIMMAX
 10
292.69265747070312
 20
205.7399945259094
  9
$UNITMODE
 70
     0
  9
$VISRETAIN
 70
     1
  9
$PLINEGEN
 70
     0
  9
$PSLTSCALE
 70
     1
  0
ENDSEC
  0
SECTION
  2
TABLES
  0
TABLE
  2
VPORT
 70
     1
  0
VPORT
  2
*ACTIVE
 70
     0
 10
0.0
 20
0.0
 11
1.0
 21
1.0
 12
365.48521964807651
 22
157.10903156237299
 13
0.0
 23
0.0
 14
1.0
 24
1.0
 15
0.0
 25
0.0
 16
0.0
 26
0.0
 36
1.0
 17
0.0
 27
0.0
 37
0.0
 40
254.4095130715809
 41
1.7265193370165739
 42
50.0
 43
0.0
 44
0.0
 50
0.0
 51
0.0
 71
     0
 72
   100
 73
     1
 74
     0
 75
     0
 76
     0
 77
     0
 78
     0
  0
ENDTAB
  0
TABLE
  2
LTYPE
 70
    16
  0
LTYPE
  2
CONTINUOUS
 70
     0
  3
Solid line
 72
    65
 73
     0
 40
0.0
  0
LTYPE
  2
BYGG-014410$0$NEWDOT
 70
     0
  3
____ . ____ . ____ . ____ . ____ . ____ . ____
 72
    65
 73
     4
 40
2.0
 49
1.0
 49
-0.5
 49
0.0
 49
-0.5
  0
LTYPE
  2
BYGG-014410$0$ZIGZAG
 70
     0
  3
Zig zag /\/\/\/\/\/\/\/\/\/\/\/\/\/\/\/\/\/\/\/\/\/\/\/
 72
    65
 73
     4
 40
20.32254
 49
0.00254
 49
-5.0800000000000001
 49
-10.16
 49
-5.0800000000000001
  0
LTYPE
  2
BYGG-038291$0$NEWDOT
 70
     0
  3
____ . ____ . ____ . ____ . ____ . ____ . ____
 72
    65
 73
     4
 40
2.0
 49
1.0
 49
-0.5
 49
0.0
 49
-0.5
  0
LTYPE
  2
BYGG-038291$0$DASHDOT
 70
     0
  3
__ . __ . __ . __ . __ . __ . __ . __ . __ . __
 72
    65
 73
     4
 40
1.0
 49
0.5
 49
-0.25
 49
0.0
 49
-0.25
  0
LTYPE
  2
BYGG-038291$0$DASHED
 70
     0
  3
__ __ __ __ __ __ __ __ __ __ __ __ __ __ __
 72
    65
 73
     2
 40
0.75
 49
0.5
 49
-0.25
  0
LTYPE
  2
BYGG-038291$0$PHANTOM
 70
     0
  3
Phantom ______  __  __  ______  __  __  ______
 72
    65
 73
     6
 40
63.5
 49
31.75
 49
-6.3499999999999988
 49
6.3499999999999988
 49
-6.3499999999999988
 49
6.3499999999999988
 49
-6.3499999999999988
  0
LTYPE
  2
BYGG-030283$0$NEWDOT
 70
     0
  3
____ . ____ . ____ . ____ . ____ . ____ . ____
 72
    65
 73
     4
 40
2.0
 49
1.0
 49
-0.5
 49
0.0
 49
-0.5
  0
LTYPE
  2
BYGG-030283$0$DASHDOT
 70
     0
  3
__ . __ . __ . __ . __ . __ . __ . __ . __ . __
 72
    65
 73
     4
 40
1.0
 49
0.5
 49
-0.25
 49
0.0
 49
-0.25
  0
LTYPE
  2
BYGG-030283$0$DASHED
 70
     0
  3
__ __ __ __ __ __ __ __ __ __ __ __ __ __ __
 72
    65
 73
     2
 40
0.75
 49
0.5
 49
-0.25
  0
LTYPE
  2
BYGG-030283$0$PHANTOM
 70
     0
  3
Phantom ______  __  __  ______  __  __  ______
 72
    65
 73
     6
 40
63.5
 49
31.75
 49
-6.3499999999999988
 49
6.3499999999999988
 49
-6.3499999999999988
 49
6.3499999999999988
 49
-6.3499999999999988
  0
LTYPE
  2
BYGG-024817$0$NEWDOT
 70
     0
  3
____ . ____ . ____ . ____ . ____ . ____ . ____
 72
    65
 73
     4
 40
2.0
 49
1.0
 49
-0.5
 49
0.0
 49
-0.5
  0
LTYPE
  2
BYGG-024794$0$NEWDOT
 70
     0
  3
____ . ____ . ____ . ____ . ____ . ____ . ____
 72
    65
 73
     4
 40
2.0
 49
1.0
 49
-0.5
 49
0.0
 49
-0.5
  0
LTYPE
  2
BYGG-024794$0$DASHDOT
 70
     0
  3
__ . __ . __ . __ . __ . __ . __ . __ . __ . __
 72
    65
 73
     4
 40
1.0
 49
0.5
 49
-0.25
 49
0.0
 49
-0.25
  0
LTYPE
  2
BYGG-014410$0$PHANTOM2
 70
     0
  3
Phantom (.5x) ___ _ _ ___ _ _ ___ _ _ ___ _ _
 72
    65
 73
     6
 40
1.25
 49
0.625
 49
-0.125
 49
0.125
 49
-0.125
 49
0.125
 49
-0.125
  0
LTYPE
  2
BYGG-024817$0$DASHDOT
 70
     0
  3
__ . __ . __ . __ . __ . __ . __ . __ . __ . __
 72
    65
 73
     4
 40
1.0
 49
0.5
 49
-0.25
 49
0.0
 49
-0.25
  0
ENDTAB
  0
TABLE
  2
LAYER
 70
   105
  0
LAYER
  2
0
 70
     0
 62
     7
  6
CONTINUOUS
  0
LAYER
  2
SAPA_ARTIKELNR
 70
     0
 62
     4
  6
CONTINUOUS
  0
LAYER
  2
SAPA_LIGHT
 70
     1
 62
     1
  6
CONTINUOUS
  0
LAYER
  2
SAPA_ISOLATOR
 70
     0
 62
     4
  6
CONTINUOUS
  0
LAYER
  2
SAPA_GLAS
 70
     0
 62
     4
  6
CONTINUOUS
  0
LAYER
  2
SAPA_FOGBAND
 70
     0
 62
     2
  6
CONTINUOUS
  0
LAYER
  2
SAPA_PROFIL
 70
     0
 62
     7
  6
CONTINUOUS
  0
ENDTAB
  0
TABLE
  2
STYLE
 70
    27
  0
STYLE
  2
STANDARD
 70
     0
 40
0.0
 41
1.0
 50
0.0
 71
     0
 42
0.2
  3
txt
  4

  0
STYLE
  2
ISO
 70
     0
 40
0.0
 41
1.0
 50
0.0
 71
     0
 42
5.0
  3
isocp3.shx
  4

  0
STYLE
  2

 70
     1
 40
0.0
 41
1.0
 50
0.0
 71
     0
 42
0.2
  3
ltypeshp.shx
  4

  0
STYLE
  2
BYGG-038289$0$STANDARD
 70
     0
 40
0.0
 41
1.0
 50
0.0
 71
     0
 42
0.2
  3
txt
  4

  0
STYLE
  2
BYGG-038289$0$ISO
 70
     0
 40
0.0
 41
1.0
 50
0.0
 71
     0
 42
3.5
  3
txt
  4

  0
STYLE
  2
BYGG-014410$0$STANDARD
 70
     0
 40
0.0
 41
1.0
 50
0.0
 71
     0
 42
0.2
  3
txt
  4

  0
STYLE
  2
BYGG-014410$0$ISO
 70
     0
 40
0.0
 41
1.0
 50
0.0
 71
     0
 42
3.5
  3
isocp3.shx
  4

  0
STYLE
  2
BYGG-037560$0$STANDARD
 70
     0
 40
0.0
 41
1.0
 50
0.0
 71
     0
 42
0.2
  3
txt
  4

  0
STYLE
  2
BYGG-037560$0$ISO
 70
     0
 40
0.0
 41
1.0
 50
0.0
 71
     0
 42
3.5
  3
txt
  4

  0
STYLE
  2
BYGG-038291$0$STANDARD
 70
     0
 40
0.0
 41
1.0
 50
0.0
 71
     0
 42
0.2
  3
txt
  4

  0
STYLE
  2
BYGG-038291$0$ISO
 70
     0
 40
0.0
 41
1.0
 50
0.0
 71
     0
 42
3.5
  3
txt
  4

  0
STYLE
  2
BYGG-038291$0$SIMPLEX
 70
     0
 40
0.0
 41
1.0
 50
0.0
 71
     0
 42
4.0
  3
simplex
  4

  0
STYLE
  2
BYGG-038291$0$ANNOTATIVE
 70
     0
 40
0.0
 41
1.0
 50
0.0
 71
     0
 42
0.2
  3
txt
  4

  0
STYLE
  2
BYGG-038291$0$ROMANS
 70
     0
 40
0.0
 41
1.0
 50
0.0
 71
     0
 42
5.0
  3
romans
  4

  0
STYLE
  2
BYGG-038291$0$SEACAD_ARIAL
 70
     0
 40
0.0
 41
1.0
 50
0.0
 71
     0
 42
0.2
  3
txt
  4

  0
STYLE
  2
BYGG-030283$0$STANDARD
 70
     0
 40
0.0
 41
1.0
 50
0.0
 71
     0
 42
0.2
  3
txt
  4

  0
STYLE
  2
BYGG-030283$0$ISO
 70
     0
 40
0.0
 41
1.0
 50
0.0
 71
     0
 42
3.5
  3
txt
  4

  0
STYLE
  2
BYGG-024817$0$STANDARD
 70
     0
 40
0.0
 41
1.0
 50
0.0
 71
     0
 42
0.2
  3
txt
  4

  0
STYLE
  2
BYGG-024817$0$ISO
 70
     0
 40
0.0
 41
1.0
 50
0.0
 71
     0
 42
3.5
  3
txt
  4

  0
STYLE
  2
BYGG-024794$0$STANDARD
 70
     0
 40
0.0
 41
1.0
 50
0.0
 71
     0
 42
0.2
  3
txt
  4

  0
STYLE
  2
BYGG-024794$0$ISO
 70
     0
 40
0.0
 41
1.0
 50
0.0
 71
     0
 42
3.5
  3
txt
  4

  0
STYLE
  2
BYGG-028980$0$STANDARD
 70
     0
 40
0.0
 41
1.0
 50
0.0
 71
     0
 42
0.2
  3
txt
  4

  0
STYLE
  2
BYGG-028980$0$ISO
 70
     0
 40
0.0
 41
1.0
 50
0.0
 71
     0
 42
3.5
  3
txt
  4

  0
STYLE
  2
BYGG-034588$0$STANDARD
 70
     0
 40
0.0
 41
1.0
 50
0.0
 71
     0
 42
0.2
  3
txt
  4

  0
STYLE
  2
BYGG-034588$0$ISO
 70
     0
 40
0.0
 41
1.0
 50
0.0
 71
     0
 42
3.5
  3
txt
  4

  0
STYLE
  2
BYGG-034587$0$STANDARD
 70
     0
 40
0.0
 41
1.0
 50
0.0
 71
     0
 42
0.2
  3
txt
  4

  0
STYLE
  2
BYGG-034587$0$ISO
 70
     0
 40
0.0
 41
1.0
 50
0.0
 71
     0
 42
3.5
  3
txt
  4

  0
ENDTAB
  0
TABLE
  2
VIEW
 70
     0
  0
ENDTAB
  0
TABLE
  2
UCS
 70
     0
  0
ENDTAB
  0
TABLE
  2
APPID
 70
    57
  0
APPID
  2
ACAD
 70
     0
  0
APPID
  2
ACAD_PSEXT
 70
     0
  0
APPID
  2
ACAECLAYERSTANDARD
 70
     0
  0
APPID
  2
ACAD_MLEADERVER
 70
     0
  0
APPID
  2
ACAD_DSTYLE_DIMJAG
 70
     0
  0
APPID
  2
ACAD_DSTYLE_DIMTALN
 70
     0
  0
APPID
  2
ACAD_DSTYLE_DIMTEXT_FILL
 70
     0
  0
APPID
  2
ACAD_DSTYLE_DIMEXT_LENGTH
 70
     0
  0
APPID
  2
ACAD_DSTYLE_DIMEXT_ENABLED
 70
     0
  0
APPID
  2
ACAD_DSTYLE_DIM_LINETYPE
 70
     0
  0
APPID
  2
ACAD_DSTYLE_DIM_EXT1_LINETYPE
 70
     0
  0
APPID
  2
ACAD_DSTYLE_DIM_EXT2_LINETYPE
 70
     0
  0
APPID
  2
ACAD_DSTYLE_DIMJOGGED_JOGA
 70
     0
  0
APPID
  2
ACAD_DSTYLE_DIMARC_LENGTH_
 70
     0
  0
APPID
  2
ACDBDYNAMICBLOCKGUID
 70
     0
  0
APPID
  2
ACDBBLOCKREPETAG
 70
     0
  0
APPID
  2
ACAD_EXEMPT_FROM_CAD_STANDARDS
 70
     0
  0
APPID
  2
ACADANNOTATIVE
 70
     0
  0
APPID
  2
RC_PROFILE
 70
     0
  0
APPID
  2
ACAD_NAV_VCDISPLAY
 70
     0
  0
APPID
  2
ACAD_DSTYLE_DIMRADIAL_EXTENSION
 70
     0
  0
APPID
  2
ACAD_OBJECT_CHANGE_GUID
 70
     0
  0
APPID
  2
ACCMTRANSPARENCY
 70
     0
  0
APPID
  2
AVE_RENDER
 70
     0
  0
APPID
  2
AVE_ENTITY_MATERIAL
 70
     0
  0
APPID
  2
AVE_FINISH
 70
     0
  0
APPID
  2
AVE_MATERIAL
 70
     0
  0
APPID
  2
AVE_GLOBAL
 70
     0
  0
APPID
  2
4M_RENDER
 70
     0
  0
APPID
  2
LIBMAN
 70
     0
  0
APPID
  2
AUTOBUILD
 70
     0
  0
APPID
  2
AMG_ARCHIVE11
 70
     0
  0
APPID
  2
GRADIENTCOLOR1ACI
 70
     0
  0
APPID
  2
GRADIENTCOLOR2ACI
 70
     0
  0
APPID
  2
ACADANNOAV
 70
     0
  0
APPID
  2
DCO15
 70
     0
  0
APPID
  2
PE_URL
 70
     0
  0
APPID
  2
ACAUTHENVIRON
 70
     0
  0
APPID
  2
ACDBDYNAMICBLOCKTRUENAME
 70
     0
  0
APPID
  2
ACDBBLOCKREPBTAG
 70
     0
  0
APPID
  2
GENIUS_GENREC_14
 70
     0
  0
APPID
  2
GENIUS_GENOBJ-N-REC_13
 70
     0
  0
APPID
  2
GENIUS_GENODEF_13
 70
     0
  0
APPID
  2
GENIUS_GENTRA_14
 70
     0
  0
APPID
  2
GENIUS_GENOREF_13
 70
     0
  0
APPID
  2
GENIUS_GENSCREG_15
 70
     0
  0
APPID
  2
GENIUS_GENOBJ-N-SDF_13
 70
     0
  0
APPID
  2
ACADANNOPO
 70
     0
  0
APPID
  2
ACADBPTGRAPHNODEID
 70
     0
  0
APPID
  2
ACDBATTR
 70
     0
  0
APPID
  2
EDBMODELINFO
 70
     0
  0
APPID
  2
ACAD_DSTYLE_DIMBREAK
 70
     0
  0
APPID
  2
ACAD_DSTYLE_DIMINSPECT
 70
     0
  0
APPID
  2
GENIUS_GENOBJ-N-HTC_13
 70
     0
  0
APPID
  2
GENIUS_GENHATCH_13
 70
     0
  0
APPID
  2
ACADANNOMONITORALERTICONDI
 70
     0
  0
APPID
  2
AEC_XDATA_BOUND_SPACE
 70
     0
  0
ENDTAB
  0
TABLE
  2
DIMSTYLE
 70
    24
  0
DIMSTYLE
  2
MASKIN1
 70
     0
  3

  4

  5

  6

  7

 40
0.0
 41
3.0
 42
1.5
 43
10.0
 44
1.5
 45
0.0
 46
0.0
 47
0.0
 48
0.0
140
3.0
141
-5.0
142
0.0
143
25.399999999999999
144
-1.0
145
0.0
146
1.0
147
1.0
 71
     0
 72
     0
 73
     0
 74
     0
 75
     0
 76
     0
 77
     1
 78
     8
170
     0
171
     0
172
     1
173
     0
174
     0
175
     0
176
   256
177
   256
178
   256
  0
DIMSTYLE
  2
MASKIN
 70
     0
  3

  4

  5

  6

  7

 40
0.0
 41
3.0
 42
1.5
 43
10.0
 44
1.5
 45
0.0
 46
0.0
 47
0.0
 48
0.0
140
3.0
141
-5.0
142
0.0
143
25.399999999999999
144
-1.0
145
0.0
146
1.0
147
1.0
 71
     0
 72
     0
 73
     0
 74
     1
 75
     0
 76
     0
 77
     1
 78
     8
170
     0
171
     0
172
     1
173
     0
174
     0
175
     0
176
   256
177
   256
178
     2
  0
DIMSTYLE
  2
BYGG-038289$0$STANDARD
 70
     0
  3

  4

  5

  6

  7

 40
1.0
 41
0.18
 42
0.0625
 43
0.38
 44
0.18
 45
0.0
 46
0.0
 47
0.0
 48
0.0
140
0.18
141
0.09
142
0.0
143
25.399999999999999
144
1.0
145
0.0
146
1.0
147
0.09
 71
     0
 72
     0
 73
     1
 74
     1
 75
     0
 76
     0
 77
     0
 78
     0
170
     0
171
     2
172
     0
173
     0
174
     0
175
     0
176
     0
177
     0
178
     0
  0
DIMSTYLE
  2
BYGG-038289$0$MASKIN
 70
     0
  3

  4

  5

  6

  7

 40
0.0
 41
3.0
 42
1.5
 43
10.0
 44
1.5
 45
0.0
 46
0.0
 47
0.0
 48
0.0
140
3.0
141
-5.0
142
0.0
143
25.399999999999999
144
-1.0
145
0.0
146
1.0
147
1.0
 71
     0
 72
     0
 73
     0
 74
     0
 75
     0
 76
     0
 77
     1
 78
     8
170
     0
171
     0
172
     1
173
     0
174
     0
175
     0
176
   256
177
   256
178
     2
  0
DIMSTYLE
  2
BYGG-014410$0$MASKIN
 70
     0
  3

  4

  5

  6

  7

 40
0.0
 41
3.0
 42
1.5
 43
10.0
 44
1.5
 45
0.0
 46
0.0
 47
0.0
 48
0.0
140
3.0
141
-5.0
142
0.0
143
25.399999999999999
144
-1.0
145
0.0
146
1.0
147
1.0
 71
     0
 72
     0
 73
     0
 74
     0
 75
     0
 76
     0
 77
     1
 78
     8
170
     0
171
     0
172
     1
173
     0
174
     0
175
     0
176
   256
177
   256
178
   256
  0
DIMSTYLE
  2
BYGG-014410$0$STANDARD
 70
     0
  3

  4

  5

  6

  7

 40
1.0
 41
0.18
 42
0.0625
 43
0.38
 44
0.18
 45
0.0
 46
0.0
 47
0.0
 48
0.0
140
0.18
141
0.09
142
0.0
143
25.399999999999999
144
1.0
145
0.0
146
1.0
147
0.09
 71
     0
 72
     0
 73
     1
 74
     1
 75
     0
 76
     0
 77
     0
 78
     0
170
     0
171
     2
172
     0
173
     0
174
     0
175
     0
176
     0
177
     0
178
     0
  0
DIMSTYLE
  2
BYGG-037560$0$STANDARD
 70
     0
  3

  4

  5

  6

  7

 40
1.0
 41
0.18
 42
0.0625
 43
0.38
 44
0.18
 45
0.0
 46
0.0
 47
0.0
 48
0.0
140
0.18
141
0.09
142
0.0
143
25.399999999999999
144
1.0
145
0.0
146
1.0
147
0.09
 71
     0
 72
     0
 73
     1
 74
     1
 75
     0
 76
     0
 77
     0
 78
     0
170
     0
171
     2
172
     0
173
     0
174
     0
175
     0
176
     0
177
     0
178
     0
  0
DIMSTYLE
  2
BYGG-037560$0$MASKIN
 70
     0
  3

  4

  5

  6

  7

 40
0.0
 41
3.0
 42
1.5
 43
10.0
 44
1.5
 45
0.0
 46
0.0
 47
0.0
 48
0.0
140
3.0
141
-5.0
142
0.0
143
25.399999999999999
144
-1.0
145
0.0
146
1.0
147
1.0
 71
     0
 72
     0
 73
     0
 74
     0
 75
     0
 76
     0
 77
     1
 78
     8
170
     0
171
     0
172
     1
173
     0
174
     0
175
     0
176
   256
177
   256
178
     2
  0
DIMSTYLE
  2
BYGG-038291$0$STANDARD
 70
     0
  3

  4

  5

  6

  7

 40
1.0
 41
0.18
 42
0.0625
 43
0.38
 44
0.18
 45
0.0
 46
0.0
 47
0.0
 48
0.0
140
0.18
141
0.09
142
0.0
143
25.399999999999999
144
1.0
145
0.0
146
1.0
147
0.09
 71
     0
 72
     0
 73
     1
 74
     1
 75
     0
 76
     0
 77
     0
 78
     0
170
     0
171
     2
172
     0
173
     0
174
     0
175
     0
176
     0
177
     0
178
     0
  0
DIMSTYLE
  2
BYGG-038291$0$MASKIN
 70
     0
  3

  4

  5

  6

  7

 40
0.0
 41
3.0
 42
1.5
 43
10.0
 44
1.5
 45
0.0
 46
0.0
 47
0.0
 48
0.0
140
3.0
141
-5.0
142
0.0
143
25.399999999999999
144
-1.0
145
0.0
146
1.0
147
1.0
 71
     0
 72
     0
 73
     0
 74
     0
 75
     0
 76
     0
 77
     1
 78
     8
170
     0
171
     0
172
     1
173
     0
174
     0
175
     0
176
   256
177
   256
178
     2
  0
DIMSTYLE
  2
BYGG-038291$0$ANNOTATIVE
 70
     0
  3

  4

  5

  6

  7

 40
1.0
 41
0.18
 42
0.0625
 43
0.38
 44
0.18
 45
0.0
 46
0.0
 47
0.0
 48
0.0
140
0.18
141
0.09
142
0.0
143
25.399999999999999
144
1.0
145
0.0
146
1.0
147
0.09
 71
     0
 72
     0
 73
     1
 74
     1
 75
     0
 76
     0
 77
     0
 78
     0
170
     0
171
     2
172
     0
173
     0
174
     0
175
     0
176
     0
177
     0
178
     0
  0
DIMSTYLE
  2
BYGG-038291$0$STANDARD$4
 70
     0
  3

  4

  5

  6

  7

 40
1.0
 41
2.5
 42
2.0
 43
3.75
 44
1.0
 45
0.0
 46
0.0
 47
0.0
 48
0.0
140
5.0
141
3.0
142
0.0
143
0.0394
144
1.0
145
1.0
146
1.0
147
1.0
 71
     0
 72
     0
 73
     1
 74
     0
 75
     0
 76
     0
 77
     1
 78
     8
170
     0
171
     2
172
     1
173
     0
174
     0
175
     0
176
     5
177
     5
178
     5
  0
DIMSTYLE
  2
BYGG-030283$0$STANDARD
 70
     0
  3

  4

  5

  6

  7

 40
1.0
 41
0.18
 42
0.0625
 43
0.38
 44
0.18
 45
0.0
 46
0.0
 47
0.0
 48
0.0
140
0.18
141
0.09
142
0.0
143
25.399999999999999
144
1.0
145
0.0
146
1.0
147
0.09
 71
     0
 72
     0
 73
     1
 74
     1
 75
     0
 76
     0
 77
     0
 78
     0
170
     0
171
     2
172
     0
173
     0
174
     0
175
     0
176
     0
177
     0
178
     0
  0
DIMSTYLE
  2
BYGG-030283$0$MASKIN
 70
     0
  3

  4

  5

  6

  7

 40
0.0
 41
3.0
 42
1.5
 43
10.0
 44
1.5
 45
0.0
 46
0.0
 47
0.0
 48
0.0
140
3.0
141
-5.0
142
0.0
143
25.399999999999999
144
-1.0
145
0.0
146
1.0
147
1.0
 71
     0
 72
     0
 73
     0
 74
     0
 75
     0
 76
     0
 77
     1
 78
     8
170
     0
171
     0
172
     1
173
     0
174
     0
175
     0
176
   256
177
   256
178
     2
  0
DIMSTYLE
  2
BYGG-024817$0$MASKIN
 70
     0
  3

  4

  5

  6

  7

 40
0.0
 41
3.0
 42
1.5
 43
10.0
 44
1.5
 45
0.0
 46
0.0
 47
0.0
 48
0.0
140
3.0
141
-5.0
142
0.0
143
25.399999999999999
144
-1.0
145
0.0
146
1.0
147
1.0
 71
     0
 72
     0
 73
     0
 74
     0
 75
     0
 76
     0
 77
     1
 78
     8
170
     0
171
     0
172
     1
173
     0
174
     0
175
     0
176
   256
177
   256
178
     2
  0
DIMSTYLE
  2
BYGG-024817$0$STANDARD
 70
     0
  3

  4

  5

  6

  7

 40
1.0
 41
0.18
 42
0.0625
 43
0.38
 44
0.18
 45
0.0
 46
0.0
 47
0.0
 48
0.0
140
0.18
141
0.09
142
0.0
143
25.399999999999999
144
1.0
145
0.0
146
1.0
147
0.09
 71
     0
 72
     0
 73
     1
 74
     1
 75
     0
 76
     0
 77
     0
 78
     0
170
     0
171
     2
172
     0
173
     0
174
     0
175
     0
176
     0
177
     0
178
     0
  0
DIMSTYLE
  2
BYGG-024794$0$MASKIN
 70
     0
  3

  4

  5

  6

  7

 40
0.0
 41
3.0
 42
1.5
 43
10.0
 44
1.5
 45
0.0
 46
0.0
 47
0.0
 48
0.0
140
3.0
141
-5.0
142
0.0
143
25.399999999999999
144
-1.0
145
0.0
146
1.0
147
1.0
 71
     0
 72
     0
 73
     0
 74
     0
 75
     0
 76
     0
 77
     1
 78
     8
170
     0
171
     0
172
     1
173
     0
174
     0
175
     0
176
   256
177
   256
178
     2
  0
DIMSTYLE
  2
BYGG-024794$0$STANDARD
 70
     0
  3

  4

  5

  6

  7

 40
1.0
 41
0.18
 42
0.0625
 43
0.38
 44
0.18
 45
0.0
 46
0.0
 47
0.0
 48
0.0
140
0.18
141
0.09
142
0.0
143
25.399999999999999
144
1.0
145
0.0
146
1.0
147
0.09
 71
     0
 72
     0
 73
     1
 74
     1
 75
     0
 76
     0
 77
     0
 78
     0
170
     0
171
     2
172
     0
173
     0
174
     0
175
     0
176
     0
177
     0
178
     0
  0
DIMSTYLE
  2
BYGG-028980$0$STANDARD
 70
     0
  3

  4

  5

  6

  7

 40
1.0
 41
0.18
 42
0.0625
 43
0.38
 44
0.18
 45
0.0
 46
0.0
 47
0.0
 48
0.0
140
0.18
141
0.09
142
0.0
143
25.399999999999999
144
1.0
145
0.0
146
1.0
147
0.09
 71
     0
 72
     0
 73
     1
 74
     1
 75
     0
 76
     0
 77
     0
 78
     0
170
     0
171
     2
172
     0
173
     0
174
     0
175
     0
176
     0
177
     0
178
     0
  0
DIMSTYLE
  2
BYGG-028980$0$MASKIN
 70
     0
  3

  4

  5

  6

  7

 40
0.0
 41
3.0
 42
1.5
 43
10.0
 44
1.5
 45
0.0
 46
0.0
 47
0.0
 48
0.0
140
3.0
141
-5.0
142
0.0
143
25.399999999999999
144
-1.0
145
0.0
146
1.0
147
1.0
 71
     0
 72
     0
 73
     0
 74
     0
 75
     0
 76
     0
 77
     1
 78
     8
170
     0
171
     0
172
     1
173
     0
174
     0
175
     0
176
   256
177
   256
178
     2
  0
DIMSTYLE
  2
BYGG-034588$0$STANDARD
 70
     0
  3

  4

  5

  6

  7

 40
1.0
 41
0.18
 42
0.0625
 43
0.38
 44
0.18
 45
0.0
 46
0.0
 47
0.0
 48
0.0
140
0.18
141
0.09
142
0.0
143
25.399999999999999
144
1.0
145
0.0
146
1.0
147
0.09
 71
     0
 72
     0
 73
     1
 74
     1
 75
     0
 76
     0
 77
     0
 78
     0
170
     0
171
     2
172
     0
173
     0
174
     0
175
     0
176
     0
177
     0
178
     0
  0
DIMSTYLE
  2
BYGG-034588$0$MASKIN
 70
     0
  3

  4

  5

  6

  7

 40
0.0
 41
3.0
 42
1.5
 43
10.0
 44
1.5
 45
0.0
 46
0.0
 47
0.0
 48
0.0
140
3.0
141
-5.0
142
0.0
143
25.399999999999999
144
-1.0
145
0.0
146
1.0
147
1.0
 71
     0
 72
     0
 73
     0
 74
     0
 75
     0
 76
     0
 77
     1
 78
     8
170
     0
171
     0
172
     1
173
     0
174
     0
175
     0
176
   256
177
   256
178
     2
  0
DIMSTYLE
  2
BYGG-034587$0$STANDARD
 70
     0
  3

  4

  5

  6

  7

 40
1.0
 41
0.18
 42
0.0625
 43
0.38
 44
0.18
 45
0.0
 46
0.0
 47
0.0
 48
0.0
140
0.18
141
0.09
142
0.0
143
25.399999999999999
144
1.0
145
0.0
146
1.0
147
0.09
 71
     0
 72
     0
 73
     1
 74
     1
 75
     0
 76
     0
 77
     0
 78
     0
170
     0
171
     2
172
     0
173
     0
174
     0
175
     0
176
     0
177
     0
178
     0
  0
DIMSTYLE
  2
BYGG-034587$0$MASKIN
 70
     0
  3

  4

  5

  6

  7

 40
0.0
 41
3.0
 42
1.5
 43
10.0
 44
1.5
 45
0.0
 46
0.0
 47
0.0
 48
0.0
140
3.0
141
-5.0
142
0.0
143
25.399999999999999
144
-1.0
145
0.0
146
1.0
147
1.0
 71
     0
 72
     0
 73
     0
 74
     0
 75
     0
 76
     0
 77
     1
 78
     8
170
     0
171
     0
172
     1
173
     0
174
     0
175
     0
176
   256
177
   256
178
     2
  0
ENDTAB
  0
ENDSEC
  0
SECTION
  2
BLOCKS
  0
BLOCK
  8
0
  2
$MODEL_SPACE
 70
     0
 10
0.0
 20
0.0
 30
0.0
  3
$MODEL_SPACE
  1

  0
ENDBLK
  5
D
  8
0
  0
BLOCK
 67
     1
  8
0
  2
$PAPER_SPACE
 70
     0
 10
0.0
 20
0.0
 30
0.0
  3
$PAPER_SPACE
  1

  0
ENDBLK
  5
12
 67
     1
  8
0
  0
BLOCK
  8
0
  2
*X35
 70
     1
 10
0.0
 20
0.0
 30
0.0
  3
*X35
  1

  0
LINE
  5
159E
  8
0
 62
     0
 10
315.96953601783179
 20
69.041104619273014
 30
0.0
 11
313.15537025287313
 21
71.855270384231773
 31
0.0
  0
LINE
  5
159F
  8
0
 62
     0
 10
317.09206803296553
 20
67.918572604139385
 30
0.0
 11
317.09206803296553
 21
67.918572604139385
 31
0.0
  0
LINE
  5
15A0
  8
0
 62
     0
 10
322.70472810236078
 20
62.305912534744053
 30
0.0
 11
318.2146000480991
 21
66.796040589005742
 31
0.0
  0
LINE
  5
15A1
  8
0
 62
     0
 10
304.74421586649549
 20
71.286168649540286
 30
0.0
 11
304.74421586649549
 21
71.286168649540286
 31
0.0
  0
LINE
  5
15A2
  8
0
 62
     0
 10
311.47940795729733
 20
64.550976558738427
 30
0.0
 11
305.86674788162912
 21
70.163636634406643
 31
0.0
  0
LINE
  5
15A3
  8
0
 62
     0
 10
312.6019399724309
 20
63.428444543604783
 30
0.0
 11
312.6019399724309
 21
63.428444543604783
 31
0.0
  0
LINE
  5
15A4
  8
0
 62
     0
 10
319.33713206323279
 20
56.693252452802909
 30
0.0
 11
313.72447198756458
 21
62.30591252847114
 31
0.0
  0
LINE
  5
15A5
  8
0
 62
     0
 10
320.45966407836642
 20
55.570720437669273
 30
0.0
 11
320.45966407836642
 21
55.570720437669273
 31
0.0
  0
LINE
  5
15A6
  8
0
 62
     0
 10
322.70472810236078
 20
53.325656413674892
 30
0.0
 11
321.58219609349999
 21
54.44818842253563
 31
0.0
  0
LINE
  5
15A7
  8
0
 62
     0
 10
299.13155579082718
 20
67.918572604139385
 30
0.0
 11
295.19485801073478
 21
71.855270384231801
 31
0.0
  0
LINE
  5
15A8
  8
0
 62
     0
 10
300.25408780596092
 20
66.796040589005742
 30
0.0
 11
300.25408780596092
 21
66.796040589005742
 31
0.0
  0
LINE
  5
15A9
  8
0
 62
     0
 10
306.9892798967627
 20
60.060848498203868
 30
0.0
 11
301.37661982109449
 21
65.673508573872098
 31
0.0
  0
LINE
  5
15AA
  8
0
 62
     0
 10
308.11181191189633
 20
58.938316483070231
 30
0.0
 11
308.11181191189633
 21
58.938316483070231
 31
0.0
  0
LINE
  5
15AB
  8
0
 62
     0
 10
314.84700400269821
 20
52.203124392268357
 30
0.0
 11
309.23434392703001
 21
57.815784467936588
 31
0.0
  0
LINE
  5
15AC
  8
0
 62
     0
 10
315.96953601783179
 20
51.080592377134721
 30
0.0
 11
315.96953601783179
 21
51.080592377134721
 31
0.0
  0
LINE
  5
15AD
  8
0
 62
     0
 10
322.70472810236078
 20
44.345400292605731
 30
0.0
 11
317.09206803296541
 21
49.958060362001071
 31
0.0
  0
LINE
  5
15AE
  8
0
 62
     0
 10
294.64142773029272
 20
63.428444543604769
 30
0.0
 11
292.70472810236089
 21
65.365144171536585
 31
0.0
  0
LINE
  5
15AF
  8
0
 62
     0
 10
295.7639597454264
 20
62.305912528471133
 30
0.0
 11
295.7639597454264
 21
62.305912528471133
 31
0.0
  0
LINE
  5
15B0
  8
0
 62
     0
 10
302.49915183622818
 20
55.570720437669259
 30
0.0
 11
296.88649176055998
 21
61.18338051333749
 31
0.0
  0
LINE
  5
15B1
  8
0
 62
     0
 10
303.62168385136181
 20
54.448188422535623
 30
0.0
 11
303.62168385136181
 21
54.448188422535623
 31
0.0
  0
LINE
  5
15B2
  8
0
 62
     0
 10
310.35687594216358
 20
47.712996331733748
 30
0.0
 11
304.74421586649538
 21
53.325656407401979
 31
0.0
  0
LINE
  5
15B3
  8
0
 62
     0
 10
311.47940795729733
 20
46.590464316600112
 30
0.0
 11
311.47940795729733
 21
46.590464316600112
 31
0.0
  0
LINE
  5
15B4
  8
0
 62
     0
 10
318.2146000480991
 20
39.855272225798252
 30
0.0
 11
312.6019399724309
 21
45.467932301466462
 31
0.0
  0
LINE
  5
15B5
  8
0
 62
     0
 10
298.00902377569361
 20
51.080592377134721
 30
0.0
 11
292.70472810236089
 21
56.384888050467403
 31
0.0
  0
LINE
  5
15B6
  8
0
 62
     0
 10
299.13155579082718
 20
49.958060362001078
 30
0.0
 11
299.13155579082718
 21
49.958060362001078
 31
0.0
  0
LINE
  5
15B7
  8
0
 62
     0
 10
305.86674788162901
 20
43.222868271199211
 30
0.0
 11
300.25408780596081
 21
48.835528346867441
 31
0.0
  0
LINE
  5
15B8
  8
0
 62
     0
 10
306.9892798967627
 20
42.100336256065567
 30
0.0
 11
306.9892798967627
 21
42.100336256065567
 31
0.0
  0
LINE
  5
15B9
  8
0
 62
     0
 10
309.23434576859643
 20
39.855270384231787
 30
0.0
 11
308.11181191189633
 21
40.977804240931931
 31
0.0
  0
LINE
  5
15BA
  8
0
 62
     0
 10
293.51889571515898
 20
46.590464316600112
 30
0.0
 11
292.70472810236078
 21
47.404631929398228
 31
0.0
  0
LINE
  5
15BB
  8
0
 62
     0
 10
294.64142773029261
 20
45.467932301466469
 30
0.0
 11
294.64142773029261
 21
45.467932301466469
 31
0.0
  0
LINE
  5
15BC
  8
0
 62
     0
 10
300.25408964752728
 20
39.855270384231787
 30
0.0
 11
295.76395974542618
 21
44.345400286332833
 31
0.0
  0
LINE
  5
15BD
  8
0
 62
     0
 10
322.70472809511767
 20
66.796038663056294
 30
0.0
 11
317.64549637394231
 21
71.855270384231744
 31
0.0
  0
LINE
  5
15BE
  8
0
 62
     0
 10
322.70472808226111
 20
57.815782554843793
 30
0.0
 11
308.6652402528731
 21
71.855270384231744
 31
0.0
  0
LINE
  5
15BF
  8
0
 62
     0
 10
322.70472806940438
 20
48.835526446631278
 30
0.0
 11
299.6849841318039
 21
71.855270384231773
 31
0.0
  0
LINE
  5
15C0
  8
0
 62
     0
 10
322.70472805654782
 20
39.855270338418762
 30
0.0
 11
292.70472810236078
 21
69.855270292605752
 31
0.0
  0
LINE
  5
15C1
  8
0
 62
     0
 10
313.7244719217648
 20
39.855270352132521
 30
0.0
 11
292.70472810236078
 21
60.875014171536598
 31
0.0
  0
LINE
  5
15C2
  8
0
 62
     0
 10
304.74421578698201
 20
39.85527036584628
 30
0.0
 11
292.70472810236078
 21
51.894758050467438
 31
0.0
  0
LINE
  5
15C3
  8
0
 62
     0
 10
295.76395965219899
 20
39.855270379560032
 30
0.0
 11
292.70472810236078
 21
42.914501929398291
 31
0.0
  0
ENDBLK
  5
15C5
  8
0
  0
BLOCK
  8
0
  2
*X36
 70
     1
 10
0.0
 20
0.0
 30
0.0
  3
*X36
  1

  0
LINE
  5
15C7
  8
0
 62
     0
 10
315.96953601783179
 20
69.041104619273014
 30
0.0
 11
313.15537025287313
 21
71.855270384231773
 31
0.0
  0
LINE
  5
15C8
  8
0
 62
     0
 10
317.09206803296553
 20
67.918572604139385
 30
0.0
 11
317.09206803296553
 21
67.918572604139385
 31
0.0
  0
LINE
  5
15C9
  8
0
 62
     0
 10
322.70472810236078
 20
62.305912534744053
 30
0.0
 11
318.2146000480991
 21
66.796040589005742
 31
0.0
  0
LINE
  5
15CA
  8
0
 62
     0
 10
304.74421586649549
 20
71.286168649540286
 30
0.0
 11
304.74421586649549
 21
71.286168649540286
 31
0.0
  0
LINE
  5
15CB
  8
0
 62
     0
 10
311.47940795729733
 20
64.550976558738427
 30
0.0
 11
305.86674788162912
 21
70.163636634406643
 31
0.0
  0
LINE
  5
15CC
  8
0
 62
     0
 10
312.6019399724309
 20
63.428444543604783
 30
0.0
 11
312.6019399724309
 21
63.428444543604783
 31
0.0
  0
LINE
  5
15CD
  8
0
 62
     0
 10
319.33713206323279
 20
56.693252452802909
 30
0.0
 11
313.72447198756458
 21
62.30591252847114
 31
0.0
  0
LINE
  5
15CE
  8
0
 62
     0
 10
320.45966407836642
 20
55.570720437669273
 30
0.0
 11
320.45966407836642
 21
55.570720437669273
 31
0.0
  0
LINE
  5
15CF
  8
0
 62
     0
 10
322.70472810236078
 20
53.325656413674892
 30
0.0
 11
321.58219609349999
 21
54.44818842253563
 31
0.0
  0
LINE
  5
15D0
  8
0
 62
     0
 10
299.13155579082718
 20
67.918572604139385
 30
0.0
 11
295.19485801073478
 21
71.855270384231801
 31
0.0
  0
LINE
  5
15D1
  8
0
 62
     0
 10
300.25408780596092
 20
66.796040589005742
 30
0.0
 11
300.25408780596092
 21
66.796040589005742
 31
0.0
  0
LINE
  5
15D2
  8
0
 62
     0
 10
306.9892798967627
 20
60.060848498203868
 30
0.0
 11
301.37661982109449
 21
65.673508573872098
 31
0.0
  0
LINE
  5
15D3
  8
0
 62
     0
 10
308.11181191189633
 20
58.938316483070231
 30
0.0
 11
308.11181191189633
 21
58.938316483070231
 31
0.0
  0
LINE
  5
15D4
  8
0
 62
     0
 10
314.84700400269821
 20
52.203124392268357
 30
0.0
 11
309.23434392703001
 21
57.815784467936588
 31
0.0
  0
LINE
  5
15D5
  8
0
 62
     0
 10
315.96953601783179
 20
51.080592377134721
 30
0.0
 11
315.96953601783179
 21
51.080592377134721
 31
0.0
  0
LINE
  5
15D6
  8
0
 62
     0
 10
322.70472810236078
 20
44.345400292605731
 30
0.0
 11
317.09206803296541
 21
49.958060362001071
 31
0.0
  0
LINE
  5
15D7
  8
0
 62
     0
 10
294.64142773029272
 20
63.428444543604769
 30
0.0
 11
292.70472810236089
 21
65.365144171536585
 31
0.0
  0
LINE
  5
15D8
  8
0
 62
     0
 10
295.7639597454264
 20
62.305912528471133
 30
0.0
 11
295.7639597454264
 21
62.305912528471133
 31
0.0
  0
LINE
  5
15D9
  8
0
 62
     0
 10
302.49915183622818
 20
55.570720437669259
 30
0.0
 11
296.88649176055998
 21
61.18338051333749
 31
0.0
  0
LINE
  5
15DA
  8
0
 62
     0
 10
303.62168385136181
 20
54.448188422535623
 30
0.0
 11
303.62168385136181
 21
54.448188422535623
 31
0.0
  0
LINE
  5
15DB
  8
0
 62
     0
 10
310.35687594216358
 20
47.712996331733748
 30
0.0
 11
304.74421586649538
 21
53.325656407401979
 31
0.0
  0
LINE
  5
15DC
  8
0
 62
     0
 10
311.47940795729733
 20
46.590464316600112
 30
0.0
 11
311.47940795729733
 21
46.590464316600112
 31
0.0
  0
LINE
  5
15DD
  8
0
 62
     0
 10
318.2146000480991
 20
39.855272225798252
 30
0.0
 11
312.6019399724309
 21
45.467932301466462
 31
0.0
  0
LINE
  5
15DE
  8
0
 62
     0
 10
298.00902377569361
 20
51.080592377134721
 30
0.0
 11
292.70472810236089
 21
56.384888050467403
 31
0.0
  0
LINE
  5
15DF
  8
0
 62
     0
 10
299.13155579082718
 20
49.958060362001078
 30
0.0
 11
299.13155579082718
 21
49.958060362001078
 31
0.0
  0
LINE
  5
15E0
  8
0
 62
     0
 10
305.86674788162901
 20
43.222868271199211
 30
0.0
 11
300.25408780596081
 21
48.835528346867441
 31
0.0
  0
LINE
  5
15E1
  8
0
 62
     0
 10
306.9892798967627
 20
42.100336256065567
 30
0.0
 11
306.9892798967627
 21
42.100336256065567
 31
0.0
  0
LINE
  5
15E2
  8
0
 62
     0
 10
309.23434576859643
 20
39.855270384231787
 30
0.0
 11
308.11181191189633
 21
40.977804240931931
 31
0.0
  0
LINE
  5
15E3
  8
0
 62
     0
 10
293.51889571515898
 20
46.590464316600112
 30
0.0
 11
292.70472810236078
 21
47.404631929398228
 31
0.0
  0
LINE
  5
15E4
  8
0
 62
     0
 10
294.64142773029261
 20
45.467932301466469
 30
0.0
 11
294.64142773029261
 21
45.467932301466469
 31
0.0
  0
LINE
  5
15E5
  8
0
 62
     0
 10
300.25408964752728
 20
39.855270384231787
 30
0.0
 11
295.76395974542618
 21
44.345400286332833
 31
0.0
  0
LINE
  5
15E6
  8
0
 62
     0
 10
322.70472809511767
 20
66.796038663056294
 30
0.0
 11
317.64549637394231
 21
71.855270384231744
 31
0.0
  0
LINE
  5
15E7
  8
0
 62
     0
 10
322.70472808226111
 20
57.815782554843793
 30
0.0
 11
308.6652402528731
 21
71.855270384231744
 31
0.0
  0
LINE
  5
15E8
  8
0
 62
     0
 10
322.70472806940438
 20
48.835526446631278
 30
0.0
 11
299.6849841318039
 21
71.855270384231773
 31
0.0
  0
LINE
  5
15E9
  8
0
 62
     0
 10
322.70472805654782
 20
39.855270338418762
 30
0.0
 11
292.70472810236078
 21
69.855270292605752
 31
0.0
  0
LINE
  5
15EA
  8
0
 62
     0
 10
313.7244719217648
 20
39.855270352132521
 30
0.0
 11
292.70472810236078
 21
60.875014171536598
 31
0.0
  0
LINE
  5
15EB
  8
0
 62
     0
 10
304.74421578698201
 20
39.85527036584628
 30
0.0
 11
292.70472810236078
 21
51.894758050467438
 31
0.0
  0
LINE
  5
15EC
  8
0
 62
     0
 10
295.76395965219899
 20
39.855270379560032
 30
0.0
 11
292.70472810236078
 21
42.914501929398291
 31
0.0
  0
ENDBLK
  5
15EE
  8
0
  0
ENDSEC
  0
SECTION
  2
ENTITIES
  0
POLYLINE
  5
26D
  8
SAPA_LIGHT
 66
     1
 10
0.0
 20
0.0
 30
0.0
  0
VERTEX
  5
1032
  8
SAPA_LIGHT
 10
35.948274505288282
 20
16.168642107168591
 30
0.0
  0
VERTEX
  5
1033
  8
SAPA_LIGHT
 10
16.002539082439618
 20
16.168642107168651
 30
0.0
  0
VERTEX
  5
1034
  8
SAPA_LIGHT
 10
16.002539082265599
 20
136.17011829477889
 30
0.0
  0
VERTEX
  5
1035
  8
SAPA_LIGHT
 10
24.702539057258409
 20
136.17011829477889
 30
0.0
  0
VERTEX
  5
1036
  8
SAPA_LIGHT
 10
24.70253905725852
 20
121.6701182908389
 30
0.0
  0
VERTEX
  5
1037
  8
SAPA_LIGHT
 10
93.302539047852207
 20
121.6701182480749
 30
0.0
  0
VERTEX
  5
1038
  8
SAPA_LIGHT
 10
93.302539047852207
 20
114.168642106928
 30
0.0
  0
VERTEX
  5
1039
  8
SAPA_LIGHT
 10
102.0025390435239
 20
114.168642106928
 30
0.0
  0
VERTEX
  5
103A
  8
SAPA_LIGHT
 10
102.00253904369799
 20
16.168642107168591
 30
0.0
  0
VERTEX
  5
103B
  8
SAPA_LIGHT
 10
52.002486785354392
 20
16.16864210716842
 30
0.0
  0
SEQEND
  5
103C
  8
SAPA_LIGHT
  0
POLYLINE
  5
26E
  8
SAPA_LIGHT
 66
     1
 10
0.0
 20
0.0
 30
0.0
 70
     1
  0
VERTEX
  5
103D
  8
SAPA_LIGHT
 10
36.002486785354513
 20
0.7686421031355764
 30
0.0
  0
VERTEX
  5
103E
  8
SAPA_LIGHT
 10
52.002486785354513
 20
0.7686421031355764
 30
0.0
  0
VERTEX
  5
103F
  8
SAPA_LIGHT
 10
52.002486785354513
 20
31.668641705790218
 30
0.0
  0
VERTEX
  5
1040
  8
SAPA_LIGHT
 10
36.002486785354513
 20
31.668641705790218
 30
0.0
  0
SEQEND
  5
1041
  8
SAPA_LIGHT
  0
POLYLINE
  5
276
  8
SAPA_LIGHT
 66
     1
 10
0.0
 20
0.0
 30
0.0
 70
     1
  0
VERTEX
  5
1042
  8
SAPA_LIGHT
 10
24.70253898396717
 20
141.16864210692759
 30
0.0
  0
VERTEX
  5
1043
  8
SAPA_LIGHT
 10
24.702538983967059
 20
133.66864210692751
 30
0.0
  0
VERTEX
  5
1044
  8
SAPA_LIGHT
 10
93.302539058687927
 20
133.66864210692779
 30
0.0
  0
VERTEX
  5
1045
  8
SAPA_LIGHT
 10
93.302539047852207
 20
119.1686421029878
 30
0.0
  0
VERTEX
  5
1046
  8
SAPA_LIGHT
 10
102.0025389755145
 20
119.1686421029878
 30
0.0
  0
VERTEX
  5
1047
  8
SAPA_LIGHT
 10
102.0025389755145
 20
187.06864135985271
 30
0.0
  0
VERTEX
  5
1048
  8
SAPA_LIGHT
 10
16.002538975514849
 20
187.06864135985279
 30
0.0
  0
VERTEX
  5
1049
  8
SAPA_LIGHT
 10
16.002538975514849
 20
141.16864210692759
 30
0.0
  0
SEQEND
  5
104A
  8
SAPA_LIGHT
  0
TEXT
  5
C7E
  8
SAPA_ARTIKELNR
 10
356.1859461023605
 20
51.1538607615133
 30
-0.0000000048844204
 40
3.5
  1
86202
 50
90.0
  7
ISO
  0
POLYLINE
  5
F7E
  8
SAPA_PROFIL
 62
     6
 66
     1
 10
0.0
 20
0.0
 30
0.0
 70
     1
  0
VERTEX
  5
12E8
  8
SAPA_PROFIL
 62
     6
 10
322.70472810236078
 20
71.855270384231773
 30
0.0
  0
VERTEX
  5
12E9
  8
SAPA_PROFIL
 62
     6
 10
292.70472810236078
 20
71.855270384231773
 30
0.0
  0
VERTEX
  5
12EA
  8
SAPA_PROFIL
 62
     6
 10
292.70472810236078
 20
39.855270384231773
 30
0.0
  0
VERTEX
  5
12EB
  8
SAPA_PROFIL
 62
     6
 10
322.70472810236078
 20
39.855270384231773
 30
0.0
  0
SEQEND
  5
12EC
  8
SAPA_PROFIL
 62
     6
  0
POLYLINE
  5
F7F
  8
SAPA_PROFIL
 66
     1
 10
0.0
 20
0.0
 30
0.0
 70
     1
  0
VERTEX
  5
12ED
  8
SAPA_PROFIL
 10
347.5868147386571
 20
80.418237525770621
 30
0.0
 42
0.2038501166358089
  0
VERTEX
  5
12EE
  8
SAPA_PROFIL
 10
347.72999759526311
 20
80.782544305188424
 30
0.0
  0
VERTEX
  5
12EF
  8
SAPA_PROFIL
 10
347.31137148597401
 20
95.887257557788928
 30
0.0
 42
0.4061212134722958
  0
VERTEX
  5
12F0
  8
SAPA_PROFIL
 10
344.31252299887478
 20
98.804144674180904
 30
0.0
  0
VERTEX
  5
12F1
  8
SAPA_PROFIL
 10
336.50473949772987
 20
98.804144674180904
 30
0.0
 42
0.4142135623730951
  0
VERTEX
  5
12F2
  8
SAPA_PROFIL
 10
336.00473949772987
 20
98.304144674180918
 30
0.0
  0
VERTEX
  5
12F3
  8
SAPA_PROFIL
 10
336.00473949772987
 20
86.594094167834612
 30
0.0
 42
-0.1989123673796573
  0
VERTEX
  5
12F4
  8
SAPA_PROFIL
 10
335.41895306010321
 20
85.179880605461278
 30
0.0
  0
VERTEX
  5
12F5
  8
SAPA_PROFIL
 10
333.80219469824112
 20
83.563122243599594
 30
0.0
 42
0.1989123673796573
  0
VERTEX
  5
12F6
  8
SAPA_PROFIL
 10
333.50930147942768
 20
82.856015462412927
 30
0.0
  0
VERTEX
  5
12F7
  8
SAPA_PROFIL
 10
334.00691701668882
 20
73.905912844435136
 30
0.0
 42
-0.6681786379236462
  0
VERTEX
  5
12F8
  8
SAPA_PROFIL
 10
333.49176652689982
 20
73.692530524901542
 30
0.0
  0
VERTEX
  5
12F9
  8
SAPA_PROFIL
 10
331.49228441197721
 20
75.6920126398241
 30
0.0
 42
-0.7332303362587975
  0
VERTEX
  5
12FA
  8
SAPA_PROFIL
 10
331.75651089963441
 20
76.199587000083795
 30
0.0
  0
VERTEX
  5
12FB
  8
SAPA_PROFIL
 10
332.37232199303281
 20
76.091002889297727
 30
0.0
 42
0.4663076581593609
  0
VERTEX
  5
12FC
  8
SAPA_PROFIL
 10
332.72441644633301
 20
76.386445215201149
 30
0.0
  0
VERTEX
  5
12FD
  8
SAPA_PROFIL
 10
332.22680090907198
 20
82.997778960769267
 30
0.0
 42
-0.1989123673796569
  0
VERTEX
  5
12FE
  8
SAPA_PROFIL
 10
332.8125873466991
 20
84.411992523142615
 30
0.0
  0
VERTEX
  5
12FF
  8
SAPA_PROFIL
 10
334.41184627891641
 20
86.011251455360295
 30
0.0
 42
0.1989123673796555
  0
VERTEX
  5
1300
  8
SAPA_PROFIL
 10
334.70473949773009
 20
86.718358236546507
 30
0.0
  0
VERTEX
  5
1301
  8
SAPA_PROFIL
 10
334.70473949773009
 20
98.004144674184374
 30
0.0
 42
0.4142135623732283
  0
VERTEX
  5
1302
  8
SAPA_PROFIL
 10
334.20473949772969
 20
98.504144674184374
 30
0.0
  0
VERTEX
  5
1303
  8
SAPA_PROFIL
 10
333.00473949773033
 20
98.504144674183465
 30
0.0
 42
-0.4142135623732616
  0
VERTEX
  5
1304
  8
SAPA_PROFIL
 10
332.70473949773009
 20
98.804144674183647
 30
0.0
  0
VERTEX
  5
1305
  8
SAPA_PROFIL
 10
332.70473949773009
 20
100.0041446741689
 30
0.0
 42
-0.4142135623716522
  0
VERTEX
  5
1306
  8
SAPA_PROFIL
 10
333.00473949773078
 20
100.3041446741709
 30
0.0
  0
VERTEX
  5
1307
  8
SAPA_PROFIL
 10
348.90473949772951
 20
100.30414467419411
 30
0.0
 42
-0.4142135623735277
  0
VERTEX
  5
1308
  8
SAPA_PROFIL
 10
349.20473949773009
 20
100.00414467419439
 30
0.0
  0
VERTEX
  5
1309
  8
SAPA_PROFIL
 10
349.20473949773009
 20
78.508768560502233
 30
0.0
 42
-0.4210020197690798
  0
VERTEX
  5
130A
  8
SAPA_PROFIL
 10
349.00479295568613
 20
78.304144674180904
 30
0.0
  0
VERTEX
  5
130B
  8
SAPA_PROFIL
 10
348.20949948703287
 20
78.304144674180904
 30
0.0
  0
VERTEX
  5
130C
  8
SAPA_PROFIL
 10
348.20949948703287
 20
78.6041446741811
 30
0.0
 42
0.4142135623730951
  0
VERTEX
  5
130D
  8
SAPA_PROFIL
 10
348.00949948703311
 20
78.804144674180904
 30
0.0
  0
VERTEX
  5
130E
  8
SAPA_PROFIL
 10
347.76695554918598
 20
78.804144674180904
 30
0.0
 42
0.2011813370902619
  0
VERTEX
  5
130F
  8
SAPA_PROFIL
 10
347.62430545935541
 20
78.744326527040855
 30
0.0
  0
VERTEX
  5
1310
  8
SAPA_PROFIL
 10
346.71359336633151
 20
77.81757916831117
 30
0.0
  0
VERTEX
  5
1311
  8
SAPA_PROFIL
 10
346.72680090907471
 20
76.304144674179099
 30
0.0
 42
-0.4931454260355948
  0
VERTEX
  5
1312
  8
SAPA_PROFIL
 10
346.94762779812243
 20
74.732879713941259
 30
0.0
  0
VERTEX
  5
1313
  8
SAPA_PROFIL
 10
345.89845122550952
 20
73.665229877116928
 30
0.0
 42
-0.6681786379164273
  0
VERTEX
  5
1314
  8
SAPA_PROFIL
 10
345.54855096802459
 20
73.806598757570612
 30
0.0
  0
VERTEX
  5
1315
  8
SAPA_PROFIL
 10
345.50930147942728
 20
78.304144674180904
 30
0.0
  0
SEQEND
  5
1316
  8
SAPA_PROFIL
  0
POLYLINE
  5
F80
  8
SAPA_PROFIL
 66
     1
 10
0.0
 20
0.0
 30
0.0
 70
     1
  0
VERTEX
  5
1317
  8
SAPA_PROFIL
 10
347.5868147386571
 20
31.292303046894791
 30
0.0
 42
-0.2038501166358089
  0
VERTEX
  5
1318
  8
SAPA_PROFIL
 10
347.72999759526311
 20
30.927996267476981
 30
0.0
  0
VERTEX
  5
1319
  8
SAPA_PROFIL
 10
347.31137148597389
 20
15.82328301487648
 30
0.0
 42
-0.4061212134722958
  0
VERTEX
  5
131A
  8
SAPA_PROFIL
 10
344.31252299887478
 20
12.90639589848449
 30
0.0
  0
VERTEX
  5
131B
  8
SAPA_PROFIL
 10
336.50473949772982
 20
12.90639589848449
 30
0.0
 42
-0.4142135623730951
  0
VERTEX
  5
131C
  8
SAPA_PROFIL
 10
336.00473949772982
 20
13.40639589848449
 30
0.0
  0
VERTEX
  5
131D
  8
SAPA_PROFIL
 10
336.00473949772982
 20
25.1164464048308
 30
0.0
 42
0.1989123673796573
  0
VERTEX
  5
131E
  8
SAPA_PROFIL
 10
335.41895306010309
 20
26.53065996720413
 30
0.0
  0
VERTEX
  5
131F
  8
SAPA_PROFIL
 10
333.80219469824101
 20
28.147418329065822
 30
0.0
 42
-0.1989123673796573
  0
VERTEX
  5
1320
  8
SAPA_PROFIL
 10
333.50930147942768
 20
28.854525110252482
 30
0.0
  0
VERTEX
  5
1321
  8
SAPA_PROFIL
 10
334.0069170166887
 20
37.804627728230273
 30
0.0
 42
0.6681786379236462
  0
VERTEX
  5
1322
  8
SAPA_PROFIL
 10
333.49176652689971
 20
38.018010047763859
 30
0.0
  0
VERTEX
  5
1323
  8
SAPA_PROFIL
 10
331.49228441197721
 20
36.018527932841309
 30
0.0
 42
0.7332303362587975
  0
VERTEX
  5
1324
  8
SAPA_PROFIL
 10
331.75651089963441
 20
35.510953572581613
 30
0.0
  0
VERTEX
  5
1325
  8
SAPA_PROFIL
 10
332.3723219930327
 20
35.619537683367682
 30
0.0
 42
-0.4663076581593609
  0
VERTEX
  5
1326
  8
SAPA_PROFIL
 10
332.7244164463329
 20
35.324095357464259
 30
0.0
  0
VERTEX
  5
1327
  8
SAPA_PROFIL
 10
332.22680090907193
 20
28.712761611896141
 30
0.0
 42
0.1989123673796569
  0
VERTEX
  5
1328
  8
SAPA_PROFIL
 10
332.8125873466991
 20
27.298548049522811
 30
0.0
  0
VERTEX
  5
1329
  8
SAPA_PROFIL
 10
334.4118462789163
 20
25.699289117305099
 30
0.0
 42
-0.1989123673796555
  0
VERTEX
  5
132A
  8
SAPA_PROFIL
 10
334.70473949773009
 20
24.992182336118891
 30
0.0
  0
VERTEX
  5
132B
  8
SAPA_PROFIL
 10
334.70473949773009
 20
13.706395898481031
 30
0.0
 42
-0.4142135623732283
  0
VERTEX
  5
132C
  8
SAPA_PROFIL
 10
334.20473949772958
 20
13.206395898481031
 30
0.0
  0
VERTEX
  5
132D
  8
SAPA_PROFIL
 10
333.00473949773033
 20
13.20639589848194
 30
0.0
 42
0.4142135623732616
  0
VERTEX
  5
132E
  8
SAPA_PROFIL
 10
332.70473949773009
 20
12.90639589848176
 30
0.0
  0
VERTEX
  5
132F
  8
SAPA_PROFIL
 10
332.70473949773009
 20
11.70639589849649
 30
0.0
 42
0.4142135623716522
  0
VERTEX
  5
1330
  8
SAPA_PROFIL
 10
333.00473949773072
 20
11.406395898494489
 30
0.0
  0
VERTEX
  5
1331
  8
SAPA_PROFIL
 10
348.90473949772951
 20
11.406395898471301
 30
0.0
 42
0.4142135623735277
  0
VERTEX
  5
1332
  8
SAPA_PROFIL
 10
349.20473949773009
 20
11.70639589847103
 30
0.0
  0
VERTEX
  5
1333
  8
SAPA_PROFIL
 10
349.20473949773009
 20
33.201772012163168
 30
0.0
 42
0.4210020197690798
  0
VERTEX
  5
1334
  8
SAPA_PROFIL
 10
349.00479295568613
 20
33.40639589848449
 30
0.0
  0
VERTEX
  5
1335
  8
SAPA_PROFIL
 10
348.20949948703287
 20
33.40639589848449
 30
0.0
  0
VERTEX
  5
1336
  8
SAPA_PROFIL
 10
348.20949948703287
 20
33.106395898484308
 30
0.0
 42
-0.4142135623730951
  0
VERTEX
  5
1337
  8
SAPA_PROFIL
 10
348.00949948703311
 20
32.90639589848449
 30
0.0
  0
VERTEX
  5
1338
  8
SAPA_PROFIL
 10
347.76695554918592
 20
32.90639589848449
 30
0.0
 42
-0.2011813370902619
  0
VERTEX
  5
1339
  8
SAPA_PROFIL
 10
347.6243054593553
 20
32.96621404562454
 30
0.0
  0
VERTEX
  5
133A
  8
SAPA_PROFIL
 10
346.71359336633139
 20
33.892961404354239
 30
0.0
  0
VERTEX
  5
133B
  8
SAPA_PROFIL
 10
346.72680090907471
 20
35.406395898486309
 30
0.0
 42
0.4931454260355948
  0
VERTEX
  5
133C
  8
SAPA_PROFIL
 10
346.94762779812231
 20
36.97766085872415
 30
0.0
  0
VERTEX
  5
133D
  8
SAPA_PROFIL
 10
345.89845122550952
 20
38.04531069554848
 30
0.0
 42
0.6681786379164273
  0
VERTEX
  5
133E
  8
SAPA_PROFIL
 10
345.54855096802447
 20
37.903941815094797
 30
0.0
  0
VERTEX
  5
133F
  8
SAPA_PROFIL
 10
345.50930147942722
 20
33.40639589848449
 30
0.0
  0
SEQEND
  5
1340
  8
SAPA_PROFIL
  0
POLYLINE
  5
F81
  8
SAPA_PROFIL
 66
     1
 10
0.0
 20
0.0
 30
0.0
 70
     1
  0
VERTEX
  5
1341
  8
SAPA_PROFIL
 10
350.40472812530641
 20
33.355270286332733
 30
0.0
 42
0.4142879064819451
  0
VERTEX
  5
1342
  8
SAPA_PROFIL
 10
350.70472811564292
 20
33.655346432329772
 30
0.0
  0
VERTEX
  5
1343
  8
SAPA_PROFIL
 10
350.70472811564639
 20
78.055194154750623
 30
0.0
 42
0.4142878924076678
  0
VERTEX
  5
1344
  8
SAPA_PROFIL
 10
350.40472812530641
 20
78.35527028633264
 30
0.0
  0
VERTEX
  5
1345
  8
SAPA_PROFIL
 10
347.81611169194701
 20
78.355270286332626
 30
0.0
 42
0.2596812337300058
  0
VERTEX
  5
1346
  8
SAPA_PROFIL
 10
347.646080880407
 20
78.260577091084514
 30
0.0
  0
VERTEX
  5
1347
  8
SAPA_PROFIL
 10
346.74968190316469
 20
76.813230493460452
 30
0.0
 42
0.5877032589249577
  0
VERTEX
  5
1348
  8
SAPA_PROFIL
 10
347.00472812047479
 20
76.355270286332711
 30
0.0
  0
VERTEX
  5
1349
  8
SAPA_PROFIL
 10
348.40472812047477
 20
76.355270286332726
 30
0.0
 42
-0.414213562373088
  0
VERTEX
  5
134A
  8
SAPA_PROFIL
 10
348.70472812047478
 20
76.055270286332743
 30
0.0
  0
VERTEX
  5
134B
  8
SAPA_PROFIL
 10
348.70472812047478
 20
73.655270286332737
 30
0.0
 42
-0.4142135623730882
  0
VERTEX
  5
134C
  8
SAPA_PROFIL
 10
348.40472812047477
 20
73.355270286332726
 30
0.0
  0
VERTEX
  5
134D
  8
SAPA_PROFIL
 10
331.00472812047479
 20
73.35527028633274
 30
0.0
 42
-0.4142135623730951
  0
VERTEX
  5
134E
  8
SAPA_PROFIL
 10
330.70472812047478
 20
73.655270286332751
 30
0.0
  0
VERTEX
  5
134F
  8
SAPA_PROFIL
 10
330.70472812047473
 20
76.055270286332757
 30
0.0
 42
-0.4142135623729892
  0
VERTEX
  5
1350
  8
SAPA_PROFIL
 10
331.00472812047479
 20
76.35527028633274
 30
0.0
  0
VERTEX
  5
1351
  8
SAPA_PROFIL
 10
332.40472812047477
 20
76.35527028633274
 30
0.0
 42
0.5920056181179401
  0
VERTEX
  5
1352
  8
SAPA_PROFIL
 10
332.65773687679172
 20
76.816473788859383
 30
0.0
  0
VERTEX
  5
1353
  8
SAPA_PROFIL
 10
331.86368387061532
 20
78.062739288017113
 30
0.0
 42
0.2562769736732679
  0
VERTEX
  5
1354
  8
SAPA_PROFIL
 10
331.69501136640389
 20
78.155270286332609
 30
0.0
  0
VERTEX
  5
1355
  8
SAPA_PROFIL
 10
328.69874445195683
 20
78.155270286332609
 30
0.0
  0
VERTEX
  5
1356
  8
SAPA_PROFIL
 10
327.38144677572149
 20
77.646123887021659
 30
0.0
 42
-0.4142135623730951
  0
VERTEX
  5
1357
  8
SAPA_PROFIL
 10
327.00726182024567
 20
77.846087931529055
 30
0.0
  0
VERTEX
  5
1358
  8
SAPA_PROFIL
 10
326.99274341099863
 20
77.893933681527542
 30
0.0
  0
VERTEX
  5
1359
  8
SAPA_PROFIL
 10
325.48964233023662
 20
77.894017289411195
 30
0.0
 42
0.476975532698163
  0
VERTEX
  5
135A
  8
SAPA_PROFIL
 10
325.1873895057301
 20
77.522360414465311
 30
0.0
  0
VERTEX
  5
135B
  8
SAPA_PROFIL
 10
325.56883610185793
 20
75.709129943807071
 30
0.0
 42
0.221694662643018
  0
VERTEX
  5
135C
  8
SAPA_PROFIL
 10
325.97464500701273
 20
75.16825011233027
 30
0.0
  0
VERTEX
  5
135D
  8
SAPA_PROFIL
 10
326.2593272902443
 20
75.016116201221521
 30
0.0
 42
0.5773502691897493
  0
VERTEX
  5
135E
  8
SAPA_PROFIL
 10
326.55348359049913
 20
75.199069941331686
 30
0.0
  0
VERTEX
  5
135F
  8
SAPA_PROFIL
 10
326.54292222427222
 20
75.520827669549945
 30
0.0
  0
VERTEX
  5
1360
  8
SAPA_PROFIL
 10
328.42876591613322
 20
76.605392116521685
 30
0.0
  0
VERTEX
  5
1361
  8
SAPA_PROFIL
 10
328.62014891612688
 20
76.663465753510764
 30
0.0
 42
-0.7625858545243216
  0
VERTEX
  5
1362
  8
SAPA_PROFIL
 10
328.80472811832442
 20
76.333139672493743
 30
0.0
 42
0.2134217652834399
  0
VERTEX
  5
1363
  8
SAPA_PROFIL
 10
328.70472811832428
 20
76.10953287474365
 30
0.0
  0
VERTEX
  5
1364
  8
SAPA_PROFIL
 10
328.70472811832423
 20
72.256746470243627
 30
0.0
 42
-0.4142135623730898
  0
VERTEX
  5
1365
  8
SAPA_PROFIL
 10
328.40472811832421
 20
71.95674647024363
 30
0.0
  0
VERTEX
  5
1366
  8
SAPA_PROFIL
 10
328.10472811832409
 20
71.95674647024363
 30
0.0
  0
VERTEX
  5
1367
  8
SAPA_PROFIL
 10
326.50472811832418
 20
72.880506900946926
 30
0.0
 42
0.5773502691898973
  0
VERTEX
  5
1368
  8
SAPA_PROFIL
 10
326.20472811832423
 20
72.70730182019004
 30
0.0
  0
VERTEX
  5
1369
  8
SAPA_PROFIL
 10
326.20472811832423
 20
71.321661174135016
 30
0.0
 42
0.2679491924311269
  0
VERTEX
  5
136A
  8
SAPA_PROFIL
 10
326.70472811832423
 20
70.455635770350554
 30
0.0
  0
VERTEX
  5
136B
  8
SAPA_PROFIL
 10
328.4547281157113
 20
69.445272800777332
 30
0.0
 42
-0.2679491924311212
  0
VERTEX
  5
136C
  8
SAPA_PROFIL
 10
328.7047281157113
 20
69.012260098885093
 30
0.0
  0
VERTEX
  5
136D
  8
SAPA_PROFIL
 10
328.70472811571119
 20
42.69828047378045
 30
0.0
 42
-0.2679491924311136
  0
VERTEX
  5
136E
  8
SAPA_PROFIL
 10
328.4547281157113
 20
42.265267771888247
 30
0.0
  0
VERTEX
  5
136F
  8
SAPA_PROFIL
 10
326.70472811832423
 20
41.254904802314847
 30
0.0
 42
0.2679491924311166
  0
VERTEX
  5
1370
  8
SAPA_PROFIL
 10
326.20472811832423
 20
40.388879398530449
 30
0.0
  0
VERTEX
  5
1371
  8
SAPA_PROFIL
 10
326.20472811832423
 20
39.003238752475362
 30
0.0
 42
0.577350269189614
  0
VERTEX
  5
1372
  8
SAPA_PROFIL
 10
326.50472811832418
 20
38.830033671718461
 30
0.0
  0
VERTEX
  5
1373
  8
SAPA_PROFIL
 10
328.10472811832409
 20
39.75379410242185
 30
0.0
  0
VERTEX
  5
1374
  8
SAPA_PROFIL
 10
328.40472811832421
 20
39.753794102421772
 30
0.0
 42
-0.4142135623730083
  0
VERTEX
  5
1375
  8
SAPA_PROFIL
 10
328.70472811832423
 20
39.453794102421853
 30
0.0
  0
VERTEX
  5
1376
  8
SAPA_PROFIL
 10
328.70472811832423
 20
35.601007697921837
 30
0.0
 42
0.2134217652834394
  0
VERTEX
  5
1377
  8
SAPA_PROFIL
 10
328.80472811832431
 20
35.377400900171722
 30
0.0
 42
-0.7625858545243364
  0
VERTEX
  5
1378
  8
SAPA_PROFIL
 10
328.62014891612682
 20
35.04707481915473
 30
0.0
  0
VERTEX
  5
1379
  8
SAPA_PROFIL
 10
328.4287659161331
 20
35.105148456143809
 30
0.0
  0
VERTEX
  5
137A
  8
SAPA_PROFIL
 10
326.54292222427199
 20
36.189712903115563
 30
0.0
  0
VERTEX
  5
137B
  8
SAPA_PROFIL
 10
326.55348359049901
 20
36.5114706313338
 30
0.0
 42
0.5773502691897365
  0
VERTEX
  5
137C
  8
SAPA_PROFIL
 10
326.2593272902443
 20
36.694424371443993
 30
0.0
  0
VERTEX
  5
137D
  8
SAPA_PROFIL
 10
325.9746450070125
 20
36.542290460335217
 30
0.0
 42
0.2216946626430184
  0
VERTEX
  5
137E
  8
SAPA_PROFIL
 10
325.56883610185781
 20
36.001410628858437
 30
0.0
  0
VERTEX
  5
137F
  8
SAPA_PROFIL
 10
325.18738950572998
 20
34.188180158200183
 30
0.0
 42
0.4769755326981641
  0
VERTEX
  5
1380
  8
SAPA_PROFIL
 10
325.48964233023651
 20
33.81652328325432
 30
0.0
  0
VERTEX
  5
1381
  8
SAPA_PROFIL
 10
326.99274341099851
 20
33.816606891137958
 30
0.0
  0
VERTEX
  5
1382
  8
SAPA_PROFIL
 10
327.00726182024562
 20
33.864452641136452
 30
0.0
 42
-0.4142135623730951
  0
VERTEX
  5
1383
  8
SAPA_PROFIL
 10
327.38144677572137
 20
34.064416685643842
 30
0.0
  0
VERTEX
  5
1384
  8
SAPA_PROFIL
 10
328.698744451957
 20
33.555270286332728
 30
0.0
  0
VERTEX
  5
1385
  8
SAPA_PROFIL
 10
331.69501136606982
 20
33.555270286332743
 30
0.0
 42
0.2562769743570819
  0
VERTEX
  5
1386
  8
SAPA_PROFIL
 10
331.863683870557
 20
33.647801285081137
 30
0.0
  0
VERTEX
  5
1387
  8
SAPA_PROFIL
 10
332.65773687237402
 20
34.894066784455262
 30
0.0
 42
0.5920056172513317
  0
VERTEX
  5
1388
  8
SAPA_PROFIL
 10
332.40472811564319
 20
35.35527028633264
 30
0.0
  0
VERTEX
  5
1389
  8
SAPA_PROFIL
 10
331.00472811564322
 20
35.35527028633274
 30
0.0
 42
-0.4142135623730916
  0
VERTEX
  5
138A
  8
SAPA_PROFIL
 10
330.70472811564321
 20
35.655270286332751
 30
0.0
  0
VERTEX
  5
138B
  8
SAPA_PROFIL
 10
330.70472811564332
 20
38.055270286332743
 30
0.0
 42
-0.4142135623730118
  0
VERTEX
  5
138C
  8
SAPA_PROFIL
 10
331.00472811564322
 20
38.35527028633274
 30
0.0
  0
VERTEX
  5
138D
  8
SAPA_PROFIL
 10
348.40472811564319
 20
38.35527028633264
 30
0.0
 42
-0.4142135623730948
  0
VERTEX
  5
138E
  8
SAPA_PROFIL
 10
348.70472811564332
 20
38.055270286332743
 30
0.0
  0
VERTEX
  5
138F
  8
SAPA_PROFIL
 10
348.70472811564309
 20
35.655270286332751
 30
0.0
 42
-0.4142135623732061
  0
VERTEX
  5
1390
  8
SAPA_PROFIL
 10
348.40472811564319
 20
35.35527028633274
 30
0.0
  0
VERTEX
  5
1391
  8
SAPA_PROFIL
 10
347.00472811564322
 20
35.355270286332633
 30
0.0
 42
0.5877032589248845
  0
VERTEX
  5
1392
  8
SAPA_PROFIL
 10
346.74968189833311
 20
34.897310079205042
 30
0.0
  0
VERTEX
  5
1393
  8
SAPA_PROFIL
 10
347.64608087557519
 20
33.449963481580852
 30
0.0
 42
0.2596812337301443
  0
VERTEX
  5
1394
  8
SAPA_PROFIL
 10
347.81611168711538
 20
33.355270286332733
 30
0.0
  0
SEQEND
  5
1395
  8
SAPA_PROFIL
  0
POLYLINE
  5
F82
  8
SAPA_PROFIL
 66
     1
 10
0.0
 20
0.0
 30
0.0
 70
     1
  0
VERTEX
  5
1396
  8
SAPA_PROFIL
 10
348.40472812530629
 20
42.355270286332733
 30
0.0
  0
VERTEX
  5
1397
  8
SAPA_PROFIL
 10
348.40472812530629
 20
43.755270286332738
 30
0.0
 42
-0.4142135623731021
  0
VERTEX
  5
1398
  8
SAPA_PROFIL
 10
348.7047281253063
 20
44.055270286332728
 30
0.0
  0
VERTEX
  5
1399
  8
SAPA_PROFIL
 10
348.80472812530633
 20
44.055270286332728
 30
0.0
 42
0.4142135623730847
  0
VERTEX
  5
139A
  8
SAPA_PROFIL
 10
349.00472812530631
 20
44.255270286332738
 30
0.0
  0
VERTEX
  5
139B
  8
SAPA_PROFIL
 10
349.00472812530631
 20
67.455270286332649
 30
0.0
 42
0.41421356237309
  0
VERTEX
  5
139C
  8
SAPA_PROFIL
 10
348.80472812530633
 20
67.655270286332652
 30
0.0
  0
VERTEX
  5
139D
  8
SAPA_PROFIL
 10
348.7047281253063
 20
67.655270286332765
 30
0.0
 42
-0.4142135623731055
  0
VERTEX
  5
139E
  8
SAPA_PROFIL
 10
348.40472812530629
 20
67.955270286332762
 30
0.0
  0
VERTEX
  5
139F
  8
SAPA_PROFIL
 10
348.40472812530629
 20
69.355270286332626
 30
0.0
 42
-0.4142135623731991
  0
VERTEX
  5
13A0
  8
SAPA_PROFIL
 10
348.7047281253063
 20
69.655270286332765
 30
0.0
  0
VERTEX
  5
13A1
  8
SAPA_PROFIL
 10
348.80472812530633
 20
69.655270286332765
 30
0.0
 42
0.4142135623730898
  0
VERTEX
  5
13A2
  8
SAPA_PROFIL
 10
349.0047281253062
 20
69.855270286332654
 30
0.0
  0
VERTEX
  5
13A3
  8
SAPA_PROFIL
 10
349.00472812530643
 20
71.355270286332626
 30
0.0
 42
0.4142135623731019
  0
VERTEX
  5
13A4
  8
SAPA_PROFIL
 10
348.70472812530642
 20
71.655270286332623
 30
0.0
  0
VERTEX
  5
13A5
  8
SAPA_PROFIL
 10
330.70472812153957
 20
71.655270286332623
 30
0.0
 42
0.4142135623730951
  0
VERTEX
  5
13A6
  8
SAPA_PROFIL
 10
330.40472812153962
 20
71.35527028633264
 30
0.0
  0
VERTEX
  5
13A7
  8
SAPA_PROFIL
 10
330.40472812153962
 20
69.855270286332754
 30
0.0
 42
0.4142135623730795
  0
VERTEX
  5
13A8
  8
SAPA_PROFIL
 10
330.60472812153949
 20
69.65527028633268
 30
0.0
  0
VERTEX
  5
13A9
  8
SAPA_PROFIL
 10
330.70472812058591
 20
69.65527028633278
 30
0.0
 42
-0.4142135624945151
  0
VERTEX
  5
13AA
  8
SAPA_PROFIL
 10
331.00472812058592
 20
69.355270286208381
 30
0.0
  0
VERTEX
  5
13AB
  8
SAPA_PROFIL
 10
331.00472812000561
 20
67.955270286208375
 30
0.0
 42
-0.414213562251668
  0
VERTEX
  5
13AC
  8
SAPA_PROFIL
 10
330.70472812000548
 20
67.65527028633278
 30
0.0
  0
VERTEX
  5
13AD
  8
SAPA_PROFIL
 10
330.6047281213776
 20
67.65527028633278
 30
0.0
 42
0.4142135621360074
  0
VERTEX
  5
13AE
  8
SAPA_PROFIL
 10
330.4047281213775
 20
67.455270286494539
 30
0.0
  0
VERTEX
  5
13AF
  8
SAPA_PROFIL
 10
330.40472811490213
 20
44.255270286494628
 30
0.0
 42
0.4142135626101672
  0
VERTEX
  5
13B0
  8
SAPA_PROFIL
 10
330.604728114902
 20
44.055270286332743
 30
0.0
  0
VERTEX
  5
13B1
  8
SAPA_PROFIL
 10
330.70472811627423
 20
44.05527028633275
 30
0.0
 42
-0.4142135624945428
  0
VERTEX
  5
13B2
  8
SAPA_PROFIL
 10
331.00472811627418
 20
43.755270286208358
 30
0.0
  0
VERTEX
  5
13B3
  8
SAPA_PROFIL
 10
331.00472811569381
 20
42.355270286208352
 30
0.0
 42
-0.4142135622516402
  0
VERTEX
  5
13B4
  8
SAPA_PROFIL
 10
330.7047281156938
 20
42.055270286332743
 30
0.0
  0
VERTEX
  5
13B5
  8
SAPA_PROFIL
 10
330.60472811549113
 20
42.055270286332743
 30
0.0
 42
0.414213562258404
  0
VERTEX
  5
13B6
  8
SAPA_PROFIL
 10
330.40472811549108
 20
41.855270286411049
 30
0.0
  0
VERTEX
  5
13B7
  8
SAPA_PROFIL
 10
330.40472811486711
 20
40.355270286457539
 30
0.0
 42
0.4142135624949383
  0
VERTEX
  5
13B8
  8
SAPA_PROFIL
 10
330.70472811486712
 20
40.055270286332743
 30
0.0
  0
VERTEX
  5
13B9
  8
SAPA_PROFIL
 10
348.7047281253063
 20
40.055270286332728
 30
0.0
 42
0.4142135623730882
  0
VERTEX
  5
13BA
  8
SAPA_PROFIL
 10
349.00472812530631
 20
40.355270286332711
 30
0.0
  0
VERTEX
  5
13BB
  8
SAPA_PROFIL
 10
349.00472812530643
 20
41.85527028633274
 30
0.0
 42
0.4142135623730847
  0
VERTEX
  5
13BC
  8
SAPA_PROFIL
 10
348.80472812530638
 20
42.055270286332728
 30
0.0
  0
VERTEX
  5
13BD
  8
SAPA_PROFIL
 10
348.7047281253063
 20
42.055270286332728
 30
0.0
 42
-0.4142135623730881
  0
SEQEND
  5
13BE
  8
SAPA_PROFIL
  0
POLYLINE
  5
F83
  8
SAPA_PROFIL
 66
     1
 10
0.0
 20
0.0
 30
0.0
 70
     1
  0
VERTEX
  5
13BF
  8
SAPA_PROFIL
 10
268.6307303994738
 20
13.326322656967619
 30
0.0
 42
-0.2896898632860137
  0
VERTEX
  5
13C0
  8
SAPA_PROFIL
 10
269.2021589708466
 20
12.42281475408887
 30
0.0
  0
VERTEX
  5
13C1
  8
SAPA_PROFIL
 10
269.2021589708466
 20
11.65527028607843
 30
0.0
 42
-0.4142135623901325
  0
VERTEX
  5
13C2
  8
SAPA_PROFIL
 10
268.90215897082908
 20
11.35527028607842
 30
0.0
  0
VERTEX
  5
13C3
  8
SAPA_PROFIL
 10
265.20472811972371
 20
11.355270286290221
 30
0.0
 42
-0.4142342928453111
  0
VERTEX
  5
13C4
  8
SAPA_PROFIL
 10
264.70472812100519
 20
11.855305675189671
 30
0.0
  0
VERTEX
  5
13C5
  8
SAPA_PROFIL
 10
264.70472812100519
 20
99.855234897591771
 30
0.0
 42
-0.4142342928453111
  0
VERTEX
  5
13C6
  8
SAPA_PROFIL
 10
265.20472811972371
 20
100.3552702864912
 30
0.0
  0
VERTEX
  5
13C7
  8
SAPA_PROFIL
 10
268.90215897082908
 20
100.355270286703
 30
0.0
 42
-0.4142135623901327
  0
VERTEX
  5
13C8
  8
SAPA_PROFIL
 10
269.2021589708466
 20
100.05527028670301
 30
0.0
  0
VERTEX
  5
13C9
  8
SAPA_PROFIL
 10
269.2021589708466
 20
99.28772581869255
 30
0.0
 42
-0.2896898632860131
  0
VERTEX
  5
13CA
  8
SAPA_PROFIL
 10
268.63073039947318
 20
98.384217915815213
 30
0.0
 42
-0.5507604245874158
  0
VERTEX
  5
13CB
  8
SAPA_PROFIL
 10
268.20215897089219
 20
98.655270286656815
 30
0.0
  0
VERTEX
  5
13CC
  8
SAPA_PROFIL
 10
268.20215897087547
 20
98.855270286667135
 30
0.0
 42
0.4142135623681004
  0
VERTEX
  5
13CD
  8
SAPA_PROFIL
 10
267.90215897086318
 20
99.155270286649639
 30
0.0
  0
VERTEX
  5
13CE
  8
SAPA_PROFIL
 10
266.404728119852
 20
99.15527028659001
 30
0.0
 42
0.4142135623609412
  0
VERTEX
  5
13CF
  8
SAPA_PROFIL
 10
265.90472811985211
 20
98.655270286590024
 30
0.0
  0
VERTEX
  5
13D0
  8
SAPA_PROFIL
 10
265.90472811985211
 20
95.355270286589089
 30
0.0
 42
0.4142135623852489
  0
VERTEX
  5
13D1
  8
SAPA_PROFIL
 10
266.4047281198728
 20
94.855270286589104
 30
0.0
  0
VERTEX
  5
13D2
  8
SAPA_PROFIL
 10
267.90215897082959
 20
94.855270286648803
 30
0.0
 42
0.414213562378076
  0
VERTEX
  5
13D3
  8
SAPA_PROFIL
 10
268.20215897081732
 20
95.155270286666294
 30
0.0
  0
VERTEX
  5
13D4
  8
SAPA_PROFIL
 10
268.20215897080618
 20
95.355270286656307
 30
0.0
 42
-0.5507604245840377
  0
VERTEX
  5
13D5
  8
SAPA_PROFIL
 10
268.63073039935932
 20
95.626322657553374
 30
0.0
 42
-0.2896898633204006
  0
VERTEX
  5
13D6
  8
SAPA_PROFIL
 10
269.2021589708466
 20
94.722814754620245
 30
0.0
  0
VERTEX
  5
13D7
  8
SAPA_PROFIL
 10
269.2021589708466
 20
93.681598609228033
 30
0.0
  0
VERTEX
  5
13D8
  8
SAPA_PROFIL
 10
268.91771667670389
 20
92.068446197726288
 30
0.0
 42
-0.8390996311772052
  0
VERTEX
  5
13D9
  8
SAPA_PROFIL
 10
267.93290892369168
 20
92.068446197726288
 30
0.0
  0
VERTEX
  5
13DA
  8
SAPA_PROFIL
 10
267.72596308410971
 20
93.242094375393293
 30
0.0
 42
0.3639702342661921
  0
VERTEX
  5
13DB
  8
SAPA_PROFIL
 10
267.23355920760361
 20
93.655270286559798
 30
0.0
  0
VERTEX
  5
13DC
  8
SAPA_PROFIL
 10
266.4050845751143
 20
93.655270286559798
 30
0.0
 42
0.4261326089429979
  0
VERTEX
  5
13DD
  8
SAPA_PROFIL
 10
265.9054950274259
 20
93.13501482209918
 30
0.0
  0
VERTEX
  5
13DE
  8
SAPA_PROFIL
 10
266.49305760255498
 20
78.643117007656286
 30
0.0
 42
0.4023941304324691
  0
VERTEX
  5
13DF
  8
SAPA_PROFIL
 10
266.79281133116808
 20
78.355270286332654
 30
0.0
  0
VERTEX
  5
13E0
  8
SAPA_PROFIL
 10
267.59334454953301
 20
78.355270286332598
 30
0.0
 42
-0.2596812337300827
  0
VERTEX
  5
13E1
  8
SAPA_PROFIL
 10
267.76337536107309
 20
78.260577091084457
 30
0.0
  0
VERTEX
  5
13E2
  8
SAPA_PROFIL
 10
268.65977433831529
 20
76.813230493460352
 30
0.0
 42
-0.5877032589250061
  0
VERTEX
  5
13E3
  8
SAPA_PROFIL
 10
268.40472812100518
 20
76.355270286332654
 30
0.0
  0
VERTEX
  5
13E4
  8
SAPA_PROFIL
 10
267.0047281210052
 20
76.355270286332654
 30
0.0
 42
0.4142135623731228
  0
VERTEX
  5
13E5
  8
SAPA_PROFIL
 10
266.70472812100508
 20
76.055270286332558
 30
0.0
  0
VERTEX
  5
13E6
  8
SAPA_PROFIL
 10
266.70472812100508
 20
73.655270286332652
 30
0.0
 42
0.4142135623730882
  0
VERTEX
  5
13E7
  8
SAPA_PROFIL
 10
267.00472812100509
 20
73.355270286332654
 30
0.0
  0
VERTEX
  5
13E8
  8
SAPA_PROFIL
 10
276.60472812100522
 20
73.355270286332654
 30
0.0
 42
0.4142135623731436
  0
VERTEX
  5
13E9
  8
SAPA_PROFIL
 10
276.90472812100518
 20
73.655270286332751
 30
0.0
  0
VERTEX
  5
13EA
  8
SAPA_PROFIL
 10
276.90472812100529
 20
78.055270286332657
 30
0.0
 42
-0.4142135623731642
  0
VERTEX
  5
13EB
  8
SAPA_PROFIL
 10
277.2047281210053
 20
78.355270286332754
 30
0.0
  0
VERTEX
  5
13EC
  8
SAPA_PROFIL
 10
278.68881618635862
 20
78.355270286332654
 30
0.0
 42
-0.2596812337301253
  0
VERTEX
  5
13ED
  8
SAPA_PROFIL
 10
278.85884699789858
 20
78.260577091084457
 30
0.0
  0
VERTEX
  5
13EE
  8
SAPA_PROFIL
 10
279.25977434245038
 20
77.613230493460364
 30
0.0
 42
-0.587703258924981
  0
VERTEX
  5
13EF
  8
SAPA_PROFIL
 10
279.00472812514028
 20
77.155270286332652
 30
0.0
  0
VERTEX
  5
13F0
  8
SAPA_PROFIL
 10
278.60472812100522
 20
77.155270286332652
 30
0.0
 42
0.4142135623731785
  0
VERTEX
  5
13F1
  8
SAPA_PROFIL
 10
278.3047281210051
 20
76.855270286332754
 30
0.0
  0
VERTEX
  5
13F2
  8
SAPA_PROFIL
 10
278.30472812100521
 20
73.655270286332652
 30
0.0
 42
0.414213562373192
  0
VERTEX
  5
13F3
  8
SAPA_PROFIL
 10
278.60472812100522
 20
73.355270286332654
 30
0.0
  0
VERTEX
  5
13F4
  8
SAPA_PROFIL
 10
284.40472812100518
 20
73.355270286332654
 30
0.0
 42
0.4142135623731365
  0
VERTEX
  5
13F5
  8
SAPA_PROFIL
 10
284.70472812100519
 20
73.655270286332652
 30
0.0
  0
VERTEX
  5
13F6
  8
SAPA_PROFIL
 10
284.70472812100519
 20
76.055270286332558
 30
0.0
 42
0.4142135623730673
  0
VERTEX
  5
13F7
  8
SAPA_PROFIL
 10
284.40472812100518
 20
76.355270286332654
 30
0.0
  0
VERTEX
  5
13F8
  8
SAPA_PROFIL
 10
283.0047281210052
 20
76.355270286332654
 30
0.0
 42
-0.5920056181179723
  0
VERTEX
  5
13F9
  8
SAPA_PROFIL
 10
282.7517193646882
 20
76.816473788859469
 30
0.0
  0
VERTEX
  5
13FA
  8
SAPA_PROFIL
 10
283.54577237086488
 20
78.062739288017099
 30
0.0
 42
-0.256276973673226
  0
VERTEX
  5
13FB
  8
SAPA_PROFIL
 10
283.7144448750762
 20
78.155270286332552
 30
0.0
  0
VERTEX
  5
13FC
  8
SAPA_PROFIL
 10
286.71071178469111
 20
78.155270286332666
 30
0.0
  0
VERTEX
  5
13FD
  8
SAPA_PROFIL
 10
288.02800946092702
 20
77.64612388702146
 30
0.0
 42
0.4142135623730953
  0
VERTEX
  5
13FE
  8
SAPA_PROFIL
 10
288.40219441640278
 20
77.846087931528857
 30
0.0
  0
VERTEX
  5
13FF
  8
SAPA_PROFIL
 10
288.41671282564988
 20
77.893933681527344
 30
0.0
  0
VERTEX
  5
1400
  8
SAPA_PROFIL
 10
289.91981390641189
 20
77.894017289410982
 30
0.0
 42
-0.4769755326981643
  0
VERTEX
  5
1401
  8
SAPA_PROFIL
 10
290.22206673091841
 20
77.522360414465126
 30
0.0
  0
VERTEX
  5
1402
  8
SAPA_PROFIL
 10
289.84062013479058
 20
75.709129943806872
 30
0.0
 42
-0.2216946626430191
  0
VERTEX
  5
1403
  8
SAPA_PROFIL
 10
289.43481122963578
 20
75.168250112330085
 30
0.0
  0
VERTEX
  5
1404
  8
SAPA_PROFIL
 10
289.15012894640421
 20
75.016116201221308
 30
0.0
 42
-0.5773502691897466
  0
VERTEX
  5
1405
  8
SAPA_PROFIL
 10
288.85597264614938
 20
75.199069941331501
 30
0.0
  0
VERTEX
  5
1406
  8
SAPA_PROFIL
 10
288.86653401237629
 20
75.520827669549746
 30
0.0
  0
VERTEX
  5
1407
  8
SAPA_PROFIL
 10
286.98069032051529
 20
76.605392116521486
 30
0.0
  0
VERTEX
  5
1408
  8
SAPA_PROFIL
 10
286.78930732052157
 20
76.663465753510565
 30
0.0
 42
0.7625858545243257
  0
VERTEX
  5
1409
  8
SAPA_PROFIL
 10
286.60472811832409
 20
76.333139672493573
 30
0.0
 42
-0.2134217652834387
  0
VERTEX
  5
140A
  8
SAPA_PROFIL
 10
286.70472811832423
 20
76.109532874743451
 30
0.0
  0
VERTEX
  5
140B
  8
SAPA_PROFIL
 10
286.70472811832423
 20
72.256746470243456
 30
0.0
 42
0.4142135623730118
  0
VERTEX
  5
140C
  8
SAPA_PROFIL
 10
287.00472811832418
 20
71.956746470243459
 30
0.0
  0
VERTEX
  5
140D
  8
SAPA_PROFIL
 10
287.30472811832431
 20
71.956746470243459
 30
0.0
  0
VERTEX
  5
140E
  8
SAPA_PROFIL
 10
288.90472811832421
 20
72.880506900946841
 30
0.0
 42
-0.5773502691897005
  0
VERTEX
  5
140F
  8
SAPA_PROFIL
 10
289.20472811832423
 20
72.707301820189954
 30
0.0
  0
VERTEX
  5
1410
  8
SAPA_PROFIL
 10
289.20472811832423
 20
71.321661174134874
 30
0.0
 42
-0.2679491924311188
  0
VERTEX
  5
1411
  8
SAPA_PROFIL
 10
288.70472811832423
 20
70.455635770350455
 30
0.0
  0
VERTEX
  5
1412
  8
SAPA_PROFIL
 10
286.95472812093698
 20
69.445272800777076
 30
0.0
 42
0.2679491924311213
  0
VERTEX
  5
1413
  8
SAPA_PROFIL
 10
286.70472812093698
 20
69.012260098884852
 30
0.0
  0
VERTEX
  5
1414
  8
SAPA_PROFIL
 10
286.70472812093698
 20
42.69828047378018
 30
0.0
 42
0.267949192431141
  0
VERTEX
  5
1415
  8
SAPA_PROFIL
 10
286.95472812093709
 20
42.265267771887927
 30
0.0
  0
VERTEX
  5
1416
  8
SAPA_PROFIL
 10
288.70472811832423
 20
41.254904802314698
 30
0.0
 42
-0.2679491924311325
  0
VERTEX
  5
1417
  8
SAPA_PROFIL
 10
289.20472811832423
 20
40.388879398530243
 30
0.0
  0
VERTEX
  5
1418
  8
SAPA_PROFIL
 10
289.20472811832423
 20
39.003238752475262
 30
0.0
 42
-0.5773502691896886
  0
VERTEX
  5
1419
  8
SAPA_PROFIL
 10
288.90472811832421
 20
38.830033671718361
 30
0.0
  0
VERTEX
  5
141A
  8
SAPA_PROFIL
 10
287.30472811832431
 20
39.753794102421637
 30
0.0
  0
VERTEX
  5
141B
  8
SAPA_PROFIL
 10
287.00472811832418
 20
39.753794102421637
 30
0.0
 42
0.4142135623730813
  0
VERTEX
  5
141C
  8
SAPA_PROFIL
 10
286.70472811832423
 20
39.453794102421661
 30
0.0
  0
VERTEX
  5
141D
  8
SAPA_PROFIL
 10
286.70472811832423
 20
35.601007697921759
 30
0.0
 42
-0.2134217652834387
  0
VERTEX
  5
141E
  8
SAPA_PROFIL
 10
286.60472811832409
 20
35.377400900171651
 30
0.0
 42
0.7625858545243244
  0
VERTEX
  5
141F
  8
SAPA_PROFIL
 10
286.78930732052157
 20
35.047074819154631
 30
0.0
  0
VERTEX
  5
1420
  8
SAPA_PROFIL
 10
286.98069032051529
 20
35.105148456143723
 30
0.0
  0
VERTEX
  5
1421
  8
SAPA_PROFIL
 10
288.86653401237629
 20
36.189712903115463
 30
0.0
  0
VERTEX
  5
1422
  8
SAPA_PROFIL
 10
288.85597264614938
 20
36.511470631333722
 30
0.0
 42
-0.5773502691897466
  0
VERTEX
  5
1423
  8
SAPA_PROFIL
 10
289.15012894640421
 20
36.69442437144388
 30
0.0
  0
VERTEX
  5
1424
  8
SAPA_PROFIL
 10
289.43481122963578
 20
36.542290460335131
 30
0.0
 42
-0.2216946626430191
  0
VERTEX
  5
1425
  8
SAPA_PROFIL
 10
289.84062013479058
 20
36.001410628858338
 30
0.0
  0
VERTEX
  5
1426
  8
SAPA_PROFIL
 10
290.22206673091841
 20
34.188180158200097
 30
0.0
 42
-0.4769755326981641
  0
VERTEX
  5
1427
  8
SAPA_PROFIL
 10
289.91981390641189
 20
33.816523283254213
 30
0.0
  0
VERTEX
  5
1428
  8
SAPA_PROFIL
 10
288.41671282564988
 20
33.816606891137873
 30
0.0
  0
VERTEX
  5
1429
  8
SAPA_PROFIL
 10
288.40219441640278
 20
33.86445264113636
 30
0.0
 42
0.4142135623730953
  0
VERTEX
  5
142A
  8
SAPA_PROFIL
 10
288.02800946092702
 20
34.064416685643749
 30
0.0
  0
VERTEX
  5
142B
  8
SAPA_PROFIL
 10
286.71071178469111
 20
33.555270286332572
 30
0.0
  0
VERTEX
  5
142C
  8
SAPA_PROFIL
 10
283.7144448750762
 20
33.555270286332629
 30
0.0
 42
-0.256276973673252
  0
VERTEX
  5
142D
  8
SAPA_PROFIL
 10
283.54577237086482
 20
33.647801284648096
 30
0.0
  0
VERTEX
  5
142E
  8
SAPA_PROFIL
 10
282.75171936468809
 20
34.894066783805741
 30
0.0
 42
-0.592005618117933
  0
VERTEX
  5
142F
  8
SAPA_PROFIL
 10
283.0047281210052
 20
35.355270286332569
 30
0.0
  0
VERTEX
  5
1430
  8
SAPA_PROFIL
 10
284.40472812100518
 20
35.355270286332569
 30
0.0
 42
0.4142135623730951
  0
VERTEX
  5
1431
  8
SAPA_PROFIL
 10
284.70472812100519
 20
35.655270286332673
 30
0.0
  0
VERTEX
  5
1432
  8
SAPA_PROFIL
 10
284.70472812100519
 20
38.055270286332551
 30
0.0
 42
0.4142135623731228
  0
VERTEX
  5
1433
  8
SAPA_PROFIL
 10
284.40472812100512
 20
38.355270286332562
 30
0.0
  0
VERTEX
  5
1434
  8
SAPA_PROFIL
 10
278.60472812100522
 20
38.355270286332569
 30
0.0
 42
0.4142135623731782
  0
VERTEX
  5
1435
  8
SAPA_PROFIL
 10
278.30472812100521
 20
38.055270286332558
 30
0.0
  0
VERTEX
  5
1436
  8
SAPA_PROFIL
 10
278.3047281210051
 20
34.855270286332441
 30
0.0
 42
0.4142135623731784
  0
VERTEX
  5
1437
  8
SAPA_PROFIL
 10
278.60472812100522
 20
34.555270286332537
 30
0.0
  0
VERTEX
  5
1438
  8
SAPA_PROFIL
 10
279.00472812514028
 20
34.555270286332522
 30
0.0
 42
-0.5877032589250061
  0
VERTEX
  5
1439
  8
SAPA_PROFIL
 10
279.25977434245033
 20
34.097310079204831
 30
0.0
  0
VERTEX
  5
143A
  8
SAPA_PROFIL
 10
278.85884699789852
 20
33.449963481580767
 30
0.0
 42
-0.2596812337301637
  0
VERTEX
  5
143B
  8
SAPA_PROFIL
 10
278.68881618635851
 20
33.355270286332562
 30
0.0
  0
VERTEX
  5
143C
  8
SAPA_PROFIL
 10
277.2047281210053
 20
33.355270286332498
 30
0.0
 42
-0.4142135623730951
  0
VERTEX
  5
143D
  8
SAPA_PROFIL
 10
276.90472812100529
 20
33.655270286332453
 30
0.0
  0
VERTEX
  5
143E
  8
SAPA_PROFIL
 10
276.90472812100518
 20
38.055270286332451
 30
0.0
 42
0.4142135623730395
  0
VERTEX
  5
143F
  8
SAPA_PROFIL
 10
276.60472812100522
 20
38.355270286332569
 30
0.0
  0
VERTEX
  5
1440
  8
SAPA_PROFIL
 10
267.00472812100509
 20
38.355270286332569
 30
0.0
 42
0.4142135623730951
  0
VERTEX
  5
1441
  8
SAPA_PROFIL
 10
266.70472812100508
 20
38.055270286332558
 30
0.0
  0
VERTEX
  5
1442
  8
SAPA_PROFIL
 10
266.70472812100508
 20
35.655270286332673
 30
0.0
 42
0.4142135623730951
  0
VERTEX
  5
1443
  8
SAPA_PROFIL
 10
267.00472812100509
 20
35.355270286332569
 30
0.0
  0
VERTEX
  5
1444
  8
SAPA_PROFIL
 10
268.40472812100518
 20
35.355270286332562
 30
0.0
 42
-0.5877032589250196
  0
VERTEX
  5
1445
  8
SAPA_PROFIL
 10
268.65977433831517
 20
34.89731007920485
 30
0.0
  0
VERTEX
  5
1446
  8
SAPA_PROFIL
 10
267.76337536107309
 20
33.449963481580731
 30
0.0
 42
-0.2596812337301095
  0
VERTEX
  5
1447
  8
SAPA_PROFIL
 10
267.59334454953301
 20
33.355270286332562
 30
0.0
  0
VERTEX
  5
1448
  8
SAPA_PROFIL
 10
266.79281133116802
 20
33.355270286332562
 30
0.0
 42
0.4023941304324619
  0
VERTEX
  5
1449
  8
SAPA_PROFIL
 10
266.49305760255498
 20
33.067423565008937
 30
0.0
  0
VERTEX
  5
144A
  8
SAPA_PROFIL
 10
265.90625883954829
 20
18.59436474354564
 30
0.0
 42
0.437328258628425
  0
VERTEX
  5
144B
  8
SAPA_PROFIL
 10
266.404728119852
 20
18.055270286221649
 30
0.0
  0
VERTEX
  5
144C
  8
SAPA_PROFIL
 10
267.23355920760361
 20
18.055270286221649
 30
0.0
 42
0.3639702342661842
  0
VERTEX
  5
144D
  8
SAPA_PROFIL
 10
267.72596308410959
 20
18.46844619738815
 30
0.0
  0
VERTEX
  5
144E
  8
SAPA_PROFIL
 10
267.93290892369168
 20
19.642094375055159
 30
0.0
 42
-0.8390996311772052
  0
VERTEX
  5
144F
  8
SAPA_PROFIL
 10
268.91771667670389
 20
19.642094375055159
 30
0.0
  0
VERTEX
  5
1450
  8
SAPA_PROFIL
 10
269.2021589708466
 20
18.028941963553422
 30
0.0
  0
VERTEX
  5
1451
  8
SAPA_PROFIL
 10
269.20215897084643
 20
16.987725818161181
 30
0.0
 42
-0.289689863320401
  0
VERTEX
  5
1452
  8
SAPA_PROFIL
 10
268.63073039935938
 20
16.084217915227718
 30
0.0
 42
-0.5507604245840359
  0
VERTEX
  5
1453
  8
SAPA_PROFIL
 10
268.20215897080561
 20
16.35527028612514
 30
0.0
  0
VERTEX
  5
1454
  8
SAPA_PROFIL
 10
268.20215897081732
 20
16.555270286115132
 30
0.0
 42
0.4142135623780689
  0
VERTEX
  5
1455
  8
SAPA_PROFIL
 10
267.90215897082959
 20
16.855270286132619
 30
0.0
  0
VERTEX
  5
1456
  8
SAPA_PROFIL
 10
266.4047281198728
 20
16.855270286192329
 30
0.0
 42
0.4142135623852489
  0
VERTEX
  5
1457
  8
SAPA_PROFIL
 10
265.90472811985211
 20
16.35527028619234
 30
0.0
  0
VERTEX
  5
1458
  8
SAPA_PROFIL
 10
265.90472811985211
 20
13.05527028619141
 30
0.0
 42
0.4142135623609412
  0
VERTEX
  5
1459
  8
SAPA_PROFIL
 10
266.404728119852
 20
12.55527028619141
 30
0.0
  0
VERTEX
  5
145A
  8
SAPA_PROFIL
 10
267.90215897086313
 20
12.55527028613178
 30
0.0
 42
0.4142135623680934
  0
VERTEX
  5
145B
  8
SAPA_PROFIL
 10
268.20215897087547
 20
12.855270286114321
 30
0.0
  0
VERTEX
  5
145C
  8
SAPA_PROFIL
 10
268.20215897089059
 20
13.055270286124619
 30
0.0
 42
-0.5507604245873914
  0
SEQEND
  5
145D
  8
SAPA_PROFIL
  0
POLYLINE
  5
F84
  8
SAPA_PROFIL
 66
     1
 10
0.0
 20
0.0
 30
0.0
 70
     1
  0
VERTEX
  5
145E
  8
SAPA_PROFIL
 10
266.40472811629797
 20
71.355270286215074
 30
0.0
  0
VERTEX
  5
145F
  8
SAPA_PROFIL
 10
266.4047281169245
 20
69.855270286254239
 30
0.0
 42
0.414213562258404
  0
VERTEX
  5
1460
  8
SAPA_PROFIL
 10
266.60472811692449
 20
69.655270286332552
 30
0.0
  0
VERTEX
  5
1461
  8
SAPA_PROFIL
 10
266.70472811712722
 20
69.655270286332552
 30
0.0
 42
-0.4142135622516681
  0
VERTEX
  5
1462
  8
SAPA_PROFIL
 10
267.00472811712717
 20
69.355270286456928
 30
0.0
  0
VERTEX
  5
1463
  8
SAPA_PROFIL
 10
267.0047281177076
 20
67.955270286456937
 30
0.0
 42
-0.4142135624945151
  0
VERTEX
  5
1464
  8
SAPA_PROFIL
 10
266.70472811770759
 20
67.655270286332552
 30
0.0
  0
VERTEX
  5
1465
  8
SAPA_PROFIL
 10
266.60472812291482
 20
67.655270286332552
 30
0.0
 42
0.4142135622879664
  0
VERTEX
  5
1466
  8
SAPA_PROFIL
 10
266.40472812291478
 20
67.455270286390686
 30
0.0
  0
VERTEX
  5
1467
  8
SAPA_PROFIL
 10
266.40472811623169
 20
44.255270286390783
 30
0.0
 42
0.4142135624582238
  0
VERTEX
  5
1468
  8
SAPA_PROFIL
 10
266.60472811623168
 20
44.055270286332672
 30
0.0
  0
VERTEX
  5
1469
  8
SAPA_PROFIL
 10
266.70472811770759
 20
44.055270286332672
 30
0.0
 42
-0.4142135624945153
  0
VERTEX
  5
146A
  8
SAPA_PROFIL
 10
267.0047281177076
 20
43.755270286208287
 30
0.0
  0
VERTEX
  5
146B
  8
SAPA_PROFIL
 10
267.00472811712717
 20
42.355270286208281
 30
0.0
 42
-0.414213562251675
  0
VERTEX
  5
146C
  8
SAPA_PROFIL
 10
266.70472811712722
 20
42.055270286332672
 30
0.0
  0
VERTEX
  5
146D
  8
SAPA_PROFIL
 10
266.60472811692449
 20
42.055270286332672
 30
0.0
 42
0.4142135622584143
  0
VERTEX
  5
146E
  8
SAPA_PROFIL
 10
266.4047281169245
 20
41.855270286410978
 30
0.0
  0
VERTEX
  5
146F
  8
SAPA_PROFIL
 10
266.40472811629797
 20
40.355270286450121
 30
0.0
 42
0.4142135624877722
  0
VERTEX
  5
1470
  8
SAPA_PROFIL
 10
266.70472811629787
 20
40.055270286332643
 30
0.0
  0
VERTEX
  5
1471
  8
SAPA_PROFIL
 10
284.70472812673972
 20
40.055270286332629
 30
0.0
 42
0.4142135623730812
  0
VERTEX
  5
1472
  8
SAPA_PROFIL
 10
285.00472812673962
 20
40.355270286332633
 30
0.0
  0
VERTEX
  5
1473
  8
SAPA_PROFIL
 10
285.00472812673968
 20
41.855270286332647
 30
0.0
 42
0.4142135623730951
  0
VERTEX
  5
1474
  8
SAPA_PROFIL
 10
284.80472812673969
 20
42.055270286332657
 30
0.0
  0
VERTEX
  5
1475
  8
SAPA_PROFIL
 10
284.70472812673972
 20
42.05527028633265
 30
0.0
 42
-0.4142135623730951
  0
VERTEX
  5
1476
  8
SAPA_PROFIL
 10
284.40472812673971
 20
42.355270286332662
 30
0.0
  0
VERTEX
  5
1477
  8
SAPA_PROFIL
 10
284.40472812673971
 20
43.755270286332653
 30
0.0
 42
-0.4142135623730951
  0
VERTEX
  5
1478
  8
SAPA_PROFIL
 10
284.70472812673972
 20
44.055270286332657
 30
0.0
  0
VERTEX
  5
1479
  8
SAPA_PROFIL
 10
284.80472812673958
 20
44.055270286332657
 30
0.0
 42
0.4142135623730743
  0
VERTEX
  5
147A
  8
SAPA_PROFIL
 10
285.00472812673962
 20
44.255270286332653
 30
0.0
  0
VERTEX
  5
147B
  8
SAPA_PROFIL
 10
285.00472812673968
 20
67.455270286332564
 30
0.0
 42
0.4142135623730743
  0
VERTEX
  5
147C
  8
SAPA_PROFIL
 10
284.80472812673958
 20
67.655270286332552
 30
0.0
  0
VERTEX
  5
147D
  8
SAPA_PROFIL
 10
284.70472812673972
 20
67.655270286332552
 30
0.0
 42
-0.4142135623730951
  0
VERTEX
  5
147E
  8
SAPA_PROFIL
 10
284.40472812673971
 20
67.955270286332564
 30
0.0
  0
VERTEX
  5
147F
  8
SAPA_PROFIL
 10
284.40472812673971
 20
69.355270286332612
 30
0.0
 42
-0.4142135623730534
  0
VERTEX
  5
1480
  8
SAPA_PROFIL
 10
284.70472812673961
 20
69.655270286332595
 30
0.0
  0
VERTEX
  5
1481
  8
SAPA_PROFIL
 10
284.8047281267398
 20
69.655270286332623
 30
0.0
 42
0.4142135623730326
  0
VERTEX
  5
1482
  8
SAPA_PROFIL
 10
285.00472812673968
 20
69.855270286332626
 30
0.0
  0
VERTEX
  5
1483
  8
SAPA_PROFIL
 10
285.00472812673968
 20
71.355270286332541
 30
0.0
 42
0.4142135623730951
  0
VERTEX
  5
1484
  8
SAPA_PROFIL
 10
284.70472812673972
 20
71.655270286332552
 30
0.0
  0
VERTEX
  5
1485
  8
SAPA_PROFIL
 10
266.70472811629799
 20
71.655270286332552
 30
0.0
 42
0.4142135624877862
  0
SEQEND
  5
1486
  8
SAPA_PROFIL
  0
POLYLINE
  5
F85
  8
SAPA_PROFIL
 62
     4
 66
     1
 10
0.0
 20
0.0
 30
0.0
  0
VERTEX
  5
1487
  8
SAPA_PROFIL
 62
     4
 10
316.7540572407201
 20
75.422989200485844
 30
0.0
 42
-0.5571646428658034
  0
VERTEX
  5
1488
  8
SAPA_PROFIL
 62
     4
 10
316.21709673658341
 20
74.555270286330284
 30
0.0
  0
VERTEX
  5
1489
  8
SAPA_PROFIL
 62
     4
 10
299.19235950006208
 20
74.555270286330753
 30
0.0
 42
-0.5571645048035741
  0
VERTEX
  5
148A
  8
SAPA_PROFIL
 62
     4
 10
298.6553988831011
 20
75.422988974196912
 30
0.0
  0
VERTEX
  5
148B
  8
SAPA_PROFIL
 62
     4
 10
299.48610597064783
 20
77.089129630264949
 30
0.0
 42
-0.284385813979063
  0
VERTEX
  5
148C
  8
SAPA_PROFIL
 62
     4
 10
299.7545862791282
 20
77.25527028633239
 30
0.0
  0
VERTEX
  5
148D
  8
SAPA_PROFIL
 62
     4
 10
315.65486995751752
 20
77.255270286332376
 30
0.0
 42
-0.2843858139786238
  0
VERTEX
  5
148E
  8
SAPA_PROFIL
 62
     4
 10
315.92335026599773
 20
77.089129630265461
 30
0.0
  0
VERTEX
  5
148F
  8
SAPA_PROFIL
 62
     4
 10
316.75405735354491
 20
75.422988974196102
 30
0.0
  0
SEQEND
  5
1490
  8
SAPA_PROFIL
 62
     4
  0
POLYLINE
  5
F86
  8
SAPA_PROFIL
 62
     4
 66
     1
 10
0.0
 20
0.0
 30
0.0
 70
     1
  0
VERTEX
  5
1491
  8
SAPA_PROFIL
 62
     4
 10
293.28711693365551
 20
77.612101800829961
 30
0.0
  0
VERTEX
  5
1492
  8
SAPA_PROFIL
 62
     4
 10
293.02309365527952
 20
78.018661996834084
 30
0.0
 42
0.2539676464751066
  0
VERTEX
  5
1493
  8
SAPA_PROFIL
 62
     4
 10
292.77149248489479
 20
78.155270286330193
 30
0.0
  0
VERTEX
  5
1494
  8
SAPA_PROFIL
 62
     4
 10
291.38999289968939
 20
78.155270286330193
 30
0.0
 42
0.3152987888790479
  0
VERTEX
  5
1495
  8
SAPA_PROFIL
 62
     4
 10
290.92014658929708
 20
77.826280357992047
 30
0.0
  0
VERTEX
  5
1496
  8
SAPA_PROFIL
 62
     4
 10
290.02447764838848
 20
75.365450167540772
 30
0.0
 42
-0.2694959974287434
  0
VERTEX
  5
1497
  8
SAPA_PROFIL
 62
     4
 10
289.79295860198721
 20
75.172318193196872
 30
0.0
 42
-0.0612686379508233
  0
VERTEX
  5
1498
  8
SAPA_PROFIL
 62
     4
 10
289.50028316913392
 20
75.158734822566359
 30
0.0
  0
VERTEX
  5
1499
  8
SAPA_PROFIL
 62
     4
 10
289.15086499182559
 20
74.956998143837538
 30
0.0
 42
-0.5773502691891679
  0
VERTEX
  5
149A
  8
SAPA_PROFIL
 62
     4
 10
288.83586499182599
 20
75.138863478632103
 30
0.0
  0
VERTEX
  5
149B
  8
SAPA_PROFIL
 62
     4
 10
288.83586499182582
 20
75.405978006758417
 30
0.0
  0
VERTEX
  5
149C
  8
SAPA_PROFIL
 62
     4
 10
287.43733729119162
 20
76.214661468066737
 30
0.0
 42
0.1318219888653519
  0
VERTEX
  5
149D
  8
SAPA_PROFIL
 62
     4
 10
287.2871641887192
 20
76.254953864604133
 30
0.0
  0
VERTEX
  5
149E
  8
SAPA_PROFIL
 62
     4
 10
287.10472811828248
 20
76.254953864597766
 30
0.0
 42
0.4142135623724291
  0
VERTEX
  5
149F
  8
SAPA_PROFIL
 62
     4
 10
286.70472811828188
 20
75.85495386459813
 30
0.0
  0
VERTEX
  5
14A0
  8
SAPA_PROFIL
 62
     4
 10
286.70472811828319
 20
72.45495386459713
 30
0.0
 42
0.4142135623744271
  0
VERTEX
  5
14A1
  8
SAPA_PROFIL
 62
     4
 10
287.10472811828248
 20
72.054953864596129
 30
0.0
  0
VERTEX
  5
14A2
  8
SAPA_PROFIL
 62
     4
 10
287.28434336055381
 20
72.05495386459549
 30
0.0
 42
0.1316524975874005
  0
VERTEX
  5
14A3
  8
SAPA_PROFIL
 62
     4
 10
287.43434336055049
 20
72.095146243461087
 30
0.0
  0
VERTEX
  5
14A4
  8
SAPA_PROFIL
 62
     4
 10
289.0384812575528
 20
73.021295690113618
 30
0.0
 42
-0.1316524975875904
  0
VERTEX
  5
14A5
  8
SAPA_PROFIL
 62
     4
 10
289.53848125755451
 20
73.155270286328388
 30
0.0
  0
VERTEX
  5
14A6
  8
SAPA_PROFIL
 62
     4
 10
289.95472811828188
 20
73.155270286328388
 30
0.0
 42
-0.4142135623730951
  0
VERTEX
  5
14A7
  8
SAPA_PROFIL
 62
     4
 10
290.95472811828188
 20
72.155270286328388
 30
0.0
  0
VERTEX
  5
14A8
  8
SAPA_PROFIL
 62
     4
 10
290.95472811828188
 20
69.155270286331117
 30
0.0
 42
0.9999996830128083
  0
VERTEX
  5
14A9
  8
SAPA_PROFIL
 62
     4
 10
291.95472811828188
 20
69.155270286329284
 30
0.0
  0
VERTEX
  5
14AA
  8
SAPA_PROFIL
 62
     4
 10
291.95472811828188
 20
72.155270286329298
 30
0.0
 42
-0.4142135623730951
  0
VERTEX
  5
14AB
  8
SAPA_PROFIL
 62
     4
 10
292.95472811828188
 20
73.155270286329298
 30
0.0
  0
VERTEX
  5
14AC
  8
SAPA_PROFIL
 62
     4
 10
322.45472811836652
 20
73.155270286329284
 30
0.0
 42
-0.4142135623730951
  0
VERTEX
  5
14AD
  8
SAPA_PROFIL
 62
     4
 10
323.45472811836652
 20
72.155270286329284
 30
0.0
  0
VERTEX
  5
14AE
  8
SAPA_PROFIL
 62
     4
 10
323.45472811836652
 20
69.155270286331103
 30
0.0
 42
0.9999999999999998
  0
VERTEX
  5
14AF
  8
SAPA_PROFIL
 62
     4
 10
324.45472811836652
 20
69.155270286331103
 30
0.0
  0
VERTEX
  5
14B0
  8
SAPA_PROFIL
 62
     4
 10
324.45472811836652
 20
72.155270286329284
 30
0.0
 42
-0.4142135623736278
  0
VERTEX
  5
14B1
  8
SAPA_PROFIL
 62
     4
 10
325.45472811836652
 20
73.155270286329284
 30
0.0
  0
VERTEX
  5
14B2
  8
SAPA_PROFIL
 62
     4
 10
325.87097497909292
 20
73.155270286329284
 30
0.0
 42
-0.1316524975874375
  0
VERTEX
  5
14B3
  8
SAPA_PROFIL
 62
     4
 10
326.37097497909309
 20
73.021295690113249
 30
0.0
  0
VERTEX
  5
14B4
  8
SAPA_PROFIL
 62
     4
 10
327.97511287609512
 20
72.095146243461073
 30
0.0
 42
0.1316524975874
  0
VERTEX
  5
14B5
  8
SAPA_PROFIL
 62
     4
 10
328.12511287609459
 20
72.05495386459549
 30
0.0
  0
VERTEX
  5
14B6
  8
SAPA_PROFIL
 62
     4
 10
328.30472811836592
 20
72.054953864596115
 30
0.0
 42
0.4142135623744271
  0
VERTEX
  5
14B7
  8
SAPA_PROFIL
 62
     4
 10
328.7047281183651
 20
72.454953864597115
 30
0.0
  0
VERTEX
  5
14B8
  8
SAPA_PROFIL
 62
     4
 10
328.70472811836652
 20
75.854953864598116
 30
0.0
 42
0.4142135623724291
  0
VERTEX
  5
14B9
  8
SAPA_PROFIL
 62
     4
 10
328.30472811836592
 20
76.254953864597752
 30
0.0
  0
VERTEX
  5
14BA
  8
SAPA_PROFIL
 62
     4
 10
328.12229204792908
 20
76.254953864604119
 30
0.0
 42
0.1318219888653524
  0
VERTEX
  5
14BB
  8
SAPA_PROFIL
 62
     4
 10
327.97211894545683
 20
76.214661468066737
 30
0.0
  0
VERTEX
  5
14BC
  8
SAPA_PROFIL
 62
     4
 10
326.57359124497719
 20
75.405978006842375
 30
0.0
  0
VERTEX
  5
14BD
  8
SAPA_PROFIL
 62
     4
 10
326.57359124497719
 20
75.138863478629361
 30
0.0
 42
-0.577350269189159
  0
VERTEX
  5
14BE
  8
SAPA_PROFIL
 62
     4
 10
326.25859124497748
 20
74.956998143834795
 30
0.0
  0
VERTEX
  5
14BF
  8
SAPA_PROFIL
 62
     4
 10
325.9091730677589
 20
75.158734822511903
 30
0.0
 42
-0.0612687673629489
  0
VERTEX
  5
14C0
  8
SAPA_PROFIL
 62
     4
 10
325.61649763465869
 20
75.172318193198095
 30
0.0
 42
-0.2694959974285039
  0
VERTEX
  5
14C1
  8
SAPA_PROFIL
 62
     4
 10
325.38497858825809
 20
75.365450167542051
 30
0.0
  0
VERTEX
  5
14C2
  8
SAPA_PROFIL
 62
     4
 10
324.48930964734848
 20
77.826280357995216
 30
0.0
 42
0.3152987888784035
  0
VERTEX
  5
14C3
  8
SAPA_PROFIL
 62
     4
 10
324.01946333695531
 20
78.155270286331799
 30
0.0
  0
VERTEX
  5
14C4
  8
SAPA_PROFIL
 62
     4
 10
322.63796375175082
 20
78.155270286330193
 30
0.0
 42
0.2539676464741841
  0
VERTEX
  5
14C5
  8
SAPA_PROFIL
 62
     4
 10
322.38636258136671
 20
78.018661996834922
 30
0.0
  0
VERTEX
  5
14C6
  8
SAPA_PROFIL
 62
     4
 10
322.1223393029901
 20
77.612101800829933
 30
0.0
 42
0.5862177598324623
  0
VERTEX
  5
14C7
  8
SAPA_PROFIL
 62
     4
 10
322.37808111822841
 20
77.155270286333447
 30
0.0
  0
VERTEX
  5
14C8
  8
SAPA_PROFIL
 62
     4
 10
323.31925579873831
 20
77.155270286341107
 30
0.0
 42
-0.3152987888813165
  0
VERTEX
  5
14C9
  8
SAPA_PROFIL
 62
     4
 10
323.78910210913602
 20
76.826280358004354
 30
0.0
  0
VERTEX
  5
14CA
  8
SAPA_PROFIL
 62
     4
 10
324.22586639026002
 20
75.626280357993124
 30
0.0
 42
-0.5205670505515651
  0
VERTEX
  5
14CB
  8
SAPA_PROFIL
 62
     4
 10
323.7560200798668
 20
74.955270286330375
 30
0.0
  0
VERTEX
  5
14CC
  8
SAPA_PROFIL
 62
     4
 10
318.73957913919787
 20
74.955270286330361
 30
0.0
 42
-0.3702522326300203
  0
VERTEX
  5
14CD
  8
SAPA_PROFIL
 62
     4
 10
318.44305577740448
 20
75.209730238996059
 30
0.0
 42
-0.0982365330332397
  0
VERTEX
  5
14CE
  8
SAPA_PROFIL
 62
     4
 10
318.35260301919362
 20
76.897417013991074
 30
0.0
 42
-0.3735060174783164
  0
VERTEX
  5
14CF
  8
SAPA_PROFIL
 62
     4
 10
318.64962768710461
 20
77.155270286331103
 30
0.0
  0
VERTEX
  5
14D0
  8
SAPA_PROFIL
 62
     4
 10
319.07808111822732
 20
77.155270286332012
 30
0.0
 42
0.5920056181162531
  0
VERTEX
  5
14D1
  8
SAPA_PROFIL
 62
     4
 10
319.33108987454472
 20
77.616473788859935
 30
0.0
  0
VERTEX
  5
14D2
  8
SAPA_PROFIL
 62
     4
 10
319.06990579838902
 20
78.018661996838233
 30
0.0
 42
0.2539676464746725
  0
VERTEX
  5
14D3
  8
SAPA_PROFIL
 62
     4
 10
318.81830462800519
 20
78.155270286333604
 30
0.0
  0
VERTEX
  5
14D4
  8
SAPA_PROFIL
 62
     4
 10
296.59115160863951
 20
78.155270286332026
 30
0.0
 42
0.2539676464741819
  0
VERTEX
  5
14D5
  8
SAPA_PROFIL
 62
     4
 10
296.33955043825671
 20
78.018661996838247
 30
0.0
  0
VERTEX
  5
14D6
  8
SAPA_PROFIL
 62
     4
 10
296.07836636210288
 20
77.616473788859906
 30
0.0
 42
0.5920055144124249
  0
VERTEX
  5
14D7
  8
SAPA_PROFIL
 62
     4
 10
296.33137511841841
 20
77.155270286332026
 30
0.0
  0
VERTEX
  5
14D8
  8
SAPA_PROFIL
 62
     4
 10
296.7598285957086
 20
77.155270311607026
 30
0.0
 42
-0.3735060174775405
  0
VERTEX
  5
14D9
  8
SAPA_PROFIL
 62
     4
 10
297.05685326361828
 20
76.897417039266941
 30
0.0
 42
-0.0355900683670349
  0
VERTEX
  5
14DA
  8
SAPA_PROFIL
 62
     4
 10
297.10074682765048
 20
76.281543452467162
 30
0.0
 42
-0.0624282003873116
  0
VERTEX
  5
14DB
  8
SAPA_PROFIL
 62
     4
 10
296.96640050540759
 20
75.209730264272025
 30
0.0
 42
-0.3702522326309292
  0
VERTEX
  5
14DC
  8
SAPA_PROFIL
 62
     4
 10
296.6698771436142
 20
74.955270311606299
 30
0.0
  0
VERTEX
  5
14DD
  8
SAPA_PROFIL
 62
     4
 10
291.65343615678069
 20
74.955270286330162
 30
0.0
 42
-0.5205670505515692
  0
VERTEX
  5
14DE
  8
SAPA_PROFIL
 62
     4
 10
291.18358984638752
 20
75.626280357993124
 30
0.0
  0
VERTEX
  5
14DF
  8
SAPA_PROFIL
 62
     4
 10
291.62035412751243
 20
76.826280358002577
 30
0.0
 42
-0.3152987888807539
  0
VERTEX
  5
14E0
  8
SAPA_PROFIL
 62
     4
 10
292.09020043790832
 20
77.155270286340212
 30
0.0
  0
VERTEX
  5
14E1
  8
SAPA_PROFIL
 62
     4
 10
293.03137511841737
 20
77.155270286333391
 30
0.0
 42
0.5862175119221242
  0
VERTEX
  5
14E2
  8
SAPA_PROFIL
 62
     4
 10
293.28711704939928
 20
77.612101612088523
 30
0.0
 42
-0.0000002084758573
  0
SEQEND
  5
14E3
  8
SAPA_PROFIL
 62
     4
  0
POLYLINE
  5
F87
  8
SAPA_PROFIL
 62
     4
 66
     1
 10
0.0
 20
0.0
 30
0.0
  0
VERTEX
  5
14E4
  8
SAPA_PROFIL
 62
     4
 10
316.7540572407201
 20
36.28755137217977
 30
0.0
 42
0.5571646428658034
  0
VERTEX
  5
14E5
  8
SAPA_PROFIL
 62
     4
 10
316.21709673658341
 20
37.15527028633533
 30
0.0
  0
VERTEX
  5
14E6
  8
SAPA_PROFIL
 62
     4
 10
299.19235950006208
 20
37.155270286334869
 30
0.0
 42
0.5571645048035741
  0
VERTEX
  5
14E7
  8
SAPA_PROFIL
 62
     4
 10
298.6553988831011
 20
36.287551598468703
 30
0.0
  0
VERTEX
  5
14E8
  8
SAPA_PROFIL
 62
     4
 10
299.48610597064783
 20
34.621410942400672
 30
0.0
 42
0.284385813979063
  0
VERTEX
  5
14E9
  8
SAPA_PROFIL
 62
     4
 10
299.7545862791282
 20
34.455270286333231
 30
0.0
  0
VERTEX
  5
14EA
  8
SAPA_PROFIL
 62
     4
 10
315.65486995751752
 20
34.455270286333231
 30
0.0
 42
0.2843858139786238
  0
VERTEX
  5
14EB
  8
SAPA_PROFIL
 62
     4
 10
315.92335026599773
 20
34.621410942400161
 30
0.0
  0
VERTEX
  5
14EC
  8
SAPA_PROFIL
 62
     4
 10
316.75405735354491
 20
36.287551598469499
 30
0.0
  0
SEQEND
  5
14ED
  8
SAPA_PROFIL
 62
     4
  0
POLYLINE
  5
F88
  8
SAPA_PROFIL
 62
     4
 66
     1
 10
0.0
 20
0.0
 30
0.0
 70
     1
  0
VERTEX
  5
14EE
  8
SAPA_PROFIL
 62
     4
 10
293.28711693365551
 20
34.09843877183566
 30
0.0
  0
VERTEX
  5
14EF
  8
SAPA_PROFIL
 62
     4
 10
293.02309365527952
 20
33.691878575831517
 30
0.0
 42
-0.2539676464751066
  0
VERTEX
  5
14F0
  8
SAPA_PROFIL
 62
     4
 10
292.77149248489479
 20
33.555270286335421
 30
0.0
  0
VERTEX
  5
14F1
  8
SAPA_PROFIL
 62
     4
 10
291.38999289968939
 20
33.555270286335421
 30
0.0
 42
-0.3152987888790479
  0
VERTEX
  5
14F2
  8
SAPA_PROFIL
 62
     4
 10
290.92014658929708
 20
33.884260214673581
 30
0.0
  0
VERTEX
  5
14F3
  8
SAPA_PROFIL
 62
     4
 10
290.02447764838848
 20
36.34509040512485
 30
0.0
 42
0.2694959974287434
  0
VERTEX
  5
14F4
  8
SAPA_PROFIL
 62
     4
 10
289.79295860198721
 20
36.538222379468742
 30
0.0
 42
0.0612686379508233
  0
VERTEX
  5
14F5
  8
SAPA_PROFIL
 62
     4
 10
289.50028316913392
 20
36.551805750099263
 30
0.0
  0
VERTEX
  5
14F6
  8
SAPA_PROFIL
 62
     4
 10
289.15086499182559
 20
36.753542428828077
 30
0.0
 42
0.5773502691891679
  0
VERTEX
  5
14F7
  8
SAPA_PROFIL
 62
     4
 10
288.83586499182599
 20
36.571677094033518
 30
0.0
  0
VERTEX
  5
14F8
  8
SAPA_PROFIL
 62
     4
 10
288.83586499182582
 20
36.304562565907197
 30
0.0
  0
VERTEX
  5
14F9
  8
SAPA_PROFIL
 62
     4
 10
287.43733729119162
 20
35.495879104598892
 30
0.0
 42
-0.1318219888653519
  0
VERTEX
  5
14FA
  8
SAPA_PROFIL
 62
     4
 10
287.2871641887192
 20
35.455586708061489
 30
0.0
  0
VERTEX
  5
14FB
  8
SAPA_PROFIL
 62
     4
 10
287.10472811828248
 20
35.455586708067862
 30
0.0
 42
-0.4142135623724291
  0
VERTEX
  5
14FC
  8
SAPA_PROFIL
 62
     4
 10
286.70472811828188
 20
35.855586708067491
 30
0.0
  0
VERTEX
  5
14FD
  8
SAPA_PROFIL
 62
     4
 10
286.70472811828319
 20
39.255586708068492
 30
0.0
 42
-0.4142135623744271
  0
VERTEX
  5
14FE
  8
SAPA_PROFIL
 62
     4
 10
287.10472811828248
 20
39.655586708069492
 30
0.0
  0
VERTEX
  5
14FF
  8
SAPA_PROFIL
 62
     4
 10
287.28434336055381
 20
39.655586708070132
 30
0.0
 42
-0.1316524975874005
  0
VERTEX
  5
1500
  8
SAPA_PROFIL
 62
     4
 10
287.43434336055049
 20
39.615394329204527
 30
0.0
  0
VERTEX
  5
1501
  8
SAPA_PROFIL
 62
     4
 10
289.0384812575528
 20
38.689244882551989
 30
0.0
 42
0.1316524975875904
  0
VERTEX
  5
1502
  8
SAPA_PROFIL
 62
     4
 10
289.53848125755451
 20
38.555270286337233
 30
0.0
  0
VERTEX
  5
1503
  8
SAPA_PROFIL
 62
     4
 10
289.95472811828188
 20
38.555270286337233
 30
0.0
 42
0.4142135623730951
  0
VERTEX
  5
1504
  8
SAPA_PROFIL
 62
     4
 10
290.95472811828188
 20
39.555270286337233
 30
0.0
  0
VERTEX
  5
1505
  8
SAPA_PROFIL
 62
     4
 10
290.95472811828188
 20
42.555270286334512
 30
0.0
 42
-0.9999996830128083
  0
VERTEX
  5
1506
  8
SAPA_PROFIL
 62
     4
 10
291.95472811828188
 20
42.555270286336317
 30
0.0
  0
VERTEX
  5
1507
  8
SAPA_PROFIL
 62
     4
 10
291.95472811828188
 20
39.555270286336317
 30
0.0
 42
0.4142135623730951
  0
VERTEX
  5
1508
  8
SAPA_PROFIL
 62
     4
 10
292.95472811828188
 20
38.555270286336331
 30
0.0
  0
VERTEX
  5
1509
  8
SAPA_PROFIL
 62
     4
 10
322.45472811836652
 20
38.555270286336317
 30
0.0
 42
0.4142135623730951
  0
VERTEX
  5
150A
  8
SAPA_PROFIL
 62
     4
 10
323.45472811836652
 20
39.555270286336317
 30
0.0
  0
VERTEX
  5
150B
  8
SAPA_PROFIL
 62
     4
 10
323.45472811836652
 20
42.555270286334498
 30
0.0
 42
-0.9999999999999998
  0
VERTEX
  5
150C
  8
SAPA_PROFIL
 62
     4
 10
324.45472811836652
 20
42.555270286334498
 30
0.0
  0
VERTEX
  5
150D
  8
SAPA_PROFIL
 62
     4
 10
324.45472811836652
 20
39.555270286336317
 30
0.0
 42
0.4142135623736278
  0
VERTEX
  5
150E
  8
SAPA_PROFIL
 62
     4
 10
325.45472811836652
 20
38.555270286336317
 30
0.0
  0
VERTEX
  5
150F
  8
SAPA_PROFIL
 62
     4
 10
325.87097497909292
 20
38.555270286336317
 30
0.0
 42
0.1316524975874375
  0
VERTEX
  5
1510
  8
SAPA_PROFIL
 62
     4
 10
326.37097497909309
 20
38.689244882552352
 30
0.0
  0
VERTEX
  5
1511
  8
SAPA_PROFIL
 62
     4
 10
327.97511287609512
 20
39.615394329204527
 30
0.0
 42
-0.1316524975874
  0
VERTEX
  5
1512
  8
SAPA_PROFIL
 62
     4
 10
328.12511287609459
 20
39.655586708070118
 30
0.0
  0
VERTEX
  5
1513
  8
SAPA_PROFIL
 62
     4
 10
328.30472811836592
 20
39.655586708069492
 30
0.0
 42
-0.4142135623744271
  0
VERTEX
  5
1514
  8
SAPA_PROFIL
 62
     4
 10
328.7047281183651
 20
39.255586708068492
 30
0.0
  0
VERTEX
  5
1515
  8
SAPA_PROFIL
 62
     4
 10
328.70472811836652
 20
35.855586708067491
 30
0.0
 42
-0.4142135623724291
  0
VERTEX
  5
1516
  8
SAPA_PROFIL
 62
     4
 10
328.30472811836592
 20
35.455586708067848
 30
0.0
  0
VERTEX
  5
1517
  8
SAPA_PROFIL
 62
     4
 10
328.12229204792908
 20
35.455586708061482
 30
0.0
 42
-0.1318219888653524
  0
VERTEX
  5
1518
  8
SAPA_PROFIL
 62
     4
 10
327.97211894545683
 20
35.49587910459887
 30
0.0
  0
VERTEX
  5
1519
  8
SAPA_PROFIL
 62
     4
 10
326.57359124497719
 20
36.304562565823211
 30
0.0
  0
VERTEX
  5
151A
  8
SAPA_PROFIL
 62
     4
 10
326.57359124497719
 20
36.571677094036247
 30
0.0
 42
0.577350269189159
  0
VERTEX
  5
151B
  8
SAPA_PROFIL
 62
     4
 10
326.25859124497748
 20
36.753542428830812
 30
0.0
  0
VERTEX
  5
151C
  8
SAPA_PROFIL
 62
     4
 10
325.9091730677589
 20
36.551805750153697
 30
0.0
 42
0.0612687673629489
  0
VERTEX
  5
151D
  8
SAPA_PROFIL
 62
     4
 10
325.61649763465869
 20
36.538222379467499
 30
0.0
 42
0.2694959974285039
  0
VERTEX
  5
151E
  8
SAPA_PROFIL
 62
     4
 10
325.38497858825809
 20
36.34509040512355
 30
0.0
  0
VERTEX
  5
151F
  8
SAPA_PROFIL
 62
     4
 10
324.48930964734848
 20
33.884260214670391
 30
0.0
 42
-0.3152987888784035
  0
VERTEX
  5
1520
  8
SAPA_PROFIL
 62
     4
 10
324.01946333695531
 20
33.555270286333808
 30
0.0
  0
VERTEX
  5
1521
  8
SAPA_PROFIL
 62
     4
 10
322.63796375175082
 20
33.555270286335407
 30
0.0
 42
-0.2539676464741841
  0
VERTEX
  5
1522
  8
SAPA_PROFIL
 62
     4
 10
322.38636258136671
 20
33.691878575830678
 30
0.0
  0
VERTEX
  5
1523
  8
SAPA_PROFIL
 62
     4
 10
322.1223393029901
 20
34.098438771835653
 30
0.0
 42
-0.5862177598324623
  0
VERTEX
  5
1524
  8
SAPA_PROFIL
 62
     4
 10
322.37808111822841
 20
34.55527028633216
 30
0.0
  0
VERTEX
  5
1525
  8
SAPA_PROFIL
 62
     4
 10
323.31925579873831
 20
34.555270286324493
 30
0.0
 42
0.3152987888813165
  0
VERTEX
  5
1526
  8
SAPA_PROFIL
 62
     4
 10
323.78910210913602
 20
34.884260214661253
 30
0.0
  0
VERTEX
  5
1527
  8
SAPA_PROFIL
 62
     4
 10
324.22586639026002
 20
36.084260214672483
 30
0.0
 42
0.5205670505515651
  0
VERTEX
  5
1528
  8
SAPA_PROFIL
 62
     4
 10
323.7560200798668
 20
36.755270286335232
 30
0.0
  0
VERTEX
  5
1529
  8
SAPA_PROFIL
 62
     4
 10
318.73957913919787
 20
36.755270286335247
 30
0.0
 42
0.3702522326300203
  0
VERTEX
  5
152A
  8
SAPA_PROFIL
 62
     4
 10
318.44305577740448
 20
36.500810333669548
 30
0.0
 42
0.0982365330332397
  0
VERTEX
  5
152B
  8
SAPA_PROFIL
 62
     4
 10
318.35260301919362
 20
34.81312355867454
 30
0.0
 42
0.3735060174783164
  0
VERTEX
  5
152C
  8
SAPA_PROFIL
 62
     4
 10
318.64962768710461
 20
34.555270286334512
 30
0.0
  0
VERTEX
  5
152D
  8
SAPA_PROFIL
 62
     4
 10
319.07808111822732
 20
34.555270286333588
 30
0.0
 42
-0.5920056181162531
  0
VERTEX
  5
152E
  8
SAPA_PROFIL
 62
     4
 10
319.33108987454472
 20
34.094066783805658
 30
0.0
  0
VERTEX
  5
152F
  8
SAPA_PROFIL
 62
     4
 10
319.06990579838902
 20
33.691878575827367
 30
0.0
 42
-0.2539676464746725
  0
VERTEX
  5
1530
  8
SAPA_PROFIL
 62
     4
 10
318.81830462800519
 20
33.555270286332011
 30
0.0
  0
VERTEX
  5
1531
  8
SAPA_PROFIL
 62
     4
 10
296.59115160863951
 20
33.555270286333602
 30
0.0
 42
-0.2539676464741819
  0
VERTEX
  5
1532
  8
SAPA_PROFIL
 62
     4
 10
296.33955043825671
 20
33.691878575827367
 30
0.0
  0
VERTEX
  5
1533
  8
SAPA_PROFIL
 62
     4
 10
296.07836636210288
 20
34.094066783805708
 30
0.0
 42
-0.5920055144124249
  0
VERTEX
  5
1534
  8
SAPA_PROFIL
 62
     4
 10
296.33137511841841
 20
34.555270286333602
 30
0.0
  0
VERTEX
  5
1535
  8
SAPA_PROFIL
 62
     4
 10
296.7598285957086
 20
34.555270261058588
 30
0.0
 42
0.3735060174775405
  0
VERTEX
  5
1536
  8
SAPA_PROFIL
 62
     4
 10
297.05685326361828
 20
34.813123533398681
 30
0.0
 42
0.0355900683670349
  0
VERTEX
  5
1537
  8
SAPA_PROFIL
 62
     4
 10
297.10074682765048
 20
35.42899712019846
 30
0.0
 42
0.0624282003873116
  0
VERTEX
  5
1538
  8
SAPA_PROFIL
 62
     4
 10
296.96640050540759
 20
36.500810308393589
 30
0.0
 42
0.3702522326309292
  0
VERTEX
  5
1539
  8
SAPA_PROFIL
 62
     4
 10
296.6698771436142
 20
36.755270261059323
 30
0.0
  0
VERTEX
  5
153A
  8
SAPA_PROFIL
 62
     4
 10
291.65343615678069
 20
36.755270286335453
 30
0.0
 42
0.5205670505515692
  0
VERTEX
  5
153B
  8
SAPA_PROFIL
 62
     4
 10
291.18358984638752
 20
36.08426021467249
 30
0.0
  0
VERTEX
  5
153C
  8
SAPA_PROFIL
 62
     4
 10
291.62035412751243
 20
34.884260214663037
 30
0.0
 42
0.3152987888807539
  0
VERTEX
  5
153D
  8
SAPA_PROFIL
 62
     4
 10
292.09020043790832
 20
34.55527028632541
 30
0.0
  0
VERTEX
  5
153E
  8
SAPA_PROFIL
 62
     4
 10
293.03137511841737
 20
34.555270286332231
 30
0.0
 42
-0.5862175119221242
  0
VERTEX
  5
153F
  8
SAPA_PROFIL
 62
     4
 10
293.28711704939928
 20
34.098438960577091
 30
0.0
 42
0.0000002084758573
  0
SEQEND
  5
1540
  8
SAPA_PROFIL
 62
     4
  0
POLYLINE
  5
F9B
  8
SAPA_GLAS
 66
     1
 10
0.0
 20
0.0
 30
0.0
  0
VERTEX
  5
156F
  8
SAPA_GLAS
 10
317.2047394977302
 20
-3.7664451474969449
 30
0.0
  0
VERTEX
  5
1570
  8
SAPA_GLAS
 10
317.2047394977302
 20
26.85526988519506
 30
0.0
  0
SEQEND
  5
1571
  8
SAPA_GLAS
  0
POLYLINE
  5
F9C
  8
SAPA_GLAS
 66
     1
 10
0.0
 20
0.0
 30
0.0
  0
VERTEX
  5
1572
  8
SAPA_GLAS
 10
314.20473949773009
 20
-3.7664451474969378
 30
0.0
  0
VERTEX
  5
1573
  8
SAPA_GLAS
 10
314.20473949773009
 20
26.85526988519506
 30
0.0
  0
SEQEND
  5
1574
  8
SAPA_GLAS
  0
POLYLINE
  5
F9D
  8
SAPA_GLAS
 66
     1
 10
0.0
 20
0.0
 30
0.0
  0
VERTEX
  5
1575
  8
SAPA_GLAS
 10
310.20473949773009
 20
-3.7664451474969378
 30
0.0
  0
VERTEX
  5
1576
  8
SAPA_GLAS
 10
310.20473949773009
 20
26.85526988519506
 30
0.0
  0
SEQEND
  5
1577
  8
SAPA_GLAS
  0
POLYLINE
  5
F9E
  8
SAPA_GLAS
 66
     1
 10
0.0
 20
0.0
 30
0.0
  0
VERTEX
  5
1578
  8
SAPA_GLAS
 10
306.2047394977302
 20
-3.7664451474969378
 30
0.0
  0
VERTEX
  5
1579
  8
SAPA_GLAS
 10
306.2047394977302
 20
26.855269885195071
 30
0.0
  0
SEQEND
  5
157A
  8
SAPA_GLAS
  0
POLYLINE
  5
F9F
  8
SAPA_GLAS
 66
     1
 10
0.0
 20
0.0
 30
0.0
  0
VERTEX
  5
157B
  8
SAPA_GLAS
 10
302.2047394977302
 20
-3.7664451474969378
 30
0.0
  0
VERTEX
  5
157C
  8
SAPA_GLAS
 10
302.2047394977302
 20
26.855269885195071
 30
0.0
  0
SEQEND
  5
157D
  8
SAPA_GLAS
  0
POLYLINE
  5
FA0
  8
SAPA_GLAS
 66
     1
 10
0.0
 20
0.0
 30
0.0
  0
VERTEX
  5
157E
  8
SAPA_GLAS
 10
299.20473949773009
 20
-3.7664451474969378
 30
0.0
  0
VERTEX
  5
157F
  8
SAPA_GLAS
 10
299.20473949773009
 20
26.855269885195071
 30
0.0
  0
SEQEND
  5
1580
  8
SAPA_GLAS
  0
POLYLINE
  5
FA1
  8
SAPA_GLAS
 66
     1
 10
0.0
 20
0.0
 30
0.0
  0
VERTEX
  5
1581
  8
SAPA_GLAS
 10
294.70473949773009
 20
-3.7664451474969378
 30
0.0
  0
VERTEX
  5
1582
  8
SAPA_GLAS
 10
294.70473949773009
 20
26.855269885195071
 30
0.0
  0
VERTEX
  5
1583
  8
SAPA_GLAS
 10
321.70473949773009
 20
26.85526988519506
 30
0.0
  0
VERTEX
  5
1584
  8
SAPA_GLAS
 10
321.70473949773009
 20
-3.7664451474969449
 30
0.0
  0
SEQEND
  5
1585
  8
SAPA_GLAS
  0
POLYLINE
  5
FA2
  8
SAPA_GLAS
 66
     1
 10
0.0
 20
0.0
 30
0.0
  0
VERTEX
  5
1586
  8
SAPA_GLAS
 10
317.2047394977302
 20
115.4769857201623
 30
0.0
  0
VERTEX
  5
1587
  8
SAPA_GLAS
 10
317.2047394977302
 20
84.855270687470338
 30
0.0
  0
SEQEND
  5
1588
  8
SAPA_GLAS
  0
POLYLINE
  5
FA3
  8
SAPA_GLAS
 66
     1
 10
0.0
 20
0.0
 30
0.0
  0
VERTEX
  5
1589
  8
SAPA_GLAS
 10
314.20473949773009
 20
115.4769857201623
 30
0.0
  0
VERTEX
  5
158A
  8
SAPA_GLAS
 10
314.20473949773009
 20
84.855270687470338
 30
0.0
  0
SEQEND
  5
158B
  8
SAPA_GLAS
  0
POLYLINE
  5
FA4
  8
SAPA_GLAS
 66
     1
 10
0.0
 20
0.0
 30
0.0
  0
VERTEX
  5
158C
  8
SAPA_GLAS
 10
310.20473949773009
 20
115.4769857201623
 30
0.0
  0
VERTEX
  5
158D
  8
SAPA_GLAS
 10
310.20473949773009
 20
84.855270687470338
 30
0.0
  0
SEQEND
  5
158E
  8
SAPA_GLAS
  0
POLYLINE
  5
FA5
  8
SAPA_GLAS
 66
     1
 10
0.0
 20
0.0
 30
0.0
  0
VERTEX
  5
158F
  8
SAPA_GLAS
 10
306.2047394977302
 20
115.4769857201623
 30
0.0
  0
VERTEX
  5
1590
  8
SAPA_GLAS
 10
306.2047394977302
 20
84.855270687470338
 30
0.0
  0
SEQEND
  5
1591
  8
SAPA_GLAS
  0
POLYLINE
  5
FA6
  8
SAPA_GLAS
 66
     1
 10
0.0
 20
0.0
 30
0.0
  0
VERTEX
  5
1592
  8
SAPA_GLAS
 10
302.2047394977302
 20
115.4769857201623
 30
0.0
  0
VERTEX
  5
1593
  8
SAPA_GLAS
 10
302.2047394977302
 20
84.855270687470338
 30
0.0
  0
SEQEND
  5
1594
  8
SAPA_GLAS
  0
POLYLINE
  5
FA7
  8
SAPA_GLAS
 66
     1
 10
0.0
 20
0.0
 30
0.0
  0
VERTEX
  5
1595
  8
SAPA_GLAS
 10
299.20473949773009
 20
115.4769857201623
 30
0.0
  0
VERTEX
  5
1596
  8
SAPA_GLAS
 10
299.20473949773009
 20
84.855270687470338
 30
0.0
  0
SEQEND
  5
1597
  8
SAPA_GLAS
  0
POLYLINE
  5
FA8
  8
SAPA_GLAS
 66
     1
 10
0.0
 20
0.0
 30
0.0
  0
VERTEX
  5
1598
  8
SAPA_GLAS
 10
294.70473949773009
 20
115.4769857201623
 30
0.0
  0
VERTEX
  5
1599
  8
SAPA_GLAS
 10
294.70473949773009
 20
84.855270687470338
 30
0.0
  0
VERTEX
  5
159A
  8
SAPA_GLAS
 10
321.70473949773009
 20
84.855270687470338
 30
0.0
  0
VERTEX
  5
159B
  8
SAPA_GLAS
 10
321.70473949773009
 20
115.4769857201623
 30
0.0
  0
SEQEND
  5
159C
  8
SAPA_GLAS
  0
INSERT
  5
FAE
  8
SAPA_ISOLATOR
  6
CONTINUOUS
 62
     6
  2
*X36
 10
0.0
 20
0.0
 30
0.0
1001
GRADIENTCOLOR1ACI
1070
     5
1001
GRADIENTCOLOR2ACI
1070
     2
1001
ACAD
1000
HATCH
1002
{
1070
    19
1000
ANSI35
1040
1.0
1040
1.5707963267948959
1000
R14_HATCH_DATA
1000
FAE
1011
1.0
1021
0.0
1031
0.0
1021
0.0
1031
0.0
1011
0.0
1021
0.0
1031
0.0
1021
1.0
1031
0.0
1011
0.0
1021
0.0
1031
0.0
1021
0.0
1031
1.0
1040
0.0
1010
0.0
1020
0.0
1030
1.0
1000
ANSI35
1070
     0
1070
     0
1071
        1
1071
        7
1070
     0
1070
     1
1071
        4
1040
292.70472810236078
1040
71.855270384231773
1040
292.70472810236078
1040
39.855270384231773
1040
322.70472810236078
1040
39.855270384231773
1040
322.70472810236078
1040
71.855270384231773
1071
        0
1070
     1
1070
     1
1040
1.5707963267948959
1040
1.0
1070
     0
1070
     2
1040
2.3561944901923439
1040
322.70472810863367
1040
39.855270286332853
1040
-4.4901280605345759
1040
-4.490128060534575
1070
     0
1040
2.3561944901923439
1040
322.70472810863367
1040
44.345400286332847
1040
-4.4901280605345759
1040
-4.490128060534575
1070
     4
1040
7.9375
1040
-1.587499999999999
1040
0.0
1040
-1.587499999999999
1040
0.2598193594399609
1071
        1
1040
308.05319171084813
1040
56.260254589579539
1040
0.0
1002
}
  0
CIRCLE
  5
FCF
  8
SAPA_FOGBAND
 10
326.70473949773009
 20
87.104144674183857
 30
0.0
 40
2.0223748416156688
  0
CIRCLE
  5
FD0
  8
SAPA_FOGBAND
 10
328.20473949773009
 20
94.604144674183857
 30
0.0
 40
2.5
  0
POLYLINE
  5
FD1
  8
SAPA_FOGBAND
 66
     1
 10
0.0
 20
0.0
 30
0.0
 70
     1
  0
VERTEX
  5
16BB
  8
SAPA_FOGBAND
 10
325.75094464496698
 20
76.343535519659653
 30
0.0
  0
VERTEX
  5
16BC
  8
SAPA_FOGBAND
 10
334.55816288287542
 20
90.264145601509526
 30
0.0
 42
0.1379343940649205
  0
VERTEX
  5
16BD
  8
SAPA_FOGBAND
 10
334.70473949773009
 20
90.785363910557948
 30
0.0
  0
VERTEX
  5
16BE
  8
SAPA_FOGBAND
 10
334.7047394977302
 20
98.204144674183866
 30
0.0
 42
0.4142135623730951
  0
VERTEX
  5
16BF
  8
SAPA_FOGBAND
 10
334.40473949773008
 20
98.504144674183877
 30
0.0
  0
VERTEX
  5
16C0
  8
SAPA_FOGBAND
 10
332.70473949773009
 20
98.504144674183877
 30
0.0
  0
VERTEX
  5
16C1
  8
SAPA_FOGBAND
 10
332.7047394977302
 20
100.3178447661042
 30
0.0
 42
0.4005932428724201
  0
VERTEX
  5
16C2
  8
SAPA_FOGBAND
 10
332.41875206908941
 20
100.6175173338242
 30
0.0
  0
VERTEX
  5
16C3
  8
SAPA_FOGBAND
 10
322.01875206908937
 20
101.1038172419039
 30
0.0
 42
0.4279663351068871
  0
VERTEX
  5
16C4
  8
SAPA_FOGBAND
 10
321.70473949773009
 20
100.8041446741839
 30
0.0
  0
VERTEX
  5
16C5
  8
SAPA_FOGBAND
 10
321.70473949773009
 20
96.104144674183871
 30
0.0
  0
VERTEX
  5
16C6
  8
SAPA_FOGBAND
 10
322.2047394977302
 20
96.104144674183871
 30
0.0
 42
-0.4142135623730951
  0
VERTEX
  5
16C7
  8
SAPA_FOGBAND
 10
323.2047394977302
 20
95.104144674183871
 30
0.0
  0
VERTEX
  5
16C8
  8
SAPA_FOGBAND
 10
323.2047394977302
 20
77.104144674183857
 30
0.0
 42
0.4142135623730951
  0
VERTEX
  5
16C9
  8
SAPA_FOGBAND
 10
324.20473949773009
 20
76.104144674183857
 30
0.0
  0
VERTEX
  5
16CA
  8
SAPA_FOGBAND
 10
325.32423295239448
 20
76.104144674183857
 30
0.0
 42
0.2613472755167647
  0
SEQEND
  5
16CB
  8
SAPA_FOGBAND
  0
POLYLINE
  5
FD2
  8
SAPA_FOGBAND
 66
     1
 10
0.0
 20
0.0
 30
0.0
 70
     1
  0
VERTEX
  5
16CC
  8
SAPA_FOGBAND
 10
266.94235132942561
 20
97.265446064570554
 30
0.0
 42
-0.4142135623730951
  0
VERTEX
  5
16CD
  8
SAPA_FOGBAND
 10
267.44235132942572
 20
97.765446064570526
 30
0.0
  0
VERTEX
  5
16CE
  8
SAPA_FOGBAND
 10
268.77093659568771
 20
97.765446064570526
 30
0.0
 42
-0.4142135623730951
  0
VERTEX
  5
16CF
  8
SAPA_FOGBAND
 10
269.27093659568771
 20
97.265446064570554
 30
0.0
  0
VERTEX
  5
16D0
  8
SAPA_FOGBAND
 10
269.27093659568771
 20
96.745094499999126
 30
0.0
 42
-0.4142135623730951
  0
VERTEX
  5
16D1
  8
SAPA_FOGBAND
 10
268.77093659568771
 20
96.245094499999169
 30
0.0
  0
VERTEX
  5
16D2
  8
SAPA_FOGBAND
 10
267.44235132942572
 20
96.245094499999169
 30
0.0
 42
-0.4142135623730951
  0
VERTEX
  5
16D3
  8
SAPA_FOGBAND
 10
266.94235132942561
 20
96.745094499999126
 30
0.0
  0
SEQEND
  5
16D4
  8
SAPA_FOGBAND
  0
LINE
  5
FD3
  8
SAPA_FOGBAND
 10
269.4021589633349
 20
100.0627786005292
 30
0.0
 11
269.40215896333478
 21
100.4936941216429
 31
0.0
  0
POLYLINE
  5
FD4
  8
SAPA_FOGBAND
 66
     1
 10
0.0
 20
0.0
 30
0.0
  0
VERTEX
  5
16D5
  8
SAPA_FOGBAND
 10
269.401316755236
 20
100.49369234835279
 30
0.0
  0
VERTEX
  5
16D6
  8
SAPA_FOGBAND
 10
285.53306505642189
 20
100.50874561106041
 30
0.0
 42
-0.4148303899774826
  0
VERTEX
  5
16D7
  8
SAPA_FOGBAND
 10
287.4370655448912
 20
98.608749822619814
 30
0.0
  0
VERTEX
  5
16D8
  8
SAPA_FOGBAND
 10
287.4370655448912
 20
95.967350444714754
 30
0.0
 42
-0.0999389364679327
  0
VERTEX
  5
16D9
  8
SAPA_FOGBAND
 10
291.3329698874528
 20
95.492016335463859
 30
0.0
 42
-0.3113527671839112
  0
VERTEX
  5
16DA
  8
SAPA_FOGBAND
 10
291.60825395684139
 20
95.130821519656351
 30
0.0
  0
VERTEX
  5
16DB
  8
SAPA_FOGBAND
 10
291.62110764011811
 20
94.860718288336614
 30
0.0
 42
0.205004399522433
  0
VERTEX
  5
16DC
  8
SAPA_FOGBAND
 10
291.96478816194701
 20
94.15278760497425
 30
0.0
  0
VERTEX
  5
16DD
  8
SAPA_FOGBAND
 10
293.13606605493152
 20
93.136978051226507
 30
0.0
 42
0.8055176831861466
  0
VERTEX
  5
16DE
  8
SAPA_FOGBAND
 10
294.1747237673726
 20
93.913149032775578
 30
0.0
  0
VERTEX
  5
16DF
  8
SAPA_FOGBAND
 10
293.05497667677997
 20
96.373139622202643
 30
0.0
 42
0.23240182960574
  0
VERTEX
  5
16E0
  8
SAPA_FOGBAND
 10
292.7822047685903
 20
96.596870000600873
 30
0.0
 42
-0.8281972534260916
  0
VERTEX
  5
16E1
  8
SAPA_FOGBAND
 10
292.82570047543959
 20
97.611330960557495
 30
0.0
 42
0.2654236385373166
  0
VERTEX
  5
16E2
  8
SAPA_FOGBAND
 10
293.60714040306482
 20
98.222117859886239
 30
0.0
  0
VERTEX
  5
16E3
  8
SAPA_FOGBAND
 10
295.34653534594628
 20
103.3394520641131
 30
0.0
 42
0.5665360068763656
  0
VERTEX
  5
16E4
  8
SAPA_FOGBAND
 10
294.79182121423457
 20
103.9937058540948
 30
0.0
  0
VERTEX
  5
16E5
  8
SAPA_FOGBAND
 10
269.6501051179194
 20
101.3302915167143
 30
0.0
 42
0.2273993322864573
  0
VERTEX
  5
16E6
  8
SAPA_FOGBAND
 10
268.94148369282499
 20
100.8344455677652
 30
0.0
 42
0.0248024956625856
  0
VERTEX
  5
16E7
  8
SAPA_FOGBAND
 10
268.88352051194869
 20
100.71846499969089
 30
0.0
 42
0.2363077723757957
  0
VERTEX
  5
16E8
  8
SAPA_FOGBAND
 10
268.90858056105469
 20
100.5411794738166
 30
0.0
  0
VERTEX
  5
16E9
  8
SAPA_FOGBAND
 10
269.4021589633349
 20
100.0627786005292
 30
0.0
  0
VERTEX
  5
16EA
  8
SAPA_FOGBAND
 10
269.40215896333478
 20
98.853775515934601
 30
0.0
 42
-0.4142135623730909
  0
VERTEX
  5
16EB
  8
SAPA_FOGBAND
 10
269.00215896333481
 20
98.453775515934595
 30
0.0
  0
VERTEX
  5
16EC
  8
SAPA_FOGBAND
 10
268.2043606943335
 20
98.453775515934595
 30
0.0
  0
VERTEX
  5
16ED
  8
SAPA_FOGBAND
 10
268.00436069433351
 20
98.453775515934595
 30
0.0
  0
VERTEX
  5
16EE
  8
SAPA_FOGBAND
 10
267.94989772320821
 20
98.657034091305377
 30
0.0
 42
0.4740571810232318
  0
VERTEX
  5
16EF
  8
SAPA_FOGBAND
 10
267.66761513756973
 20
98.784327953668921
 30
0.0
  0
VERTEX
  5
16F0
  8
SAPA_FOGBAND
 10
266.51960777847358
 20
98.213090243030706
 30
0.0
 42
0.2846003776496058
  0
VERTEX
  5
16F1
  8
SAPA_FOGBAND
 10
266.24235132942567
 20
97.76544606457054
 30
0.0
  0
VERTEX
  5
16F2
  8
SAPA_FOGBAND
 10
266.24235132942567
 20
96.245094499999169
 30
0.0
 42
0.2846003776496049
  0
VERTEX
  5
16F3
  8
SAPA_FOGBAND
 10
266.51960777847358
 20
95.797450321538989
 30
0.0
  0
VERTEX
  5
16F4
  8
SAPA_FOGBAND
 10
267.66761513756973
 20
95.226212610900831
 30
0.0
 42
0.4740571810232618
  0
VERTEX
  5
16F5
  8
SAPA_FOGBAND
 10
267.94989772320821
 20
95.353506473264375
 30
0.0
  0
VERTEX
  5
16F6
  8
SAPA_FOGBAND
 10
268.0208598652506
 20
95.618340792780174
 30
0.0
  0
VERTEX
  5
16F7
  8
SAPA_FOGBAND
 10
268.22085986525059
 20
95.618340792780174
 30
0.0
  0
VERTEX
  5
16F8
  8
SAPA_FOGBAND
 10
269.00215896333481
 20
95.618340792780174
 30
0.0
 42
-0.4142135623730951
  0
VERTEX
  5
16F9
  8
SAPA_FOGBAND
 10
269.40215896333478
 20
95.218340792780168
 30
0.0
  0
VERTEX
  5
16FA
  8
SAPA_FOGBAND
 10
269.40215896333478
 20
92.530291516714314
 30
0.0
 42
-0.2843345802748576
  0
VERTEX
  5
16FB
  8
SAPA_FOGBAND
 10
267.9629635392742
 20
90.59871483079877
 30
0.0
  0
VERTEX
  5
16FC
  8
SAPA_FOGBAND
 10
266.4053285394254
 20
89.837390796896443
 30
0.0
 42
0.2865189237852846
  0
VERTEX
  5
16FD
  8
SAPA_FOGBAND
 10
266.23706554489121
 20
89.567862762378823
 30
0.0
  0
VERTEX
  5
16FE
  8
SAPA_FOGBAND
 10
266.23706554489121
 20
87.330337404263119
 30
0.0
 42
0.5417225065732673
  0
VERTEX
  5
16FF
  8
SAPA_FOGBAND
 10
266.6580410203166
 20
87.055810658124273
 30
0.0
  0
VERTEX
  5
1700
  8
SAPA_FOGBAND
 10
276.03022471447372
 20
91.239143138098825
 30
0.0
 42
-0.0563290829981843
  0
VERTEX
  5
1701
  8
SAPA_FOGBAND
 10
276.45903190122982
 20
91.372977494573774
 30
0.0
  0
VERTEX
  5
1702
  8
SAPA_FOGBAND
 10
285.8958767285007
 20
93.187761302374795
 30
0.0
  0
SEQEND
  5
1703
  8
SAPA_FOGBAND
  0
POLYLINE
  5
FD5
  8
SAPA_FOGBAND
 66
     1
 10
0.0
 20
0.0
 30
0.0
 70
     1
  0
VERTEX
  5
1704
  8
SAPA_FOGBAND
 10
271.44446044995487
 20
94.492848725350484
 30
0.0
  0
VERTEX
  5
1705
  8
SAPA_FOGBAND
 10
277.34076299742298
 20
94.492848725350484
 30
0.0
 42
0.4142135623730951
  0
VERTEX
  5
1706
  8
SAPA_FOGBAND
 10
277.54076299742309
 20
94.692848725350487
 30
0.0
  0
VERTEX
  5
1707
  8
SAPA_FOGBAND
 10
277.54076299742309
 20
98.431571652531986
 30
0.0
 42
0.4142135623730951
  0
VERTEX
  5
1708
  8
SAPA_FOGBAND
 10
277.34076299742298
 20
98.631571652531974
 30
0.0
  0
VERTEX
  5
1709
  8
SAPA_FOGBAND
 10
271.44446044995487
 20
98.631571652531974
 30
0.0
 42
0.4142135623731013
  0
VERTEX
  5
170A
  8
SAPA_FOGBAND
 10
270.94446044995487
 20
98.131571652531974
 30
0.0
  0
VERTEX
  5
170B
  8
SAPA_FOGBAND
 10
270.94446044995499
 20
94.992848725350484
 30
0.0
 42
0.4142135623730951
  0
SEQEND
  5
170C
  8
SAPA_FOGBAND
  0
POLYLINE
  5
FD6
  8
SAPA_FOGBAND
 66
     1
 10
0.0
 20
0.0
 30
0.0
 70
     1
  0
VERTEX
  5
170D
  8
SAPA_FOGBAND
 10
285.13706554489119
 20
94.492848725350484
 30
0.0
 42
0.4142135623730951
  0
VERTEX
  5
170E
  8
SAPA_FOGBAND
 10
286.13706554489119
 20
95.492848725350484
 30
0.0
  0
VERTEX
  5
170F
  8
SAPA_FOGBAND
 10
286.13706554489119
 20
98.131571652531989
 30
0.0
 42
0.4142135623730951
  0
VERTEX
  5
1710
  8
SAPA_FOGBAND
 10
285.63706554489119
 20
98.631571652531974
 30
0.0
  0
VERTEX
  5
1711
  8
SAPA_FOGBAND
 10
279.24076299742308
 20
98.631571652531974
 30
0.0
 42
0.4142135623730951
  0
VERTEX
  5
1712
  8
SAPA_FOGBAND
 10
279.04076299742309
 20
98.431571652531986
 30
0.0
  0
VERTEX
  5
1713
  8
SAPA_FOGBAND
 10
279.04076299742309
 20
94.692848725350487
 30
0.0
 42
0.4142135623730951
  0
VERTEX
  5
1714
  8
SAPA_FOGBAND
 10
279.24076299742308
 20
94.492848725350484
 30
0.0
  0
SEQEND
  5
1715
  8
SAPA_FOGBAND
  0
POLYLINE
  5
FD7
  8
SAPA_FOGBAND
 66
     1
 10
0.0
 20
0.0
 30
0.0
 70
     1
  0
VERTEX
  5
1716
  8
SAPA_FOGBAND
 10
271.64608624233068
 20
90.727815050862233
 30
0.0
 42
-0.5417225065732673
  0
VERTEX
  5
1717
  8
SAPA_FOGBAND
 10
270.94446044995487
 20
91.18535962776032
 30
0.0
  0
VERTEX
  5
1718
  8
SAPA_FOGBAND
 10
270.94446044995487
 20
92.692848725350487
 30
0.0
 42
-0.4142135623730951
  0
VERTEX
  5
1719
  8
SAPA_FOGBAND
 10
271.44446044995487
 20
93.192848725350487
 30
0.0
  0
VERTEX
  5
171A
  8
SAPA_FOGBAND
 10
274.86536931884621
 20
93.192848725350487
 30
0.0
 42
-0.8113630355945115
  0
VERTEX
  5
171B
  8
SAPA_FOGBAND
 10
275.0669951112219
 20
92.235304148452414
 30
0.0
  0
SEQEND
  5
171C
  8
SAPA_FOGBAND
  0
LINE
  5
FD8
  8
SAPA_FOGBAND
 10
270.94446044995487
 20
95.548406635121367
 30
0.0
 11
270.94446044995487
 21
94.992848725350484
 31
0.0
  0
POLYLINE
  5
FD9
  8
SAPA_FOGBAND
 66
     1
 10
0.0
 20
0.0
 30
0.0
  0
VERTEX
  5
171D
  8
SAPA_FOGBAND
 10
285.69904441392652
 20
93.16049043859681
 30
0.0
 42
0.3894287807274992
  0
VERTEX
  5
171E
  8
SAPA_FOGBAND
 10
287.4370655448912
 20
95.053573333238774
 30
0.0
  0
VERTEX
  5
171F
  8
SAPA_FOGBAND
 10
287.4370655448912
 20
95.967350444714754
 30
0.0
  0
SEQEND
  5
1720
  8
SAPA_FOGBAND
  0
LINE
  5
FDA
  8
SAPA_FOGBAND
 10
271.44446044995487
 20
94.492848725350484
 30
0.0
 11
276.92430402114019
 21
94.492848725350484
 31
0.0
  0
ARC
  5
FDB
  8
SAPA_FOGBAND
 10
271.44446044995487
 20
94.992848725350484
 30
0.0
 40
0.5
 50
180.0
 51
270.0
  0
LINE
  5
FDC
  8
SAPA_FOGBAND
 10
270.94446044995487
 20
95.548406635121367
 30
0.0
 11
270.94446044995487
 21
94.992848725350484
 31
0.0
  0
CIRCLE
  5
FDD
  8
SAPA_FOGBAND
 10
326.70473949773009
 20
24.606395898481448
 30
0.0
 40
2.0223748416156688
  0
CIRCLE
  5
FDE
  8
SAPA_FOGBAND
 10
328.20473949773009
 20
17.106395898481448
 30
0.0
 40
2.5
  0
POLYLINE
  5
FDF
  8
SAPA_FOGBAND
 66
     1
 10
0.0
 20
0.0
 30
0.0
 70
     1
  0
VERTEX
  5
1721
  8
SAPA_FOGBAND
 10
325.75094464496698
 20
35.367005053005663
 30
0.0
  0
VERTEX
  5
1722
  8
SAPA_FOGBAND
 10
334.55816288287542
 20
21.44639497115578
 30
0.0
 42
-0.1379343940649205
  0
VERTEX
  5
1723
  8
SAPA_FOGBAND
 10
334.70473949773009
 20
20.925176662107361
 30
0.0
  0
VERTEX
  5
1724
  8
SAPA_FOGBAND
 10
334.7047394977302
 20
13.50639589848144
 30
0.0
 42
-0.4142135623730951
  0
VERTEX
  5
1725
  8
SAPA_FOGBAND
 10
334.40473949773008
 20
13.206395898481439
 30
0.0
  0
VERTEX
  5
1726
  8
SAPA_FOGBAND
 10
332.70473949773009
 20
13.206395898481439
 30
0.0
  0
VERTEX
  5
1727
  8
SAPA_FOGBAND
 10
332.7047394977302
 20
11.392695806561081
 30
0.0
 42
-0.4005932428724201
  0
VERTEX
  5
1728
  8
SAPA_FOGBAND
 10
332.41875206908941
 20
11.093023238841051
 30
0.0
  0
VERTEX
  5
1729
  8
SAPA_FOGBAND
 10
322.01875206908937
 20
10.60672333076141
 30
0.0
 42
-0.4279663351068871
  0
VERTEX
  5
172A
  8
SAPA_FOGBAND
 10
321.70473949773009
 20
10.906395898481421
 30
0.0
  0
VERTEX
  5
172B
  8
SAPA_FOGBAND
 10
321.70473949773009
 20
15.60639589848142
 30
0.0
  0
VERTEX
  5
172C
  8
SAPA_FOGBAND
 10
322.2047394977302
 20
15.60639589848142
 30
0.0
 42
0.4142135623730951
  0
VERTEX
  5
172D
  8
SAPA_FOGBAND
 10
323.2047394977302
 20
16.606395898481441
 30
0.0
  0
VERTEX
  5
172E
  8
SAPA_FOGBAND
 10
323.2047394977302
 20
34.606395898481452
 30
0.0
 42
-0.4142135623730951
  0
VERTEX
  5
172F
  8
SAPA_FOGBAND
 10
324.20473949773009
 20
35.606395898481452
 30
0.0
  0
VERTEX
  5
1730
  8
SAPA_FOGBAND
 10
325.32423295239448
 20
35.606395898481452
 30
0.0
 42
-0.2613472755167647
  0
SEQEND
  5
1731
  8
SAPA_FOGBAND
  0
POLYLINE
  5
FE0
  8
SAPA_FOGBAND
 66
     1
 10
0.0
 20
0.0
 30
0.0
 70
     1
  0
VERTEX
  5
1732
  8
SAPA_FOGBAND
 10
266.94235132942561
 20
14.445094508094851
 30
0.0
 42
0.4142135623730951
  0
VERTEX
  5
1733
  8
SAPA_FOGBAND
 10
267.44235132942572
 20
13.945094508094879
 30
0.0
  0
VERTEX
  5
1734
  8
SAPA_FOGBAND
 10
268.77093659568771
 20
13.945094508094879
 30
0.0
 42
0.4142135623730951
  0
VERTEX
  5
1735
  8
SAPA_FOGBAND
 10
269.27093659568771
 20
14.445094508094851
 30
0.0
  0
VERTEX
  5
1736
  8
SAPA_FOGBAND
 10
269.27093659568771
 20
14.96544607266628
 30
0.0
 42
0.4142135623730951
  0
VERTEX
  5
1737
  8
SAPA_FOGBAND
 10
268.77093659568771
 20
15.465446072666239
 30
0.0
  0
VERTEX
  5
1738
  8
SAPA_FOGBAND
 10
267.44235132942572
 20
15.465446072666239
 30
0.0
 42
0.4142135623730951
  0
VERTEX
  5
1739
  8
SAPA_FOGBAND
 10
266.94235132942561
 20
14.96544607266628
 30
0.0
  0
SEQEND
  5
173A
  8
SAPA_FOGBAND
  0
LINE
  5
FE1
  8
SAPA_FOGBAND
 10
269.4021589633349
 20
11.64776197213615
 30
0.0
 11
269.40215896333478
 21
11.216846451022519
 31
0.0
  0
POLYLINE
  5
FE2
  8
SAPA_FOGBAND
 66
     1
 10
0.0
 20
0.0
 30
0.0
  0
VERTEX
  5
173B
  8
SAPA_FOGBAND
 10
269.401316755236
 20
11.216848224312621
 30
0.0
  0
VERTEX
  5
173C
  8
SAPA_FOGBAND
 10
285.53306505642189
 20
11.20179496160498
 30
0.0
 42
0.4148303899774826
  0
VERTEX
  5
173D
  8
SAPA_FOGBAND
 10
287.4370655448912
 20
13.101790750045581
 30
0.0
  0
VERTEX
  5
173E
  8
SAPA_FOGBAND
 10
287.4370655448912
 20
15.74319012795066
 30
0.0
 42
0.0999389364679327
  0
VERTEX
  5
173F
  8
SAPA_FOGBAND
 10
291.3329698874528
 20
16.218524237201549
 30
0.0
 42
0.3113527671839112
  0
VERTEX
  5
1740
  8
SAPA_FOGBAND
 10
291.60825395684139
 20
16.579719053009061
 30
0.0
  0
VERTEX
  5
1741
  8
SAPA_FOGBAND
 10
291.62110764011811
 20
16.849822284328798
 30
0.0
 42
-0.205004399522433
  0
VERTEX
  5
1742
  8
SAPA_FOGBAND
 10
291.96478816194701
 20
17.557752967691162
 30
0.0
  0
VERTEX
  5
1743
  8
SAPA_FOGBAND
 10
293.13606605493152
 20
18.573562521438909
 30
0.0
 42
-0.8055176831861466
  0
VERTEX
  5
1744
  8
SAPA_FOGBAND
 10
294.1747237673726
 20
17.797391539889819
 30
0.0
  0
VERTEX
  5
1745
  8
SAPA_FOGBAND
 10
293.05497667677997
 20
15.33740095046277
 30
0.0
 42
-0.23240182960574
  0
VERTEX
  5
1746
  8
SAPA_FOGBAND
 10
292.7822047685903
 20
15.113670572064541
 30
0.0
 42
0.8281972534260916
  0
VERTEX
  5
1747
  8
SAPA_FOGBAND
 10
292.82570047543959
 20
14.09920961210794
 30
0.0
 42
-0.2654236385373166
  0
VERTEX
  5
1748
  8
SAPA_FOGBAND
 10
293.60714040306482
 20
13.48842271277918
 30
0.0
  0
VERTEX
  5
1749
  8
SAPA_FOGBAND
 10
295.34653534594628
 20
8.3710885085522957
 30
0.0
 42
-0.5665360068763656
  0
VERTEX
  5
174A
  8
SAPA_FOGBAND
 10
294.79182121423457
 20
7.7168347185706043
 30
0.0
  0
VERTEX
  5
174B
  8
SAPA_FOGBAND
 10
269.6501051179194
 20
10.380249055951079
 30
0.0
 42
-0.2273993322864573
  0
VERTEX
  5
174C
  8
SAPA_FOGBAND
 10
268.94148369282499
 20
10.876095004900201
 30
0.0
 42
-0.0248024956625856
  0
VERTEX
  5
174D
  8
SAPA_FOGBAND
 10
268.88352051194869
 20
10.99207557297451
 30
0.0
 42
-0.2363077723757957
  0
VERTEX
  5
174E
  8
SAPA_FOGBAND
 10
268.90858056105469
 20
11.16936109884875
 30
0.0
  0
VERTEX
  5
174F
  8
SAPA_FOGBAND
 10
269.4021589633349
 20
11.64776197213615
 30
0.0
  0
VERTEX
  5
1750
  8
SAPA_FOGBAND
 10
269.40215896333478
 20
12.85676505673081
 30
0.0
 42
0.4142135623730909
  0
VERTEX
  5
1751
  8
SAPA_FOGBAND
 10
269.00215896333481
 20
13.25676505673081
 30
0.0
  0
VERTEX
  5
1752
  8
SAPA_FOGBAND
 10
268.2043606943335
 20
13.25676505673081
 30
0.0
  0
VERTEX
  5
1753
  8
SAPA_FOGBAND
 10
268.00436069433351
 20
13.25676505673081
 30
0.0
  0
VERTEX
  5
1754
  8
SAPA_FOGBAND
 10
267.94989772320821
 20
13.05350648136004
 30
0.0
 42
-0.4740571810232318
  0
VERTEX
  5
1755
  8
SAPA_FOGBAND
 10
267.66761513756973
 20
12.926212618996489
 30
0.0
  0
VERTEX
  5
1756
  8
SAPA_FOGBAND
 10
266.51960777847358
 20
13.497450329634709
 30
0.0
 42
-0.2846003776496058
  0
VERTEX
  5
1757
  8
SAPA_FOGBAND
 10
266.24235132942567
 20
13.945094508094879
 30
0.0
  0
VERTEX
  5
1758
  8
SAPA_FOGBAND
 10
266.24235132942567
 20
15.465446072666239
 30
0.0
 42
-0.2846003776496049
  0
VERTEX
  5
1759
  8
SAPA_FOGBAND
 10
266.51960777847358
 20
15.9130902511264
 30
0.0
  0
VERTEX
  5
175A
  8
SAPA_FOGBAND
 10
267.66761513756973
 20
16.484327961764571
 30
0.0
 42
-0.4740571810232618
  0
VERTEX
  5
175B
  8
SAPA_FOGBAND
 10
267.94989772320821
 20
16.357034099401059
 30
0.0
  0
VERTEX
  5
175C
  8
SAPA_FOGBAND
 10
268.0208598652506
 20
16.092199779885231
 30
0.0
  0
VERTEX
  5
175D
  8
SAPA_FOGBAND
 10
268.22085986525059
 20
16.092199779885231
 30
0.0
  0
VERTEX
  5
175E
  8
SAPA_FOGBAND
 10
269.00215896333481
 20
16.092199779885231
 30
0.0
 42
0.4142135623730951
  0
VERTEX
  5
175F
  8
SAPA_FOGBAND
 10
269.40215896333478
 20
16.49219977988524
 30
0.0
  0
VERTEX
  5
1760
  8
SAPA_FOGBAND
 10
269.40215896333478
 20
19.18024905595108
 30
0.0
 42
0.2843345802748576
  0
VERTEX
  5
1761
  8
SAPA_FOGBAND
 10
267.96296353927409
 20
21.11182574186665
 30
0.0
  0
VERTEX
  5
1762
  8
SAPA_FOGBAND
 10
266.4053285394254
 20
21.873149775768979
 30
0.0
 42
-0.2865189237852846
  0
VERTEX
  5
1763
  8
SAPA_FOGBAND
 10
266.23706554489121
 20
22.142677810286571
 30
0.0
  0
VERTEX
  5
1764
  8
SAPA_FOGBAND
 10
266.23706554489121
 20
24.380203168402289
 30
0.0
 42
-0.5417225065732673
  0
VERTEX
  5
1765
  8
SAPA_FOGBAND
 10
266.6580410203166
 20
24.654729914541139
 30
0.0
  0
VERTEX
  5
1766
  8
SAPA_FOGBAND
 10
276.03022471447372
 20
20.471397434566601
 30
0.0
 42
0.0563290829981843
  0
VERTEX
  5
1767
  8
SAPA_FOGBAND
 10
276.45903190122982
 20
20.337563078091652
 30
0.0
  0
VERTEX
  5
1768
  8
SAPA_FOGBAND
 10
285.8958767285007
 20
18.522779270290599
 30
0.0
  0
SEQEND
  5
1769
  8
SAPA_FOGBAND
  0
POLYLINE
  5
FE3
  8
SAPA_FOGBAND
 66
     1
 10
0.0
 20
0.0
 30
0.0
 70
     1
  0
VERTEX
  5
176A
  8
SAPA_FOGBAND
 10
271.44446044995487
 20
17.217691847314921
 30
0.0
  0
VERTEX
  5
176B
  8
SAPA_FOGBAND
 10
277.34076299742298
 20
17.217691847314931
 30
0.0
 42
-0.4142135623730951
  0
VERTEX
  5
176C
  8
SAPA_FOGBAND
 10
277.54076299742309
 20
17.017691847314929
 30
0.0
  0
VERTEX
  5
176D
  8
SAPA_FOGBAND
 10
277.54076299742309
 20
13.27896892013343
 30
0.0
 42
-0.4142135623730951
  0
VERTEX
  5
176E
  8
SAPA_FOGBAND
 10
277.34076299742298
 20
13.07896892013343
 30
0.0
  0
VERTEX
  5
176F
  8
SAPA_FOGBAND
 10
271.44446044995487
 20
13.07896892013342
 30
0.0
 42
-0.4142135623731013
  0
VERTEX
  5
1770
  8
SAPA_FOGBAND
 10
270.94446044995487
 20
13.57896892013343
 30
0.0
  0
VERTEX
  5
1771
  8
SAPA_FOGBAND
 10
270.94446044995499
 20
16.717691847314931
 30
0.0
 42
-0.4142135623730951
  0
SEQEND
  5
1772
  8
SAPA_FOGBAND
  0
POLYLINE
  5
FE4
  8
SAPA_FOGBAND
 66
     1
 10
0.0
 20
0.0
 30
0.0
 70
     1
  0
VERTEX
  5
1773
  8
SAPA_FOGBAND
 10
285.13706554489119
 20
17.217691847314931
 30
0.0
 42
-0.4142135623730951
  0
VERTEX
  5
1774
  8
SAPA_FOGBAND
 10
286.13706554489119
 20
16.217691847314931
 30
0.0
  0
VERTEX
  5
1775
  8
SAPA_FOGBAND
 10
286.13706554489119
 20
13.57896892013343
 30
0.0
 42
-0.4142135623730951
  0
VERTEX
  5
1776
  8
SAPA_FOGBAND
 10
285.63706554489119
 20
13.07896892013343
 30
0.0
  0
VERTEX
  5
1777
  8
SAPA_FOGBAND
 10
279.24076299742308
 20
13.07896892013343
 30
0.0
 42
-0.4142135623730951
  0
VERTEX
  5
1778
  8
SAPA_FOGBAND
 10
279.04076299742309
 20
13.27896892013343
 30
0.0
  0
VERTEX
  5
1779
  8
SAPA_FOGBAND
 10
279.04076299742309
 20
17.017691847314929
 30
0.0
 42
-0.4142135623730951
  0
VERTEX
  5
177A
  8
SAPA_FOGBAND
 10
279.24076299742308
 20
17.217691847314931
 30
0.0
  0
SEQEND
  5
177B
  8
SAPA_FOGBAND
  0
POLYLINE
  5
FE5
  8
SAPA_FOGBAND
 66
     1
 10
0.0
 20
0.0
 30
0.0
 70
     1
  0
VERTEX
  5
177C
  8
SAPA_FOGBAND
 10
271.64608624233068
 20
20.982725521803179
 30
0.0
 42
0.5417225065732673
  0
VERTEX
  5
177D
  8
SAPA_FOGBAND
 10
270.94446044995487
 20
20.525180944905092
 30
0.0
  0
VERTEX
  5
177E
  8
SAPA_FOGBAND
 10
270.94446044995487
 20
19.017691847314921
 30
0.0
 42
0.4142135623730951
  0
VERTEX
  5
177F
  8
SAPA_FOGBAND
 10
271.44446044995487
 20
18.517691847314921
 30
0.0
  0
VERTEX
  5
1780
  8
SAPA_FOGBAND
 10
274.86536931884621
 20
18.517691847314921
 30
0.0
 42
0.8113630355945115
  0
VERTEX
  5
1781
  8
SAPA_FOGBAND
 10
275.0669951112219
 20
19.475236424213019
 30
0.0
  0
SEQEND
  5
1782
  8
SAPA_FOGBAND
  0
LINE
  5
FE6
  8
SAPA_FOGBAND
 10
270.94446044995487
 20
16.162133937544048
 30
0.0
 11
270.94446044995487
 21
16.717691847314921
 31
0.0
  0
POLYLINE
  5
FE7
  8
SAPA_FOGBAND
 66
     1
 10
0.0
 20
0.0
 30
0.0
  0
VERTEX
  5
1783
  8
SAPA_FOGBAND
 10
285.69904441392652
 20
18.550050134068599
 30
0.0
 42
-0.3894287807274992
  0
VERTEX
  5
1784
  8
SAPA_FOGBAND
 10
287.4370655448912
 20
16.656967239426621
 30
0.0
  0
VERTEX
  5
1785
  8
SAPA_FOGBAND
 10
287.4370655448912
 20
15.74319012795066
 30
0.0
  0
SEQEND
  5
1786
  8
SAPA_FOGBAND
  0
LINE
  5
FE8
  8
SAPA_FOGBAND
 10
271.44446044995487
 20
17.217691847314921
 30
0.0
 11
276.92430402114019
 21
17.217691847314931
 31
0.0
  0
ARC
  5
FE9
  8
SAPA_FOGBAND
 10
271.44446044995487
 20
16.717691847314921
 30
0.0
 40
0.5
 50
90.0
 51
180.0
  0
LINE
  5
FEA
  8
SAPA_FOGBAND
 10
270.94446044995487
 20
16.162133937544048
 30
0.0
 11
270.94446044995487
 21
16.717691847314921
 31
0.0
  0
ENDSEC
  0
EOF
