  0
SECTION
  2
HEADER
  9
$ACADVER
  1
AC1021
  9
$ACADMAINTVER
 70
    50
  9
$DWGCODEPAGE
  3
ANSI_1252
  9
$INSBASE
 10
0.0
 20
0.0
 30
0.0
  9
$EXTMIN
 10
-326.0000000031487
 20
-4085.67216554263
 30
0.0
  9
$EXTMAX
 10
4864.642630151377
 20
4465.685853818919
 30
0.0
  9
$LIMMIN
 10
0.0
 20
0.0
  9
$LIMMAX
 10
790.0
 20
790.0
  9
$ORTHOMODE
 70
     0
  9
$REGENMODE
 70
     1
  9
$FILLMODE
 70
     1
  9
$QTEXTMODE
 70
     0
  9
$MIRRTEXT
 70
     1
  9
$LTSCALE
 40
4.0
  9
$ATTMODE
 70
     1
  9
$TEXTSIZE
 40
3.5
  9
$TRACEWID
 40
0.05
  9
$TEXTSTYLE
  7
ISO
  9
$CLAYER
  8
sapa_elevation
  9
$CELTYPE
  6
BYLAYER
  9
$CECOLOR
 62
   256
  9
$CELTSCALE
 40
1.0
  9
$DISPSILH
 70
     1
  9
$DIMSCALE
 40
0.0
  9
$DIMASZ
 40
3.0
  9
$DIMEXO
 40
1.5
  9
$DIMDLI
 40
10.0
  9
$DIMRND
 40
0.0
  9
$DIMDLE
 40
0.0
  9
$DIMEXE
 40
1.5
  9
$DIMTP
 40
0.0
  9
$DIMTM
 40
0.0
  9
$DIMTXT
 40
3.0
  9
$DIMCEN
 40
-5.0
  9
$DIMTSZ
 40
0.0
  9
$DIMTOL
 70
     0
  9
$DIMLIM
 70
     0
  9
$DIMTIH
 70
     0
  9
$DIMTOH
 70
     0
  9
$DIMSE1
 70
     0
  9
$DIMSE2
 70
     0
  9
$DIMTAD
 70
     1
  9
$DIMZIN
 70
     8
  9
$DIMBLK
  1

  9
$DIMASO
 70
     1
  9
$DIMSHO
 70
     1
  9
$DIMPOST
  1

  9
$DIMAPOST
  1

  9
$DIMALT
 70
     0
  9
$DIMALTD
 70
     0
  9
$DIMALTF
 40
25.4
  9
$DIMLFAC
 40
-1.0
  9
$DIMTOFL
 70
     1
  9
$DIMTVP
 40
0.0
  9
$DIMTIX
 70
     0
  9
$DIMSOXD
 70
     0
  9
$DIMSAH
 70
     0
  9
$DIMBLK1
  1

  9
$DIMBLK2
  1

  9
$DIMSTYLE
  2
MASKIN
  9
$DIMCLRD
 70
   256
  9
$DIMCLRE
 70
   256
  9
$DIMCLRT
 70
     2
  9
$DIMTFAC
 40
1.0
  9
$DIMGAP
 40
1.0
  9
$DIMJUST
 70
     0
  9
$DIMSD1
 70
     0
  9
$DIMSD2
 70
     0
  9
$DIMTOLJ
 70
     1
  9
$DIMTZIN
 70
     8
  9
$DIMALTZ
 70
     8
  9
$DIMALTTZ
 70
     8
  9
$DIMUPT
 70
     0
  9
$DIMDEC
 70
     8
  9
$DIMTDEC
 70
     8
  9
$DIMALTU
 70
     2
  9
$DIMALTTD
 70
     0
  9
$DIMTXSTY
  7
ISO
  9
$DIMAUNIT
 70
     0
  9
$DIMADEC
 70
     2
  9
$DIMALTRND
 40
0.0
  9
$DIMAZIN
 70
     2
  9
$DIMDSEP
 70
    46
  9
$DIMATFIT
 70
     3
  9
$DIMFRAC
 70
     0
  9
$DIMLDRBLK
  1

  9
$DIMLUNIT
 70
     2
  9
$DIMLWD
 70
    -2
  9
$DIMLWE
 70
    -2
  9
$DIMTMOVE
 70
     0
  9
$DIMFXL
 40
1.5
  9
$DIMFXLON
 70
     0
  9
$DIMJOGANG
 40
1.570796326794896
  9
$DIMTFILL
 70
     0
  9
$DIMTFILLCLR
 70
     0
  9
$DIMARCSYM
 70
     0
  9
$DIMLTYPE
  6

  9
$DIMLTEX1
  6

  9
$DIMLTEX2
  6

  9
$LUNITS
 70
     2
  9
$LUPREC
 70
     8
  9
$SKETCHINC
 40
0.1
  9
$FILLETRAD
 40
0.0
  9
$AUNITS
 70
     0
  9
$AUPREC
 70
     8
  9
$MENU
  1
ACAD
  9
$ELEVATION
 40
0.0
  9
$PELEVATION
 40
0.0
  9
$THICKNESS
 40
0.0
  9
$LIMCHECK
 70
     0
  9
$CHAMFERA
 40
0.0
  9
$CHAMFERB
 40
0.0
  9
$CHAMFERC
 40
0.0
  9
$CHAMFERD
 40
0.0
  9
$SKPOLY
 70
     0
  9
$TDCREATE
 40
2454868.658999120
  9
$TDUCREATE
 40
2454868.575665787
  9
$TDUPDATE
 40
2457606.371786921
  9
$TDUUPDATE
 40
2457606.288453588
  9
$TDINDWG
 40
0.0311200694
  9
$TDUSRTIMER
 40
0.0311198843
  9
$USRTIMER
 70
     1
  9
$ANGBASE
 50
0.0
  9
$ANGDIR
 70
     0
  9
$PDMODE
 70
     0
  9
$PDSIZE
 40
0.0
  9
$PLINEWID
 40
0.0
  9
$SPLFRAME
 70
     0
  9
$SPLINETYPE
 70
     6
  9
$SPLINESEGS
 70
     8
  9
$HANDSEED
  5
12D
  9
$SURFTAB1
 70
     6
  9
$SURFTAB2
 70
     6
  9
$SURFTYPE
 70
     6
  9
$SURFU
 70
     6
  9
$SURFV
 70
     6
  9
$UCSBASE
  2

  9
$UCSNAME
  2

  9
$UCSORG
 10
0.0
 20
0.0
 30
0.0
  9
$UCSXDIR
 10
1.0
 20
0.0
 30
0.0
  9
$UCSYDIR
 10
0.0
 20
1.0
 30
0.0
  9
$UCSORTHOREF
  2

  9
$UCSORTHOVIEW
 70
     0
  9
$UCSORGTOP
 10
0.0
 20
0.0
 30
0.0
  9
$UCSORGBOTTOM
 10
0.0
 20
0.0
 30
0.0
  9
$UCSORGLEFT
 10
0.0
 20
0.0
 30
0.0
  9
$UCSORGRIGHT
 10
0.0
 20
0.0
 30
0.0
  9
$UCSORGFRONT
 10
0.0
 20
0.0
 30
0.0
  9
$UCSORGBACK
 10
0.0
 20
0.0
 30
0.0
  9
$PUCSBASE
  2

  9
$PUCSNAME
  2

  9
$PUCSORG
 10
0.0
 20
0.0
 30
0.0
  9
$PUCSXDIR
 10
1.0
 20
0.0
 30
0.0
  9
$PUCSYDIR
 10
0.0
 20
1.0
 30
0.0
  9
$PUCSORTHOREF
  2

  9
$PUCSORTHOVIEW
 70
     0
  9
$PUCSORGTOP
 10
0.0
 20
0.0
 30
0.0
  9
$PUCSORGBOTTOM
 10
0.0
 20
0.0
 30
0.0
  9
$PUCSORGLEFT
 10
0.0
 20
0.0
 30
0.0
  9
$PUCSORGRIGHT
 10
0.0
 20
0.0
 30
0.0
  9
$PUCSORGFRONT
 10
0.0
 20
0.0
 30
0.0
  9
$PUCSORGBACK
 10
0.0
 20
0.0
 30
0.0
  9
$USERI1
 70
     0
  9
$USERI2
 70
     0
  9
$USERI3
 70
     0
  9
$USERI4
 70
     0
  9
$USERI5
 70
     0
  9
$USERR1
 40
0.0
  9
$USERR2
 40
0.0
  9
$USERR3
 40
0.0
  9
$USERR4
 40
0.0
  9
$USERR5
 40
0.0
  9
$WORLDVIEW
 70
     1
  9
$SHADEDGE
 70
     3
  9
$SHADEDIF
 70
    70
  9
$TILEMODE
 70
     1
  9
$MAXACTVP
 70
    16
  9
$PINSBASE
 10
0.0
 20
0.0
 30
0.0
  9
$PLIMCHECK
 70
     0
  9
$PEXTMIN
 10
5.868009702067809
 20
-0.0038431578304881
 30
-0.0015258207003583
  9
$PEXTMAX
 10
185.8813063784483
 20
283.0082764204674
 30
0.0000000349246037
  9
$PLIMMIN
 10
-14.40651499994891
 20
-4.253669647431024
  9
$PLIMMAX
 10
195.5668126367698
 20
292.6723252256159
  9
$UNITMODE
 70
     0
  9
$VISRETAIN
 70
     1
  9
$PLINEGEN
 70
     0
  9
$PSLTSCALE
 70
     1
  9
$TREEDEPTH
 70
  3020
  9
$CMLSTYLE
  2
STANDARD
  9
$CMLJUST
 70
     0
  9
$CMLSCALE
 40
1.0
  9
$PROXYGRAPHICS
 70
     1
  9
$MEASUREMENT
 70
     1
  9
$CELWEIGHT
370
    -1
  9
$ENDCAPS
280
     0
  9
$JOINSTYLE
280
     0
  9
$LWDISPLAY
290
     0
  9
$INSUNITS
 70
     4
  9
$HYPERLINKBASE
  1

  9
$STYLESHEET
  1

  9
$XEDIT
290
     1
  9
$CEPSNTYPE
380
     0
  9
$PSTYLEMODE
290
     1
  9
$FINGERPRINTGUID
  2
{F759C6A1-1AE4-46E7-BD66-58F50896E26C}
  9
$VERSIONGUID
  2
{12DFD9B0-DD9A-474D-A248-C807C1DEA84B}
  9
$EXTNAMES
290
     1
  9
$PSVPSCALE
 40
0.0
  9
$OLESTARTUP
290
     0
  9
$SORTENTS
280
   127
  9
$INDEXCTL
280
     0
  9
$HIDETEXT
280
     1
  9
$XCLIPFRAME
290
     0
  9
$HALOGAP
280
     0
  9
$OBSCOLOR
 70
   257
  9
$OBSLTYPE
280
     0
  9
$INTERSECTIONDISPLAY
280
     0
  9
$INTERSECTIONCOLOR
 70
   257
  9
$DIMASSOC
280
     2
  9
$PROJECTNAME
  1

  9
$CAMERADISPLAY
290
     0
  9
$LENSLENGTH
 40
50.0
  9
$CAMERAHEIGHT
 40
0.0
  9
$STEPSPERSEC
 40
2.0
  9
$STEPSIZE
 40
6.0
  9
$3DDWFPREC
 40
2.0
  9
$PSOLWIDTH
 40
0.25
  9
$PSOLHEIGHT
 40
4.0
  9
$LOFTANG1
 40
1.570796326794896
  9
$LOFTANG2
 40
1.570796326794896
  9
$LOFTMAG1
 40
0.0
  9
$LOFTMAG2
 40
0.0
  9
$LOFTPARAM
 70
     7
  9
$LOFTNORMALS
280
     1
  9
$LATITUDE
 40
37.795
  9
$LONGITUDE
 40
-122.394
  9
$NORTHDIRECTION
 40
0.0
  9
$TIMEZONE
 70
 -8000
  9
$LIGHTGLYPHDISPLAY
280
     1
  9
$TILEMODELIGHTSYNCH
280
     1
  9
$CMATERIAL
347
33
  9
$SOLIDHIST
280
     1
  9
$SHOWHIST
280
     1
  9
$DWFFRAME
280
     2
  9
$DGNFRAME
280
     0
  9
$REALWORLDSCALE
290
     1
  9
$INTERFERECOLOR
 62
     1
  9
$INTERFEREOBJVS
345
3F
  9
$INTERFEREVPVS
346
40
  9
$CSHADOW
280
     0
  9
$SHADOWPLANELOCATION
 40
0.0
  0
ENDSEC
  0
SECTION
  2
CLASSES
  0
CLASS
  1
DICTIONARYVAR
  2
AcDbDictionaryVar
  3
ObjectDBX Classes
 90
        0
 91
        9
280
     0
281
     0
  0
CLASS
  1
ACDBDICTIONARYWDFLT
  2
AcDbDictionaryWithDefault
  3
ObjectDBX Classes
 90
        0
 91
        1
280
     0
281
     0
  0
CLASS
  1
PLOTSETTINGS
  2
AcDbPlotSettings
  3
ObjectDBX Classes
 90
        0
 91
        0
280
     0
281
     0
  0
CLASS
  1
TABLESTYLE
  2
AcDbTableStyle
  3
ObjectDBX Classes
 90
     4095
 91
        1
280
     0
281
     0
  0
CLASS
  1
MATERIAL
  2
AcDbMaterial
  3
ObjectDBX Classes
 90
     1153
 91
        3
280
     0
281
     0
  0
CLASS
  1
VISUALSTYLE
  2
AcDbVisualStyle
  3
ObjectDBX Classes
 90
     4095
 91
        3
280
     0
281
     0
  0
CLASS
  1
IMAGEDEF
  2
AcDbRasterImageDef
  3
ISM
 90
        0
 91
        0
280
     0
281
     0
  0
CLASS
  1
SCALE
  2
AcDbScale
  3
ObjectDBX Classes
 90
     1153
 91
       33
280
     0
281
     0
  0
CLASS
  1
MLEADERSTYLE
  2
AcDbMLeaderStyle
  3
ACDB_MLEADERSTYLE_CLASS
 90
     4095
 91
        0
280
     0
281
     0
  0
CLASS
  1
EXACXREFPANELOBJECT
  2
ExAcXREFPanelObject
  3
EXAC_ESW
 90
     1025
 91
        0
280
     0
281
     0
  0
CLASS
  1
NPOCOLLECTION
  2
AcDbImpNonPersistentObjectsCollection
  3
ObjectDBX Classes
 90
     1153
 91
        0
280
     0
281
     0
  0
CLASS
  1
CELLSTYLEMAP
  2
AcDbCellStyleMap
  3
ObjectDBX Classes
 90
     1152
 91
        1
280
     0
281
     0
  0
CLASS
  1
SORTENTSTABLE
  2
AcDbSortentsTable
  3
ObjectDBX Classes
 90
        0
 91
        2
280
     0
281
     0
  0
CLASS
  1
AEC_REFEDIT_STATUS_TRACKER
  2
AecDbRefEditStatusTracker
  3
AecArchBase70|Product Desc: Autodesk Architectural Desktop 2007 |Company: Autodesk,Inc. |WEB Address: www.autodesk.com
 90
      129
 91
        0
280
     1
281
     0
  0
CLASS
  1
EXACTERMXREFMAP
  2
ExAcTermXrefMap
  3
EXAC_SERVICE
 90
     1025
 91
        0
280
     0
281
     0
  0
CLASS
  1
ACDBSECTIONVIEWSTYLE
  2
AcDbSectionViewStyle
  3
ObjectDBX Classes
 90
     1025
 91
        0
280
     0
281
     0
  0
CLASS
  1
ACDBDETAILVIEWSTYLE
  2
AcDbDetailViewStyle
  3
ObjectDBX Classes
 90
     1025
 91
        0
280
     0
281
     0
  0
ENDSEC
  0
SECTION
  2
TABLES
  0
TABLE
  2
VPORT
  5
23
330
0
100
AcDbSymbolTable
 70
     1
  0
VPORT
  5
24
330
23
100
AcDbSymbolTableRecord
100
AcDbViewportTableRecord
  2
*Active
 70
     0
 10
0.0
 20
0.0
 11
1.0
 21
1.0
 12
3677.845032991615
 22
3275.125263597183
 13
0.0
 23
0.0
 14
1.0
 24
1.0
 15
0.0
 25
0.0
 16
0.0
 26
0.0
 36
1.0
 17
0.0
 27
0.0
 37
0.0
 40
10165.89067898364
 41
1.607076350093109
 42
50.0
 43
0.0
 44
0.0
 50
0.0
 51
0.0
 71
     0
 72
   100
 73
     1
 74
     1
 75
     0
 76
     0
 77
     0
 78
     0
281
     0
 65
     1
110
0.0
120
0.0
130
0.0
111
1.0
121
0.0
131
0.0
112
0.0
122
1.0
132
0.0
 79
     0
146
0.0
348
25
 60
     3
 61
     5
292
     1
282
     1
141
0.0
142
0.0
 63
   250
421
  3355443
1001
ACAD_NAV_VCDISPLAY
1070
     3
  0
ENDTAB
  0
TABLE
  2
LTYPE
  5
1E
330
0
100
AcDbSymbolTable
 70
     2
  0
LTYPE
  5
1F
330
1E
100
AcDbSymbolTableRecord
100
AcDbLinetypeTableRecord
  2
BYBLOCK
 70
     0
  3

 72
    65
 73
     0
 40
0.0
  0
LTYPE
  5
20
330
1E
100
AcDbSymbolTableRecord
100
AcDbLinetypeTableRecord
  2
BYLAYER
 70
     0
  3

 72
    65
 73
     0
 40
0.0
  0
LTYPE
  5
E
330
1E
100
AcDbSymbolTableRecord
100
AcDbLinetypeTableRecord
  2
CONTINUOUS
 70
     0
  3
Solid line
 72
    65
 73
     0
 40
0.0
  0
LTYPE
  5
84
330
1E
100
AcDbSymbolTableRecord
100
AcDbLinetypeTableRecord
  2
DASHED
 70
     0
  3
__ __ __ __ __ __ __ __ __ __ __ __ __ __ __
 72
    65
 73
     2
 40
0.75
 49
0.5
 74
     0
 49
-0.25
 74
     0
  0
ENDTAB
  0
TABLE
  2
LAYER
  5
18
102
{ACAD_XDICTIONARY
360
19
102
}
330
0
100
AcDbSymbolTable
 70
     2
  0
LAYER
  5
6
102
{ACAD_XDICTIONARY
360
7
102
}
330
18
100
AcDbSymbolTableRecord
100
AcDbLayerTableRecord
  2
0
 70
     1
 62
    -7
  6
CONTINUOUS
370
    -3
390
9
347
C
  0
LAYER
  5
39
102
{ACAD_XDICTIONARY
360
3A
102
}
330
18
100
AcDbSymbolTableRecord
100
AcDbLayerTableRecord
  2
sapa_elevation
 70
     0
 62
     7
  6
CONTINUOUS
370
    -3
390
9
347
C
1001
AcAecLayerStandard
1000

1000

  0
ENDTAB
  0
TABLE
  2
STYLE
  5
1B
330
0
100
AcDbSymbolTable
 70
     2
  0
STYLE
  5
1C
330
1B
100
AcDbSymbolTableRecord
100
AcDbTextStyleTableRecord
  2
STANDARD
 70
     0
 40
0.0
 41
1.0
 50
0.0
 71
     0
 42
0.2
  3
txt
  4

  0
STYLE
  5
2C
330
1B
100
AcDbSymbolTableRecord
100
AcDbTextStyleTableRecord
  2
ISO
 70
     0
 40
0.0
 41
1.0
 50
0.0
 71
     0
 42
3.5
  3
isocpeur.ttf
  4

1001
ACAD
1000
ISOCPEUR
1071
       34
  0
ENDTAB
  0
TABLE
  2
VIEW
  5
21
330
0
100
AcDbSymbolTable
 70
     0
  0
ENDTAB
  0
TABLE
  2
UCS
  5
22
330
0
100
AcDbSymbolTable
 70
     0
  0
ENDTAB
  0
TABLE
  2
APPID
  5
28
330
0
100
AcDbSymbolTable
 70
     5
  0
APPID
  5
29
330
28
100
AcDbSymbolTableRecord
100
AcDbRegAppTableRecord
  2
ACAD
 70
     0
  0
APPID
  5
2D
330
28
100
AcDbSymbolTableRecord
100
AcDbRegAppTableRecord
  2
ACAD_DSTYLE_DIMJOGGED_JOGANGLE_SYMBOL
 70
     0
  0
APPID
  5
12
330
28
100
AcDbSymbolTableRecord
100
AcDbRegAppTableRecord
  2
ACAD_PSEXT
 70
     0
  0
APPID
  5
3B
330
28
100
AcDbSymbolTableRecord
100
AcDbRegAppTableRecord
  2
AcAecLayerStandard
 70
     0
  0
APPID
  5
27
330
28
100
AcDbSymbolTableRecord
100
AcDbRegAppTableRecord
  2
ACAD_NAV_VCDISPLAY
 70
     0
  0
ENDTAB
  0
TABLE
  2
DIMSTYLE
  5
2A
330
0
100
AcDbSymbolTable
 70
     2
100
AcDbDimStyleTable
 71
     2
340
2B
340
2E
  0
DIMSTYLE
105
2E
330
2A
100
AcDbSymbolTableRecord
100
AcDbDimStyleTableRecord
  2
Standard
 70
     0
340
1C
  0
DIMSTYLE
105
2B
330
2A
100
AcDbSymbolTableRecord
100
AcDbDimStyleTableRecord
  2
MASKIN
 70
     0
 40
0.0
 41
3.0
 42
1.5
 43
10.0
 44
1.5
 49
1.5
 50
90.0
 73
     0
 74
     0
 77
     1
 78
     8
 79
     2
140
3.0
141
-5.0
144
-1.0
147
1.0
171
     0
172
     1
176
   256
177
   256
178
     2
179
     2
271
     8
272
     8
274
     0
284
     8
285
     8
286
     8
340
2C
1001
ACAD_DSTYLE_DIMJOGGED_JOGANGLE_SYMBOL
1070
   384
1040
1.570796326794896
  0
ENDTAB
  0
TABLE
  2
BLOCK_RECORD
  5
1
330
0
100
AcDbSymbolTable
 70
     6
  0
BLOCK_RECORD
  5
2
102
{ACAD_XDICTIONARY
360
3
102
}
330
1
100
AcDbSymbolTableRecord
100
AcDbBlockTableRecord
  2
*MODEL_SPACE
340
10
 70
     0
280
     1
281
     0
  0
BLOCK_RECORD
  5
13
330
1
100
AcDbSymbolTableRecord
100
AcDbBlockTableRecord
  2
*Paper_Space
340
16
 70
     0
280
     1
281
     0
  0
BLOCK_RECORD
  5
77
330
1
100
AcDbSymbolTableRecord
100
AcDbBlockTableRecord
  2
BYGG-019127
340
0
102
{BLKREFS
331
76
102
}
 70
     0
280
     1
281
     0
  0
BLOCK_RECORD
  5
73
330
1
100
AcDbSymbolTableRecord
100
AcDbBlockTableRecord
  2
BYGG-019125
340
0
102
{BLKREFS
331
72
102
}
 70
     0
280
     1
281
     0
  0
BLOCK_RECORD
  5
6F
330
1
100
AcDbSymbolTableRecord
100
AcDbBlockTableRecord
  2
BYGG-019095
340
0
102
{BLKREFS
331
6E
102
}
 70
     0
280
     1
281
     0
  0
BLOCK_RECORD
  5
6B
330
1
100
AcDbSymbolTableRecord
100
AcDbBlockTableRecord
  2
BYGG-019129
340
0
102
{BLKREFS
331
6A
102
}
 70
     0
280
     1
281
     0
  0
BLOCK_RECORD
  5
67
330
1
100
AcDbSymbolTableRecord
100
AcDbBlockTableRecord
  2
BYGG-019754
340
0
102
{BLKREFS
331
66
102
}
 70
     0
280
     1
281
     0
  0
BLOCK_RECORD
  5
63
330
1
100
AcDbSymbolTableRecord
100
AcDbBlockTableRecord
  2
BYGG-019106
340
0
102
{BLKREFS
331
62
102
}
 70
     0
280
     1
281
     0
  0
ENDTAB
  0
ENDSEC
  0
SECTION
  2
BLOCKS
  0
BLOCK
  5
5
330
2
100
AcDbEntity
  8
0
100
AcDbBlockBegin
  2
*MODEL_SPACE
 70
     0
 10
0.0
 20
0.0
 30
0.0
  3
*MODEL_SPACE
  1

  0
ENDBLK
  5
F
330
2
100
AcDbEntity
  8
0
100
AcDbBlockEnd
  0
BLOCK
  5
14
330
13
100
AcDbEntity
 67
     1
  8
0
100
AcDbBlockBegin
  2
*Paper_Space
 70
     0
 10
0.0
 20
0.0
 30
0.0
  3
*Paper_Space
  1

  0
ENDBLK
  5
15
330
13
100
AcDbEntity
 67
     1
  8
0
100
AcDbBlockEnd
  0
BLOCK
  5
78
330
77
100
AcDbEntity
  8
0
100
AcDbBlockBegin
  2
BYGG-019127
 70
     4
 10
2075.630375997555
 20
6910.307769355196
 30
0.0
  3
BYGG-019127
  1
\\vtl00-ms029\pspdata$\2007\06\0\BYGG-019127.dwg
  0
ENDBLK
  5
79
330
77
100
AcDbEntity
  8
0
100
AcDbBlockEnd
  0
BLOCK
  5
74
330
73
100
AcDbEntity
  8
0
100
AcDbBlockBegin
  2
BYGG-019125
 70
     4
 10
2156.575660903439
 20
7031.696451328004
 30
0.0
  3
BYGG-019125
  1
\\vtl00-ms029\pspdata$\2007\06\0\BYGG-019125.dwg
  0
ENDBLK
  5
75
330
73
100
AcDbEntity
  8
0
100
AcDbBlockEnd
  0
BLOCK
  5
70
330
6F
100
AcDbEntity
  8
0
100
AcDbBlockBegin
  2
BYGG-019095
 70
     4
 10
325.0438727847577
 20
257.1322978704965
 30
0.0
  3
BYGG-019095
  1
\\vtl00-ms029\pspdata$\2007\06\0\BYGG-019095.dwg
  0
ENDBLK
  5
71
330
6F
100
AcDbEntity
  8
0
100
AcDbBlockEnd
  0
BLOCK
  5
6C
330
6B
100
AcDbEntity
  8
0
100
AcDbBlockBegin
  2
BYGG-019129
 70
     4
 10
15982.95334465951
 20
6131.236354844125
 30
0.0
  3
BYGG-019129
  1
\\vtl00-ms029\pspdata$\2007\06\0\BYGG-019129.dwg
  0
ENDBLK
  5
6D
330
6B
100
AcDbEntity
  8
0
100
AcDbBlockEnd
  0
BLOCK
  5
68
330
67
100
AcDbEntity
  8
0
100
AcDbBlockBegin
  2
BYGG-019754
 70
     4
 10
119.5764141936595
 20
54.50159084383773
 30
0.0
  3
BYGG-019754
  1
\\vtl00-ms029\pspdata$\2009\02\0\BYGG-019754.dwg
  0
ENDBLK
  5
69
330
67
100
AcDbEntity
  8
0
100
AcDbBlockEnd
  0
BLOCK
  5
64
330
63
100
AcDbEntity
  8
0
100
AcDbBlockBegin
  2
BYGG-019106
 70
     4
 10
119.5764141936595
 20
54.50159084383773
 30
0.0
  3
BYGG-019106
  1
\\vtl00-ms029\pspdata$\2007\06\0\BYGG-019106.dwg
  0
ENDBLK
  5
65
330
63
100
AcDbEntity
  8
0
100
AcDbBlockEnd
  0
ENDSEC
  0
SECTION
  2
ENTITIES
  0
INSERT
  5
62
330
2
100
AcDbEntity
  8
sapa_elevation
100
AcDbBlockReference
  2
BYGG-019106
 10
2849.985938806334
 20
-3991.3914916297
 30
0.0
  0
INSERT
  5
66
330
2
100
AcDbEntity
  8
sapa_elevation
100
AcDbBlockReference
  2
BYGG-019754
 10
2854.710722958233
 20
-3674.422136917689
 30
0.0
  0
INSERT
  5
6A
330
2
100
AcDbEntity
  8
sapa_elevation
100
AcDbBlockReference
  2
BYGG-019129
 10
18791.31011133722
 20
3675.443158264272
 30
0.0
  0
INSERT
  5
6E
330
2
100
AcDbEntity
  8
sapa_elevation
100
AcDbBlockReference
  2
BYGG-019095
 10
2540.311957300233
 20
-1945.298000148396
 30
0.0
  0
INSERT
  5
72
330
2
100
AcDbEntity
  8
sapa_elevation
100
AcDbBlockReference
  2
BYGG-019125
 10
3254.060065034544
 20
4754.14042391091
 30
0.0
  0
INSERT
  5
76
330
2
100
AcDbEntity
  8
sapa_elevation
100
AcDbBlockReference
  2
BYGG-019127
 10
4177.86171856572
 20
3774.040157302596
 30
0.0
  0
LINE
  5
7A
330
2
100
AcDbEntity
  8
sapa_elevation
100
AcDbLine
 10
4232.799999996307
 20
2359.403958882369
 30
0.0
 11
4282.799999996307
 21
2359.40395888237
 31
0.0
  0
LINE
  5
7B
330
2
100
AcDbEntity
  8
sapa_elevation
100
AcDbLine
 10
4232.799999996307
 20
4259.403958882369
 30
0.0
 11
4282.799999996306
 21
4259.40395888237
 31
0.0
  0
LINE
  5
7C
330
2
100
AcDbEntity
  8
sapa_elevation
100
AcDbLine
 10
4232.799999996307
 20
4409.403958882371
 30
0.0
 11
4232.799999996307
 21
2209.40395888237
 31
0.0
  0
LINE
  5
7D
330
2
100
AcDbEntity
  8
sapa_elevation
100
AcDbLine
 10
73.99999999685246
 20
2359.403958882369
 30
0.0
 11
23.99999999685247
 21
2359.40395888237
 31
0.0
  0
LINE
  5
7E
330
2
100
AcDbEntity
  8
sapa_elevation
100
AcDbLine
 10
73.99999999685269
 20
4259.403958882369
 30
0.0
 11
23.99999999685269
 21
4259.40395888237
 31
0.0
  0
LINE
  5
7F
330
2
100
AcDbEntity
  8
sapa_elevation
100
AcDbLine
 10
73.99999999685269
 20
4409.403958882371
 30
0.0
 11
73.99999999685269
 21
2209.40395888237
 31
0.0
  0
LINE
  5
80
330
2
100
AcDbEntity
  8
sapa_elevation
100
AcDbLine
 10
3194.649999997554
 20
4259.40395888237
 30
0.0
 11
4189.799999996306
 21
4259.40395888237
 31
0.0
  0
LINE
  5
81
330
2
100
AcDbEntity
  8
sapa_elevation
100
AcDbLine
 10
2153.39999999658
 20
4279.403958882371
 30
0.0
 11
3194.649999997554
 21
4279.403958882371
 31
0.0
  0
LINE
  5
82
330
2
100
AcDbEntity
  8
sapa_elevation
100
AcDbLine
 10
1112.149999995607
 20
4279.403958882372
 30
0.0
 11
2153.39999999658
 21
4279.403958882371
 31
0.0
  0
LINE
  5
83
330
2
100
AcDbEntity
  8
sapa_elevation
  6
DASHED
 62
     1
 48
5.0
100
AcDbLine
 10
88.99999999685405
 20
148.9999999984238
 30
0.0
 11
148.9999999968531
 21
148.9999999984229
 31
0.0
  0
LINE
  5
85
330
2
100
AcDbEntity
  8
sapa_elevation
  6
DASHED
 62
     1
 48
5.0
100
AcDbLine
 10
88.99999999685224
 20
88.99999999842384
 30
0.0
 11
148.9999999968531
 21
88.99999999842293
 31
0.0
  0
LINE
  5
86
330
2
100
AcDbEntity
  8
sapa_elevation
  6
DASHED
 62
     1
 48
5.0
100
AcDbLine
 10
148.9999999968531
 20
88.99999999842293
 30
0.0
 11
148.9999999968531
 21
148.9999999984229
 31
0.0
  0
LINE
  5
87
330
2
100
AcDbEntity
  8
sapa_elevation
  6
DASHED
 62
     1
 48
5.0
100
AcDbLine
 10
88.99999999685224
 20
88.99999999842384
 30
0.0
 11
88.99999999685405
 21
148.9999999984238
 31
0.0
  0
LINE
  5
88
330
2
100
AcDbEntity
  8
sapa_elevation
100
AcDbLine
 10
4189.799999996306
 20
4409.403958882371
 30
0.0
 11
4189.799999996306
 21
2209.40395888237
 31
0.0
  0
LINE
  5
89
330
2
100
AcDbEntity
  8
sapa_elevation
100
AcDbLine
 10
3194.649999997554
 20
4279.403958882371
 30
0.0
 11
3194.649999997553
 21
2209.40395888237
 31
0.0
  0
LINE
  5
8A
330
2
100
AcDbEntity
  8
sapa_elevation
100
AcDbLine
 10
3105.649999997287
 20
4201.40395888237
 30
0.0
 11
3105.649999997288
 21
2209.40395888237
 31
0.0
  0
LINE
  5
8B
330
2
100
AcDbEntity
  8
sapa_elevation
100
AcDbLine
 10
2072.39999999658
 20
2209.40395888237
 30
0.0
 11
2072.39999999658
 21
4201.40395888237
 31
0.0
  0
LINE
  5
8C
330
2
100
AcDbEntity
  8
sapa_elevation
100
AcDbLine
 10
2234.39999999658
 20
2209.40395888237
 30
0.0
 11
2234.39999999658
 21
4201.40395888237
 31
0.0
  0
LINE
  5
8D
330
2
100
AcDbEntity
  8
sapa_elevation
100
AcDbLine
 10
2153.39999999658
 20
2209.40395888237
 30
0.0
 11
2153.39999999658
 21
4279.403958882371
 31
0.0
  0
LINE
  5
8E
330
2
100
AcDbEntity
  8
sapa_elevation
100
AcDbLine
 10
1201.149999995871
 20
4201.403958882371
 30
0.0
 11
1201.14999999587
 21
2209.40395888237
 31
0.0
  0
LINE
  5
8F
330
2
100
AcDbEntity
  8
sapa_elevation
100
AcDbLine
 10
1112.149999995607
 20
4279.403958882372
 30
0.0
 11
1112.149999995607
 21
2209.40395888237
 31
0.0
  0
LINE
  5
90
330
2
100
AcDbEntity
  8
sapa_elevation
100
AcDbLine
 10
116.9999999968524
 20
4409.403958882371
 30
0.0
 11
116.9999999968527
 21
2209.40395888237
 31
0.0
  0
LINE
  5
91
330
2
100
AcDbEntity
  8
sapa_elevation
100
AcDbLine
 10
4282.799999996306
 20
4409.403958882371
 30
0.0
 11
4282.799999996306
 21
2209.40395888237
 31
0.0
  0
LINE
  5
92
330
2
100
AcDbEntity
  8
sapa_elevation
100
AcDbLine
 10
2234.39999999658
 20
4201.40395888237
 30
0.0
 11
3105.649999997287
 21
4201.40395888237
 31
0.0
  0
LINE
  5
93
330
2
100
AcDbEntity
  8
sapa_elevation
100
AcDbLine
 10
1201.149999995871
 20
4201.403958882371
 30
0.0
 11
2072.39999999658
 21
4201.40395888237
 31
0.0
  0
LINE
  5
94
330
2
100
AcDbEntity
  8
sapa_elevation
100
AcDbLine
 10
116.9999999968527
 20
4259.40395888237
 30
0.0
 11
1112.149999995607
 21
4259.40395888237
 31
0.0
  0
LINE
  5
95
330
2
100
AcDbEntity
  8
sapa_elevation
100
AcDbLine
 10
23.99999999685269
 20
4409.403958882371
 30
0.0
 11
4282.799999996306
 21
4409.403958882371
 31
0.0
  0
LINE
  5
96
330
2
100
AcDbEntity
  8
sapa_elevation
100
AcDbLine
 10
3194.649999997553
 20
2359.40395888237
 30
0.0
 11
4189.799999996306
 21
2359.40395888237
 31
0.0
  0
LINE
  5
97
330
2
100
AcDbEntity
  8
sapa_elevation
100
AcDbLine
 10
2234.39999999658
 20
2359.40395888237
 30
0.0
 11
3105.649999997287
 21
2359.40395888237
 31
0.0
  0
LINE
  5
98
330
2
100
AcDbEntity
  8
sapa_elevation
100
AcDbLine
 10
1201.14999999587
 20
2359.40395888237
 30
0.0
 11
2072.39999999658
 21
2359.40395888237
 31
0.0
  0
LINE
  5
99
330
2
100
AcDbEntity
  8
sapa_elevation
100
AcDbLine
 10
116.9999999968524
 20
2359.40395888237
 30
0.0
 11
1112.149999995607
 21
2359.40395888237
 31
0.0
  0
LINE
  5
9A
330
2
100
AcDbEntity
  8
sapa_elevation
100
AcDbLine
 10
23.99999999685269
 20
2209.40395888237
 30
0.0
 11
4282.799999996306
 21
2209.40395888237
 31
0.0
  0
LINE
  5
9B
330
2
100
AcDbEntity
  8
sapa_elevation
100
AcDbLine
 10
23.99999999685269
 20
4409.403958882371
 30
0.0
 11
23.99999999685269
 21
2209.40395888237
 31
0.0
  0
LINE
  5
9C
330
2
100
AcDbEntity
  8
sapa_elevation
 48
5.0
100
AcDbLine
 10
23.99999999684815
 20
1159.999999998252
 30
0.0
 11
73.99999999684815
 21
1159.999999998252
 31
0.0
  0
LINE
  5
9D
330
2
100
AcDbEntity
  8
sapa_elevation
100
AcDbLine
 10
23.9999999968486
 20
1116.999999998252
 30
0.0
 11
73.9999999968486
 21
1116.999999998252
 31
0.0
  0
LINE
  5
9E
330
2
100
AcDbEntity
  8
sapa_elevation
 48
5.0
100
AcDbLine
 10
23.9999999968486
 20
1723.99999999737
 30
0.0
 11
23.9999999968486
 21
1116.999999998252
 31
0.0
  0
LINE
  5
9F
330
2
100
AcDbEntity
  8
sapa_elevation
 48
5.0
100
AcDbLine
 10
73.99999999684905
 20
1723.999999997373
 30
0.0
 11
73.9999999968486
 21
1116.999999998252
 31
0.0
  0
LINE
  5
A0
330
2
100
AcDbEntity
  8
sapa_elevation
 48
5.0
100
AcDbLine
 10
1221.152617956464
 20
1663.999999993901
 30
0.0
 11
349.8973820350766
 21
1663.999999999274
 31
0.0
  0
LINE
  5
A1
330
2
100
AcDbEntity
  8
sapa_elevation
 48
5.0
100
AcDbLine
 10
349.8973820350766
 20
1713.999999999274
 30
0.0
 11
1221.152617956464
 21
1713.9999999993
 31
0.0
  0
LINE
  5
A2
330
2
100
AcDbEntity
  8
sapa_elevation
 48
5.0
100
AcDbLine
 10
1112.149999986923
 20
1774.059046382104
 30
0.0
 11
116.9999999968527
 21
1774.05904638213
 31
0.0
  0
LINE
  5
A3
330
2
100
AcDbEntity
  8
sapa_elevation
 48
5.0
100
AcDbLine
 10
116.999999996849
 20
1723.99999999737
 30
0.0
 11
1112.149999986923
 21
1723.99999999737
 31
0.0
  0
LINE
  5
A4
330
2
100
AcDbEntity
  8
sapa_elevation
 48
5.0
100
AcDbLine
 10
116.9999999968527
 20
1774.059046382104
 30
0.0
 11
23.99999999685269
 21
1774.059046382104
 31
0.0
  0
LINE
  5
A5
330
2
100
AcDbEntity
  8
sapa_elevation
 48
5.0
100
AcDbLine
 10
1296.349999995819
 20
1664.000000003479
 30
0.0
 11
1221.152617956464
 21
1663.999999993901
 31
0.0
  0
LINE
  5
A6
330
2
100
AcDbEntity
  8
sapa_elevation
 48
5.0
100
AcDbLine
 10
1296.349999995819
 20
1714.000000001326
 30
0.0
 11
1296.349999995819
 21
1664.000000003479
 31
0.0
  0
LINE
  5
A7
330
2
100
AcDbEntity
  8
sapa_elevation
 48
5.0
100
AcDbLine
 10
1221.152617956464
 20
1714.000000001326
 30
0.0
 11
1296.349999995819
 21
1714.000000001326
 31
0.0
  0
LINE
  5
A8
330
2
100
AcDbEntity
  8
sapa_elevation
 48
5.0
100
AcDbLine
 10
1221.152617956464
 20
1663.999999993901
 30
0.0
 11
1221.152617956464
 21
1714.000000001326
 31
0.0
  0
LINE
  5
A9
330
2
100
AcDbEntity
  8
sapa_elevation
 48
5.0
100
AcDbLine
 10
1201.149999986923
 20
1724.059046382105
 30
0.0
 11
1112.149999986923
 21
1724.059046382105
 31
0.0
  0
LINE
  5
AA
330
2
100
AcDbEntity
  8
sapa_elevation
 48
5.0
100
AcDbLine
 10
1201.149999986923
 20
1774.059046382104
 30
0.0
 11
1201.149999986923
 21
1724.059046382105
 31
0.0
  0
LINE
  5
AB
330
2
100
AcDbEntity
  8
sapa_elevation
 48
5.0
100
AcDbLine
 10
1112.149999986923
 20
1774.059046382104
 30
0.0
 11
1201.149999986923
 21
1774.059046382104
 31
0.0
  0
LINE
  5
AC
330
2
100
AcDbEntity
  8
sapa_elevation
 48
5.0
100
AcDbLine
 10
1112.149999986923
 20
1724.059046382105
 30
0.0
 11
1112.149999986923
 21
1774.059046382104
 31
0.0
  0
LINE
  5
AD
330
2
100
AcDbEntity
  8
sapa_elevation
 48
5.0
100
AcDbLine
 10
349.8973820350766
 20
1663.999999999274
 30
0.0
 11
260.8999999956795
 21
1663.999999999274
 31
0.0
  0
LINE
  5
AE
330
2
100
AcDbEntity
  8
sapa_elevation
 48
5.0
100
AcDbLine
 10
260.8999999956759
 20
1713.999999999274
 30
0.0
 11
260.8999999956795
 21
1663.999999999274
 31
0.0
  0
LINE
  5
AF
330
2
100
AcDbEntity
  8
sapa_elevation
 48
5.0
100
AcDbLine
 10
349.8973820350766
 20
1713.999999999274
 30
0.0
 11
260.8999999956759
 21
1713.999999999274
 31
0.0
  0
LINE
  5
B0
330
2
100
AcDbEntity
  8
sapa_elevation
 48
5.0
100
AcDbLine
 10
349.8973820350766
 20
1663.999999999274
 30
0.0
 11
349.8973820350766
 21
1713.999999999274
 31
0.0
  0
LINE
  5
B1
330
2
100
AcDbEntity
  8
sapa_elevation
 48
5.0
100
AcDbLine
 10
23.9999999968486
 20
1723.99999999737
 30
0.0
 11
23.99999999685269
 21
1774.059046382104
 31
0.0
  0
LINE
  5
B2
330
2
100
AcDbEntity
  8
sapa_elevation
 48
5.0
100
AcDbLine
 10
73.99999999684905
 20
1723.999999997373
 30
0.0
 11
73.99999999685269
 21
1774.059046382108
 31
0.0
  0
LINE
  5
B3
330
2
100
AcDbEntity
  8
sapa_elevation
 48
5.0
100
AcDbLine
 10
116.999999996849
 20
1723.99999999737
 30
0.0
 11
116.9999999968527
 21
1774.059046382104
 31
0.0
  0
LINE
  5
B4
330
2
100
AcDbEntity
  8
sapa_elevation
 48
5.0
100
AcDbLine
 10
23.9999999968486
 20
1680.99999999737
 30
0.0
 11
73.99999999684905
 21
1680.99999999737
 31
0.0
  0
LINE
  5
B5
330
2
100
AcDbEntity
  8
sapa_elevation
 48
5.0
100
AcDbLine
 10
23.9999999968486
 20
1723.99999999737
 30
0.0
 11
116.999999996849
 21
1723.99999999737
 31
0.0
  0
LINE
  5
B6
330
2
100
AcDbEntity
  8
sapa_elevation
100
AcDbLine
 10
4232.799999996307
 20
1116.999999998252
 30
0.0
 11
4632.799999996307
 21
1116.999999998252
 31
0.0
  0
LINE
  5
B7
330
2
100
AcDbEntity
  8
sapa_elevation
100
AcDbLine
 10
4232.799999996307
 20
916.999999998252
 30
0.0
 11
4232.799999996307
 21
1116.999999998252
 31
0.0
  0
LINE
  5
B8
330
2
100
AcDbEntity
  8
sapa_elevation
100
AcDbLine
 10
4232.799999996307
 20
916.999999998252
 30
0.0
 11
4632.799999996307
 21
916.999999998252
 31
0.0
  0
LINE
  5
B9
330
2
100
AcDbEntity
  8
sapa_elevation
 48
5.0
100
AcDbLine
 10
4282.799999996313
 20
1159.999999998252
 30
0.0
 11
4232.799999996312
 21
1159.999999998252
 31
0.0
  0
LINE
  5
BA
330
2
100
AcDbEntity
  8
sapa_elevation
100
AcDbLine
 10
4282.799999996313
 20
1116.999999998252
 30
0.0
 11
4232.799999996312
 21
1116.999999998252
 31
0.0
  0
LINE
  5
BB
330
2
100
AcDbEntity
  8
sapa_elevation
 48
5.0
100
AcDbLine
 10
4282.799999996313
 20
1723.99999999737
 30
0.0
 11
4282.799999996313
 21
1116.999999998252
 31
0.0
  0
LINE
  5
BC
330
2
100
AcDbEntity
  8
sapa_elevation
 48
5.0
100
AcDbLine
 10
4232.79999999631
 20
1723.999999997373
 30
0.0
 11
4232.799999996312
 21
1116.999999998252
 31
0.0
  0
LINE
  5
BD
330
2
100
AcDbEntity
  8
sapa_elevation
100
AcDbLine
 10
73.99999999685133
 20
916.999999998252
 30
0.0
 11
-326.0000000031487
 21
916.999999998252
 31
0.0
  0
LINE
  5
BE
330
2
100
AcDbEntity
  8
sapa_elevation
100
AcDbLine
 10
73.99999999685133
 20
1116.999999998252
 30
0.0
 11
-326.0000000031487
 21
1116.999999998252
 31
0.0
  0
LINE
  5
BF
330
2
100
AcDbEntity
  8
sapa_elevation
100
AcDbLine
 10
73.99999999685133
 20
916.999999998252
 30
0.0
 11
73.99999999685133
 21
1116.999999998252
 31
0.0
  0
LINE
  5
C0
330
2
100
AcDbEntity
  8
sapa_elevation
  6
DASHED
 62
     1
 48
5.0
100
AcDbLine
 10
4306.799999993163
 20
849.9999999982518
 30
0.0
 11
4232.799999996307
 21
849.9999999982518
 31
0.0
  0
LINE
  5
C1
330
2
100
AcDbEntity
  8
sapa_elevation
  6
DASHED
 62
     1
 48
5.0
100
AcDbLine
 10
4306.799999993163
 20
916.999999998252
 30
0.0
 11
4306.799999993163
 21
849.9999999982518
 31
0.0
  0
LINE
  5
C2
330
2
100
AcDbEntity
  8
sapa_elevation
100
AcDbLine
 10
4232.799999996307
 20
916.999999998252
 30
0.0
 11
4306.799999993163
 21
916.999999998252
 31
0.0
  0
LINE
  5
C3
330
2
100
AcDbEntity
  8
sapa_elevation
  6
DASHED
 62
     1
 48
5.0
100
AcDbLine
 10
4232.799999996307
 20
849.9999999982518
 30
0.0
 11
4232.799999996307
 21
916.999999998252
 31
0.0
  0
LINE
  5
C4
330
2
100
AcDbEntity
  8
sapa_elevation
  6
DASHED
 62
     1
 48
5.0
100
AcDbLine
 10
3085.647382036692
 20
133.9999999975935
 30
0.0
 11
3956.902617958083
 21
133.9999999975935
 31
0.0
  0
LINE
  5
C5
330
2
100
AcDbEntity
  8
sapa_elevation
  6
DASHED
 62
     1
 48
5.0
100
AcDbLine
 10
3956.902617958083
 20
83.9999999996453
 30
0.0
 11
3085.647382036695
 21
83.99999999759257
 31
0.0
  0
LINE
  5
C6
330
2
100
AcDbEntity
  8
sapa_elevation
  6
DASHED
 62
     1
 48
5.0
100
AcDbLine
 10
3194.649999997553
 20
74.00000000069031
 30
0.0
 11
4165.899999997487
 21
73.99999999842293
 31
0.0
  0
LINE
  5
C7
330
2
100
AcDbEntity
  8
sapa_elevation
  6
DASHED
 62
     1
 48
5.0
100
AcDbLine
 10
4165.899999997487
 20
-0.0000000000009095
 30
0.0
 11
3194.649999997553
 21
0.0000000038398866
 31
0.0
  0
LINE
  5
C8
330
2
100
AcDbEntity
  8
sapa_elevation
  6
DASHED
 62
     1
 48
5.0
100
AcDbLine
 10
4306.79999999316
 20
140.9999999972388
 30
0.0
 11
4306.799999993163
 21
849.9999999982518
 31
0.0
  0
LINE
  5
C9
330
2
100
AcDbEntity
  8
sapa_elevation
  6
DASHED
 62
     1
 48
5.0
100
AcDbLine
 10
4232.799999996307
 20
849.9999999982518
 30
0.0
 11
4232.799999996307
 21
140.9999999972388
 31
0.0
  0
LINE
  5
CA
330
2
100
AcDbEntity
  8
sapa_elevation
 48
5.0
100
AcDbLine
 10
3085.647382036695
 20
1663.999999993901
 30
0.0
 11
3956.902617958083
 21
1663.999999999274
 31
0.0
  0
LINE
  5
CB
330
2
100
AcDbEntity
  8
sapa_elevation
 48
5.0
100
AcDbLine
 10
3956.902617958083
 20
1713.999999999274
 30
0.0
 11
3085.647382036695
 21
1713.9999999993
 31
0.0
  0
LINE
  5
CC
330
2
100
AcDbEntity
  8
sapa_elevation
 48
5.0
100
AcDbLine
 10
3194.650000006237
 20
1774.059046382104
 30
0.0
 11
4189.799999996306
 21
1774.05904638213
 31
0.0
  0
LINE
  5
CD
330
2
100
AcDbEntity
  8
sapa_elevation
 48
5.0
100
AcDbLine
 10
4189.79999999631
 20
1723.99999999737
 30
0.0
 11
3194.650000006237
 21
1723.99999999737
 31
0.0
  0
LINE
  5
CE
330
2
100
AcDbEntity
  8
sapa_elevation
 48
5.0
100
AcDbLine
 10
4189.799999996306
 20
1774.059046382104
 30
0.0
 11
4282.799999996306
 21
1774.059046382104
 31
0.0
  0
LINE
  5
CF
330
2
100
AcDbEntity
  8
sapa_elevation
  6
DASHED
 62
     1
 48
5.0
100
AcDbLine
 10
4045.899999997483
 20
83.9999999996453
 30
0.0
 11
3956.902617958083
 21
83.9999999996453
 31
0.0
  0
LINE
  5
D0
330
2
100
AcDbEntity
  8
sapa_elevation
  6
DASHED
 62
     1
 48
5.0
100
AcDbLine
 10
4045.899999997479
 20
133.9999999996444
 30
0.0
 11
4045.899999997483
 21
83.9999999996453
 31
0.0
  0
LINE
  5
D1
330
2
100
AcDbEntity
  8
sapa_elevation
  6
DASHED
 62
     1
 48
5.0
100
AcDbLine
 10
3956.902617958083
 20
133.9999999996444
 30
0.0
 11
4045.899999997479
 21
133.9999999996444
 31
0.0
  0
LINE
  5
D2
330
2
100
AcDbEntity
  8
sapa_elevation
  6
DASHED
 62
     1
 48
5.0
100
AcDbLine
 10
3956.902617958083
 20
83.9999999996453
 30
0.0
 11
3956.902617958083
 21
133.9999999996444
 31
0.0
  0
LINE
  5
D3
330
2
100
AcDbEntity
  8
sapa_elevation
  6
DASHED
 62
     1
 48
5.0
100
AcDbLine
 10
3085.647382036695
 20
83.99999999759257
 30
0.0
 11
3007.649999997342
 21
83.99999999759348
 31
0.0
  0
LINE
  5
D4
330
2
100
AcDbEntity
  8
sapa_elevation
  6
DASHED
 62
     1
 48
5.0
100
AcDbLine
 10
3085.647382036692
 20
133.9999999975935
 30
0.0
 11
3085.647382036695
 21
83.99999999759257
 31
0.0
  0
LINE
  5
D5
330
2
100
AcDbEntity
  8
sapa_elevation
  6
DASHED
 62
     1
 48
5.0
100
AcDbLine
 10
3007.649999997346
 20
133.9999999975935
 30
0.0
 11
3085.647382036692
 21
133.9999999975935
 31
0.0
  0
LINE
  5
D6
330
2
100
AcDbEntity
  8
sapa_elevation
  6
DASHED
 62
     1
 48
5.0
100
AcDbLine
 10
3007.649999997342
 20
83.99999999759348
 30
0.0
 11
3007.649999997346
 21
133.9999999975935
 31
0.0
  0
LINE
  5
D7
330
2
100
AcDbEntity
  8
sapa_elevation
  6
DASHED
 62
     1
 48
5.0
100
AcDbLine
 10
3194.649999997553
 20
74.00000000069031
 30
0.0
 11
3194.649999997553
 21
0.0000000038398866
 31
0.0
  0
LINE
  5
D8
330
2
100
AcDbEntity
  8
sapa_elevation
  6
DASHED
 62
     1
 48
5.0
100
AcDbLine
 10
3105.6500000056
 20
74.00000000069031
 30
0.0
 11
3194.649999997553
 21
74.00000000069031
 31
0.0
  0
LINE
  5
D9
330
2
100
AcDbEntity
  8
sapa_elevation
  6
DASHED
 62
     1
 48
5.0
100
AcDbLine
 10
3105.649999997288
 20
0.0000000038398866
 30
0.0
 11
3105.6500000056
 21
74.00000000069031
 31
0.0
  0
LINE
  5
DA
330
2
100
AcDbEntity
  8
sapa_elevation
  6
DASHED
 62
     1
 48
5.0
100
AcDbLine
 10
3194.649999997553
 20
0.0000000038398866
 30
0.0
 11
3105.649999997288
 21
0.0000000038398866
 31
0.0
  0
LINE
  5
DB
330
2
100
AcDbEntity
  8
sapa_elevation
  6
DASHED
 62
     1
 48
5.0
100
AcDbLine
 10
4165.899999997487
 20
73.99999999842293
 30
0.0
 11
4165.899999997487
 21
-0.0000000000009095
 31
0.0
  0
LINE
  5
DC
330
2
100
AcDbEntity
  8
sapa_elevation
  6
DASHED
 62
     1
 48
5.0
100
AcDbLine
 10
4217.799999996307
 20
148.9999999984238
 30
0.0
 11
4157.799999996306
 21
148.9999999984229
 31
0.0
  0
LINE
  5
DD
330
2
100
AcDbEntity
  8
sapa_elevation
  6
DASHED
 62
     1
 48
5.0
100
AcDbLine
 10
4217.799999996308
 20
88.99999999842384
 30
0.0
 11
4157.799999996306
 21
88.99999999842293
 31
0.0
  0
LINE
  5
DE
330
2
100
AcDbEntity
  8
sapa_elevation
  6
DASHED
 62
     1
 48
5.0
100
AcDbLine
 10
4232.799999996307
 20
73.99999999842475
 30
0.0
 11
4165.899999997487
 21
73.99999999842293
 31
0.0
  0
LINE
  5
DF
330
2
100
AcDbEntity
  8
sapa_elevation
  6
DASHED
 62
     1
 48
5.0
100
AcDbLine
 10
4157.799999996306
 20
88.99999999842293
 30
0.0
 11
4157.799999996306
 21
148.9999999984229
 31
0.0
  0
LINE
  5
E0
330
2
100
AcDbEntity
  8
sapa_elevation
  6
DASHED
 62
     1
 48
5.0
100
AcDbLine
 10
4217.799999996308
 20
88.99999999842384
 30
0.0
 11
4217.799999996307
 21
148.9999999984238
 31
0.0
  0
LINE
  5
E1
330
2
100
AcDbEntity
  8
sapa_elevation
  6
DASHED
 62
     1
 48
5.0
100
AcDbLine
 10
4232.799999996307
 20
73.99999999842475
 30
0.0
 11
4232.799999996307
 21
140.9999999972388
 31
0.0
  0
LINE
  5
E2
330
2
100
AcDbEntity
  8
sapa_elevation
  6
DASHED
 62
     1
 48
5.0
100
AcDbLine
 10
4165.899999997487
 20
-0.0000000000009095
 30
0.0
 11
4306.79999999316
 21
0.0
 31
0.0
  0
LINE
  5
E3
330
2
100
AcDbEntity
  8
sapa_elevation
  6
DASHED
 62
     1
 48
5.0
100
AcDbLine
 10
4306.79999999316
 20
140.9999999972388
 30
0.0
 11
4306.79999999316
 21
0.0
 31
0.0
  0
LINE
  5
E4
330
2
100
AcDbEntity
  8
sapa_elevation
 48
5.0
100
AcDbLine
 10
3010.449999997341
 20
1664.000000003479
 30
0.0
 11
3085.647382036695
 21
1663.999999993901
 31
0.0
  0
LINE
  5
E5
330
2
100
AcDbEntity
  8
sapa_elevation
 48
5.0
100
AcDbLine
 10
3010.449999997341
 20
1714.000000001326
 30
0.0
 11
3010.449999997341
 21
1664.000000003479
 31
0.0
  0
LINE
  5
E6
330
2
100
AcDbEntity
  8
sapa_elevation
 48
5.0
100
AcDbLine
 10
3085.647382036695
 20
1714.000000001326
 30
0.0
 11
3010.449999997341
 21
1714.000000001326
 31
0.0
  0
LINE
  5
E7
330
2
100
AcDbEntity
  8
sapa_elevation
 48
5.0
100
AcDbLine
 10
3085.647382036695
 20
1663.999999993901
 30
0.0
 11
3085.647382036695
 21
1714.000000001326
 31
0.0
  0
LINE
  5
E8
330
2
100
AcDbEntity
  8
sapa_elevation
 48
5.0
100
AcDbLine
 10
3105.650000006237
 20
1724.059046382105
 30
0.0
 11
3194.650000006237
 21
1724.059046382105
 31
0.0
  0
LINE
  5
E9
330
2
100
AcDbEntity
  8
sapa_elevation
 48
5.0
100
AcDbLine
 10
3105.650000006237
 20
1774.059046382104
 30
0.0
 11
3105.650000006237
 21
1724.059046382105
 31
0.0
  0
LINE
  5
EA
330
2
100
AcDbEntity
  8
sapa_elevation
 48
5.0
100
AcDbLine
 10
3194.650000006237
 20
1774.059046382104
 30
0.0
 11
3105.650000006237
 21
1774.059046382104
 31
0.0
  0
LINE
  5
EB
330
2
100
AcDbEntity
  8
sapa_elevation
 48
5.0
100
AcDbLine
 10
3194.650000006237
 20
1724.059046382105
 30
0.0
 11
3194.650000006237
 21
1774.059046382104
 31
0.0
  0
LINE
  5
EC
330
2
100
AcDbEntity
  8
sapa_elevation
 48
5.0
100
AcDbLine
 10
3956.902617958083
 20
1663.999999999274
 30
0.0
 11
4045.899999997479
 21
1663.999999999274
 31
0.0
  0
LINE
  5
ED
330
2
100
AcDbEntity
  8
sapa_elevation
 48
5.0
100
AcDbLine
 10
4045.899999997483
 20
1713.999999999274
 30
0.0
 11
4045.899999997479
 21
1663.999999999274
 31
0.0
  0
LINE
  5
EE
330
2
100
AcDbEntity
  8
sapa_elevation
 48
5.0
100
AcDbLine
 10
3956.902617958083
 20
1713.999999999274
 30
0.0
 11
4045.899999997483
 21
1713.999999999274
 31
0.0
  0
LINE
  5
EF
330
2
100
AcDbEntity
  8
sapa_elevation
 48
5.0
100
AcDbLine
 10
3956.902617958083
 20
1663.999999999274
 30
0.0
 11
3956.902617958083
 21
1713.999999999274
 31
0.0
  0
LINE
  5
F0
330
2
100
AcDbEntity
  8
sapa_elevation
 48
5.0
100
AcDbLine
 10
4282.799999996313
 20
1723.99999999737
 30
0.0
 11
4282.799999996306
 21
1774.059046382104
 31
0.0
  0
LINE
  5
F1
330
2
100
AcDbEntity
  8
sapa_elevation
 48
5.0
100
AcDbLine
 10
4232.79999999631
 20
1723.999999997373
 30
0.0
 11
4232.799999996307
 21
1774.059046382108
 31
0.0
  0
LINE
  5
F2
330
2
100
AcDbEntity
  8
sapa_elevation
 48
5.0
100
AcDbLine
 10
4189.79999999631
 20
1723.99999999737
 30
0.0
 11
4189.799999996306
 21
1774.059046382104
 31
0.0
  0
LINE
  5
F3
330
2
100
AcDbEntity
  8
sapa_elevation
 48
5.0
100
AcDbLine
 10
4282.799999996313
 20
1680.99999999737
 30
0.0
 11
4232.79999999631
 21
1680.99999999737
 31
0.0
  0
LINE
  5
F4
330
2
100
AcDbEntity
  8
sapa_elevation
 48
5.0
100
AcDbLine
 10
4282.799999996313
 20
1723.99999999737
 30
0.0
 11
4189.79999999631
 21
1723.99999999737
 31
0.0
  0
LINE
  5
F5
330
2
100
AcDbEntity
  8
sapa_elevation
  6
DASHED
 62
     1
 48
5.0
100
AcDbLine
 10
4232.799999996307
 20
140.9999999972388
 30
0.0
 11
4306.79999999316
 21
140.9999999972388
 31
0.0
  0
LINE
  5
F6
330
2
100
AcDbEntity
  8
sapa_elevation
  6
DASHED
 62
     1
 48
5.0
100
AcDbLine
 10
-0.000000000001819
 20
849.9999999982518
 30
0.0
 11
73.99999999685315
 21
849.9999999982518
 31
0.0
  0
LINE
  5
F7
330
2
100
AcDbEntity
  8
sapa_elevation
  6
DASHED
 62
     1
 48
5.0
100
AcDbLine
 10
-0.000000000003638
 20
916.999999998252
 30
0.0
 11
-0.000000000001819
 21
849.9999999982518
 31
0.0
  0
LINE
  5
F8
330
2
100
AcDbEntity
  8
sapa_elevation
100
AcDbLine
 10
73.99999999685133
 20
916.999999998252
 30
0.0
 11
-0.000000000003638
 21
916.999999998252
 31
0.0
  0
LINE
  5
F9
330
2
100
AcDbEntity
  8
sapa_elevation
  6
DASHED
 62
     1
 48
5.0
100
AcDbLine
 10
73.99999999685315
 20
849.9999999982518
 30
0.0
 11
73.99999999685133
 21
916.999999998252
 31
0.0
  0
LINE
  5
FA
330
2
100
AcDbEntity
  8
sapa_elevation
  6
DASHED
 62
     1
 48
5.0
100
AcDbLine
 10
1221.152617956468
 20
133.9999999975935
 30
0.0
 11
349.8973820350784
 21
133.9999999975935
 31
0.0
  0
LINE
  5
FB
330
2
100
AcDbEntity
  8
sapa_elevation
  6
DASHED
 62
     1
 48
5.0
100
AcDbLine
 10
349.8973820350784
 20
83.9999999996453
 30
0.0
 11
1221.152617956466
 21
83.99999999759257
 31
0.0
  0
LINE
  5
FC
330
2
100
AcDbEntity
  8
sapa_elevation
  6
DASHED
 62
     1
 48
5.0
100
AcDbLine
 10
1112.149999995607
 20
74.00000000069031
 30
0.0
 11
140.8999999956722
 21
73.99999999842293
 31
0.0
  0
LINE
  5
FD
330
2
100
AcDbEntity
  8
sapa_elevation
  6
DASHED
 62
     1
 48
5.0
100
AcDbLine
 10
140.8999999956722
 20
-0.0000000000009095
 30
0.0
 11
1112.149999995607
 21
0.0000000038398866
 31
0.0
  0
LINE
  5
FE
330
2
100
AcDbEntity
  8
sapa_elevation
  6
DASHED
 62
     1
 48
5.0
100
AcDbLine
 10
0.0
 20
140.9999999972388
 30
0.0
 11
-0.000000000001819
 21
849.9999999982518
 31
0.0
  0
LINE
  5
FF
330
2
100
AcDbEntity
  8
sapa_elevation
  6
DASHED
 62
     1
 48
5.0
100
AcDbLine
 10
73.99999999685315
 20
849.9999999982518
 30
0.0
 11
73.99999999685315
 21
140.9999999972388
 31
0.0
  0
LINE
  5
100
330
2
100
AcDbEntity
  8
sapa_elevation
  6
DASHED
 62
     1
 48
5.0
100
AcDbLine
 10
260.8999999956777
 20
83.9999999996453
 30
0.0
 11
349.8973820350784
 21
83.9999999996453
 31
0.0
  0
LINE
  5
101
330
2
100
AcDbEntity
  8
sapa_elevation
  6
DASHED
 62
     1
 48
5.0
100
AcDbLine
 10
260.8999999956795
 20
133.9999999996444
 30
0.0
 11
260.8999999956777
 21
83.9999999996453
 31
0.0
  0
LINE
  5
102
330
2
100
AcDbEntity
  8
sapa_elevation
  6
DASHED
 62
     1
 48
5.0
100
AcDbLine
 10
349.8973820350784
 20
133.9999999996444
 30
0.0
 11
260.8999999956795
 21
133.9999999996444
 31
0.0
  0
LINE
  5
103
330
2
100
AcDbEntity
  8
sapa_elevation
  6
DASHED
 62
     1
 48
5.0
100
AcDbLine
 10
349.8973820350784
 20
83.9999999996453
 30
0.0
 11
349.8973820350784
 21
133.9999999996444
 31
0.0
  0
LINE
  5
104
330
2
100
AcDbEntity
  8
sapa_elevation
  6
DASHED
 62
     1
 48
5.0
100
AcDbLine
 10
1221.152617956466
 20
83.99999999759257
 30
0.0
 11
1299.149999995818
 21
83.99999999759348
 31
0.0
  0
LINE
  5
105
330
2
100
AcDbEntity
  8
sapa_elevation
  6
DASHED
 62
     1
 48
5.0
100
AcDbLine
 10
1221.152617956468
 20
133.9999999975935
 30
0.0
 11
1221.152617956466
 21
83.99999999759257
 31
0.0
  0
LINE
  5
106
330
2
100
AcDbEntity
  8
sapa_elevation
  6
DASHED
 62
     1
 48
5.0
100
AcDbLine
 10
1299.149999995816
 20
133.9999999975935
 30
0.0
 11
1221.152617956468
 21
133.9999999975935
 31
0.0
  0
LINE
  5
107
330
2
100
AcDbEntity
  8
sapa_elevation
  6
DASHED
 62
     1
 48
5.0
100
AcDbLine
 10
1299.149999995818
 20
83.99999999759348
 30
0.0
 11
1299.149999995816
 21
133.9999999975935
 31
0.0
  0
LINE
  5
108
330
2
100
AcDbEntity
  8
sapa_elevation
  6
DASHED
 62
     1
 48
5.0
100
AcDbLine
 10
1112.149999995607
 20
74.00000000069031
 30
0.0
 11
1112.149999995607
 21
0.0000000038398866
 31
0.0
  0
LINE
  5
109
330
2
100
AcDbEntity
  8
sapa_elevation
  6
DASHED
 62
     1
 48
5.0
100
AcDbLine
 10
1201.149999987562
 20
74.00000000069031
 30
0.0
 11
1112.149999995607
 21
74.00000000069031
 31
0.0
  0
LINE
  5
10A
330
2
100
AcDbEntity
  8
sapa_elevation
  6
DASHED
 62
     1
 48
5.0
100
AcDbLine
 10
1201.14999999587
 20
0.0000000038398866
 30
0.0
 11
1201.149999987562
 21
74.00000000069031
 31
0.0
  0
LINE
  5
10B
330
2
100
AcDbEntity
  8
sapa_elevation
  6
DASHED
 62
     1
 48
5.0
100
AcDbLine
 10
1112.149999995607
 20
0.0000000038398866
 30
0.0
 11
1201.14999999587
 21
0.0000000038398866
 31
0.0
  0
LINE
  5
10C
330
2
100
AcDbEntity
  8
sapa_elevation
  6
DASHED
 62
     1
 48
5.0
100
AcDbLine
 10
140.8999999956722
 20
73.99999999842293
 30
0.0
 11
140.8999999956722
 21
-0.0000000000009095
 31
0.0
  0
LINE
  5
10D
330
2
100
AcDbEntity
  8
sapa_elevation
  6
DASHED
 62
     1
 48
5.0
100
AcDbLine
 10
73.99999999685315
 20
73.99999999842475
 30
0.0
 11
140.8999999956722
 21
73.99999999842293
 31
0.0
  0
LINE
  5
10E
330
2
100
AcDbEntity
  8
sapa_elevation
  6
DASHED
 62
     1
 48
5.0
100
AcDbLine
 10
73.99999999685315
 20
73.99999999842475
 30
0.0
 11
73.99999999685315
 21
140.9999999972388
 31
0.0
  0
LINE
  5
10F
330
2
100
AcDbEntity
  8
sapa_elevation
  6
DASHED
 62
     1
 48
5.0
100
AcDbLine
 10
140.8999999956722
 20
-0.0000000000009095
 30
0.0
 11
0.0
 21
0.0
 31
0.0
  0
LINE
  5
110
330
2
100
AcDbEntity
  8
sapa_elevation
  6
DASHED
 62
     1
 48
5.0
100
AcDbLine
 10
0.0
 20
140.9999999972388
 30
0.0
 11
0.0
 21
0.0
 31
0.0
  0
LINE
  5
111
330
2
100
AcDbEntity
  8
sapa_elevation
  6
DASHED
 62
     1
 48
5.0
100
AcDbLine
 10
73.99999999685315
 20
140.9999999972388
 30
0.0
 11
0.0
 21
140.9999999972388
 31
0.0
  0
ENDSEC
  0
SECTION
  2
OBJECTS
  0
DICTIONARY
  5
B
330
0
100
AcDbDictionary
281
     1
  3
ACAD_COLOR
350
35
  3
ACAD_GROUP
350
30
  3
ACAD_LAYOUT
350
11
  3
ACAD_MATERIAL
350
D
  3
ACAD_MLEADERSTYLE
350
38
  3
ACAD_MLINESTYLE
350
31
  3
ACAD_PLOTSETTINGS
350
32
  3
ACAD_PLOTSTYLENAME
350
A
  3
ACAD_SCALELIST
350
36
  3
ACAD_TABLESTYLE
350
37
  3
ACAD_VISUALSTYLE
350
26
  3
ACDB_RECOMPOSE_DATA
350
11E
  3
AcDbVariableDictionary
350
113
  3
AcDsDecomposeData
350
124
  0
DICTIONARY
  5
19
330
18
100
AcDbDictionary
280
     1
281
     1
  3
ACAD_LAYERSTATES
360
1A
  0
DICTIONARY
  5
7
330
6
100
AcDbDictionary
280
     1
281
     1
  3
ADSK_XREC_LAYER_RECONCILED
360
8
  0
DICTIONARY
  5
3A
330
39
100
AcDbDictionary
280
     1
281
     1
  0
DICTIONARY
  5
3
330
2
100
AcDbDictionary
280
     1
281
     1
  3
ACAD_SORTENTS
360
112
  0
DICTIONARY
  5
35
102
{ACAD_REACTORS
330
B
102
}
330
B
100
AcDbDictionary
281
     1
  0
DICTIONARY
  5
30
102
{ACAD_REACTORS
330
B
102
}
330
B
100
AcDbDictionary
281
     1
  0
DICTIONARY
  5
11
102
{ACAD_REACTORS
330
B
102
}
330
B
100
AcDbDictionary
281
     1
  3
Model
350
10
  3
Web
350
16
  0
DICTIONARY
  5
D
102
{ACAD_REACTORS
330
B
102
}
330
B
100
AcDbDictionary
281
     1
  3
ByBlock
350
34
  3
ByLayer
350
33
  3
Global
350
C
  0
DICTIONARY
  5
38
102
{ACAD_REACTORS
330
B
102
}
330
B
100
AcDbDictionary
281
     1
  0
DICTIONARY
  5
31
102
{ACAD_REACTORS
330
B
102
}
330
B
100
AcDbDictionary
281
     1
  3
STANDARD
350
3C
  0
DICTIONARY
  5
32
102
{ACAD_REACTORS
330
B
102
}
330
B
100
AcDbDictionary
281
     1
  0
ACDBDICTIONARYWDFLT
  5
A
102
{ACAD_REACTORS
330
B
102
}
330
B
100
AcDbDictionary
281
     1
  3
Normal
350
9
100
AcDbDictionaryWithDefault
340
9
  0
DICTIONARY
  5
36
102
{ACAD_REACTORS
330
B
102
}
330
B
100
AcDbDictionary
281
     1
  3
*A1
350
41
  3
*A10
350
42
  3
*A11
350
43
  3
*A12
350
44
  3
*A13
350
45
  3
*A14
350
46
  3
*A15
350
47
  3
*A16
350
48
  3
*A2
350
49
  3
*A3
350
4A
  3
*A4
350
4B
  3
*A5
350
4C
  3
*A6
350
4D
  3
*A7
350
4E
  3
*A8
350
4F
  3
*A9
350
50
  3
A0
350
51
  3
A1
350
52
  3
A2
350
53
  3
A3
350
54
  3
A4
350
55
  3
A5
350
56
  3
A6
350
57
  3
A7
350
58
  3
A8
350
59
  3
A9
350
5A
  3
B0
350
5B
  3
B1
350
5C
  3
B2
350
5D
  3
B3
350
5E
  3
B4
350
5F
  3
B5
350
60
  3
B6
350
61
  0
DICTIONARY
  5
37
102
{ACAD_REACTORS
330
B
102
}
330
B
100
AcDbDictionary
281
     1
  3
Standard
350
3D
  0
DICTIONARY
  5
26
102
{ACAD_REACTORS
330
B
102
}
330
B
100
AcDbDictionary
281
     1
  3
2dWireframe
350
25
  3
3dWireframe
350
40
  3
Realistic
350
3F
  0
XRECORD
  5
11E
102
{ACAD_REACTORS
330
B
102
}
330
B
100
AcDbXrecord
280
     1
 90
        1
330
3D
  0
DICTIONARY
  5
113
102
{ACAD_REACTORS
330
B
102
}
330
B
100
AcDbDictionary
281
     1
  3
CANNOSCALE
350
119
  3
CMLEADERSTYLE
350
115
  3
CTABLESTYLE
350
114
  3
CVIEWDETAILSTYLE
350
116
  3
CVIEWSECTIONSTYLE
350
117
  3
LAYEREVAL
350
11B
  3
LAYERNOTIFY
350
11C
  3
LIGHTINGUNITS
350
11A
  3
MSLTSCALE
350
118
  0
DICTIONARY
  5
124
102
{ACAD_REACTORS
330
B
102
}
330
B
100
AcDbDictionary
281
     1
  3
AcDsRecords
350
126
  3
AcDsSchemas
350
125
1001
ACAD
1070
     2
  0
DICTIONARY
  5
1A
102
{ACAD_REACTORS
330
19
102
}
330
19
100
AcDbDictionary
281
     1
  0
XRECORD
  5
8
102
{ACAD_REACTORS
330
7
102
}
330
7
100
AcDbXrecord
280
     1
290
     1
  0
SORTENTSTABLE
  5
112
102
{ACAD_REACTORS
330
3
102
}
330
3
100
AcDbSortentsTable
330
2
331
D9
  5
AD
331
110
  5
66
331
9A
  5
ED
331
A2
  5
E4
331
E1
  5
A5
331
AA
  5
DC
331
E9
  5
9D
331
B2
  5
D4
331
F1
  5
95
331
7B
  5
10A
331
BA
  5
CC
331
C2
  5
C4
331
F9
  5
8D
331
83
  5
106
331
CA
  5
BC
331
101
  5
85
331
8B
  5
FF
331
93
  5
F5
331
D2
  5
B4
331
109
  5
7C
331
111
  5
62
331
9B
  5
EB
331
DA
  5
AC
331
E2
  5
A4
331
A3
  5
E3
331
EA
  5
9C
331
AB
  5
DB
331
B3
  5
D3
331
7C
  5
109
331
BB
  5
CB
331
F2
  5
94
331
FA
  5
8C
331
102
  5
83
331
8C
  5
FE
331
CB
  5
BB
331
D3
  5
B3
331
10A
  5
7B
331
94
  5
F3
331
DB
  5
AB
331
9C
  5
EA
331
A4
  5
E2
331
E3
  5
A3
331
AC
  5
DA
331
EB
  5
9B
331
B4
  5
D2
331
F3
  5
93
331
7D
  5
108
331
BC
  5
CA
331
C4
  5
C2
331
FB
  5
8B
331
85
  5
105
331
8D
  5
FD
331
CC
  5
BA
331
103
  5
82
331
95
  5
F2
331
D4
  5
B2
331
10B
  5
7A
331
66
  5
110
331
6E
  5
10E
331
76
  5
10C
331
9D
  5
E9
331
DC
  5
AA
331
E4
  5
A2
331
A5
  5
E1
331
EC
  5
9A
331
AD
  5
D9
331
B5
  5
D1
331
7E
  5
107
331
BD
  5
C9
331
F4
  5
92
331
FC
  5
8A
331
86
  5
104
331
C5
  5
C1
331
104
  5
81
331
8E
  5
FC
331
CD
  5
B9
331
D5
  5
B1
331
10C
  5
76
331
96
  5
F1
331
9E
  5
E8
331
DD
  5
A9
331
A6
  5
E0
331
E5
  5
A1
331
AE
  5
D8
331
ED
  5
99
331
B6
  5
D0
331
F5
  5
91
331
7F
  5
EC
331
BE
  5
C8
331
C6
  5
C0
331
FD
  5
89
331
87
  5
103
331
8F
  5
FB
331
CE
  5
B8
331
105
  5
80
331
10D
  5
72
331
97
  5
F0
331
D6
  5
B0
331
9F
  5
E7
331
DE
  5
A8
331
E6
  5
A0
331
A7
  5
DF
331
AF
  5
D7
331
EE
  5
98
331
B7
  5
CF
331
80
  5
F4
331
BF
  5
C7
331
F6
  5
90
331
FE
  5
88
331
88
  5
102
331
C7
  5
BF
331
106
  5
7F
331
90
  5
FA
331
CF
  5
B7
331
D7
  5
AF
331
10E
  5
6E
331
98
  5
EF
331
A0
  5
E6
331
DF
  5
A7
331
A8
  5
DE
331
E7
  5
9F
331
B0
  5
D6
331
EF
  5
97
331
B8
  5
CE
331
C0
  5
C6
331
F7
  5
8F
331
81
  5
F8
331
C8
  5
BE
331
FF
  5
87
331
89
  5
101
331
91
  5
F9
331
D0
  5
B6
331
107
  5
7E
331
10F
  5
6A
331
62
  5
111
331
6A
  5
10F
331
72
  5
10D
331
99
  5
EE
331
D8
  5
AE
331
A1
  5
E5
331
E0
  5
A6
331
E8
  5
9E
331
A9
  5
DD
331
B1
  5
D5
331
B9
  5
CD
331
F0
  5
96
331
7A
  5
10B
331
82
  5
F6
331
C1
  5
C5
331
F8
  5
8E
331
100
  5
86
331
8A
  5
100
331
C9
  5
BD
331
D1
  5
B5
331
108
  5
7D
331
92
  5
F7
  0
LAYOUT
  5
10
102
{ACAD_REACTORS
330
11
102
}
330
11
100
AcDbPlotSettings
  1

  2
DWF6 ePlot.pc3
  4
ISO_full_bleed_A4_(210.00_x_297.00_MM)
  6

 40
6.0
 41
5.0
 42
7.0
 43
5.0
 44
210.0
 45
297.0
 46
0.0
 47
0.0
 48
0.0
 49
0.0
140
0.0
141
0.0
142
1.0
143
1.929958503202149
 70
 11952
 72
     1
 73
     1
 74
     0
  7
sapa1.ctb
 75
     0
147
0.5181458556444709
 76
     0
 77
     2
 78
   300
148
-209.4861090460728
149
-189.6933865316904
100
AcDbLayout
  1
Model
 70
     1
 71
     0
 10
0.0
 20
0.0
 11
12.0
 21
9.0
 12
0.0
 22
0.0
 32
0.0
 14
0.0
 24
0.0
 34
0.0
 15
0.0
 25
0.0
 35
0.0
146
0.0
 13
0.0
 23
0.0
 33
0.0
 16
1.0
 26
0.0
 36
0.0
 17
0.0
 27
1.0
 37
0.0
 76
     0
330
2
331
24
1001
ACAD_PSEXT
1000
DWF6 ePlot.pc3
1000
DWF6 ePlot
1000
File
1000

1070
     0
  0
LAYOUT
  5
16
102
{ACAD_XDICTIONARY
360
17
102
}
102
{ACAD_REACTORS
330
11
102
}
330
11
100
AcDbPlotSettings
  1

  2
frontp04.pc3
  4
A4
  6

 40
4.233333110809326
 41
4.233341693878173
 42
4.233322143554687
 43
4.23333740234375
 44
209.9733276367187
 45
296.9259948730469
 46
12.0
 47
0.0
 48
0.0
 49
0.0
140
0.0
141
0.0
142
1.0
143
1.0
 70
   688
 72
     1
 73
     0
 74
     1
  7
sapa2.ctb
 75
    16
147
1.0
 76
     1
 77
     2
 78
   300
148
-1.826818110860415
149
0.0203279535528509
100
AcDbLayout
  1
Web
 70
     1
 71
     1
 10
-14.40651499994891
 20
-4.253669647431024
 11
195.5668126367698
 21
292.6723252256159
 12
0.0
 22
0.0
 32
0.0
 14
5.868009702067809
 24
-0.0038431578304881
 34
-0.0015258207003583
 15
185.8813063784483
 25
283.0082764204674
 35
0.0000000349246037
146
0.0
 13
0.0
 23
0.0
 33
0.0
 16
1.0
 26
0.0
 36
0.0
 17
0.0
 27
1.0
 37
0.0
 76
     0
330
13
1001
ACAD_PSEXT
1000
frontp04.pc3
1000
HP LaserJet 4200 PCL6
1000
Sapa Building System
1000
HP Laserjet 4200n, pcl 6
1070
     0
  0
MATERIAL
  5
34
102
{ACAD_REACTORS
330
D
102
}
330
D
100
AcDbMaterial
  1
ByBlock
 73
     1
 78
     1
172
     1
176
     1
270
     1
274
     1
 94
       63
  0
MATERIAL
  5
33
102
{ACAD_REACTORS
330
D
102
}
330
D
100
AcDbMaterial
  1
ByLayer
 73
     1
 78
     1
172
     1
176
     1
270
     1
274
     1
 94
       63
  0
MATERIAL
  5
C
102
{ACAD_REACTORS
330
D
102
}
330
D
100
AcDbMaterial
  1
Global
 73
     1
 78
     1
172
     1
176
     1
270
     1
274
     1
 94
       63
  0
MLINESTYLE
  5
3C
102
{ACAD_REACTORS
330
31
102
}
330
31
100
AcDbMlineStyle
  2
STANDARD
 70
     0
  3

 62
   256
 51
90.0
 52
90.0
 71
     2
 49
0.5
 62
   256
  6
BYLAYER
 49
-0.5
 62
   256
  6
BYLAYER
  0
ACDBPLACEHOLDER
  5
9
102
{ACAD_REACTORS
330
A
102
}
330
A
  0
SCALE
  5
41
102
{ACAD_REACTORS
330
36
102
}
330
36
100
AcDbScale
 70
     0
300
1/128" = 1'-0"_XREF
140
0.0078125
141
12.0
290
     0
  0
SCALE
  5
42
102
{ACAD_REACTORS
330
36
102
}
330
36
100
AcDbScale
 70
     0
300
1/32" = 1'-0"_XREF
140
0.03125
141
12.0
290
     0
  0
SCALE
  5
43
102
{ACAD_REACTORS
330
36
102
}
330
36
100
AcDbScale
 70
     0
300
1/16" = 1'-0"_XREF
140
0.0625
141
12.0
290
     0
  0
SCALE
  5
44
102
{ACAD_REACTORS
330
36
102
}
330
36
100
AcDbScale
 70
     0
300
3/32" = 1'-0"_XREF
140
0.09375
141
12.0
290
     0
  0
SCALE
  5
45
102
{ACAD_REACTORS
330
36
102
}
330
36
100
AcDbScale
 70
     0
300
1/8" = 1'-0"_XREF
140
0.125
141
12.0
290
     0
  0
SCALE
  5
46
102
{ACAD_REACTORS
330
36
102
}
330
36
100
AcDbScale
 70
     0
300
3/16" = 1'-0"_XREF
140
0.1875
141
12.0
290
     0
  0
SCALE
  5
47
102
{ACAD_REACTORS
330
36
102
}
330
36
100
AcDbScale
 70
     0
300
1/4" = 1'-0"_XREF
140
0.25
141
12.0
290
     0
  0
SCALE
  5
48
102
{ACAD_REACTORS
330
36
102
}
330
36
100
AcDbScale
 70
     0
300
3/8" = 1'-0"_XREF
140
0.375
141
12.0
290
     0
  0
SCALE
  5
49
102
{ACAD_REACTORS
330
36
102
}
330
36
100
AcDbScale
 70
     0
300
1/2" = 1'-0"_XREF
140
0.5
141
12.0
290
     0
  0
SCALE
  5
4A
102
{ACAD_REACTORS
330
36
102
}
330
36
100
AcDbScale
 70
     0
300
3/4" = 1'-0"_XREF
140
0.75
141
12.0
290
     0
  0
SCALE
  5
4B
102
{ACAD_REACTORS
330
36
102
}
330
36
100
AcDbScale
 70
     0
300
1" = 1'-0"_XREF
140
1.0
141
12.0
290
     0
  0
SCALE
  5
4C
102
{ACAD_REACTORS
330
36
102
}
330
36
100
AcDbScale
 70
     0
300
1-1/2" = 1'-0"_XREF
140
1.5
141
12.0
290
     0
  0
SCALE
  5
4D
102
{ACAD_REACTORS
330
36
102
}
330
36
100
AcDbScale
 70
     0
300
3" = 1'-0"_XREF
140
3.0
141
12.0
290
     0
  0
SCALE
  5
4E
102
{ACAD_REACTORS
330
36
102
}
330
36
100
AcDbScale
 70
     0
300
6" = 1'-0"_XREF
140
6.0
141
12.0
290
     0
  0
SCALE
  5
4F
102
{ACAD_REACTORS
330
36
102
}
330
36
100
AcDbScale
 70
     0
300
1'-0" = 1'-0"_XREF
140
12.0
141
12.0
290
     0
  0
SCALE
  5
50
102
{ACAD_REACTORS
330
36
102
}
330
36
100
AcDbScale
 70
     0
300
1/64" = 1'-0"_XREF
140
0.015625
141
12.0
290
     0
  0
SCALE
  5
51
102
{ACAD_REACTORS
330
36
102
}
330
36
100
AcDbScale
 70
     0
300
1:1
140
1.0
141
1.0
290
     1
  0
SCALE
  5
52
102
{ACAD_REACTORS
330
36
102
}
330
36
100
AcDbScale
 70
     0
300
1:2
140
1.0
141
2.0
290
     0
  0
SCALE
  5
53
102
{ACAD_REACTORS
330
36
102
}
330
36
100
AcDbScale
 70
     0
300
1:4
140
1.0
141
4.0
290
     0
  0
SCALE
  5
54
102
{ACAD_REACTORS
330
36
102
}
330
36
100
AcDbScale
 70
     0
300
1:5
140
1.0
141
5.0
290
     0
  0
SCALE
  5
55
102
{ACAD_REACTORS
330
36
102
}
330
36
100
AcDbScale
 70
     0
300
1:8
140
1.0
141
8.0
290
     0
  0
SCALE
  5
56
102
{ACAD_REACTORS
330
36
102
}
330
36
100
AcDbScale
 70
     0
300
1:10
140
1.0
141
10.0
290
     0
  0
SCALE
  5
57
102
{ACAD_REACTORS
330
36
102
}
330
36
100
AcDbScale
 70
     0
300
1:16
140
1.0
141
16.0
290
     0
  0
SCALE
  5
58
102
{ACAD_REACTORS
330
36
102
}
330
36
100
AcDbScale
 70
     0
300
1:20
140
1.0
141
20.0
290
     0
  0
SCALE
  5
59
102
{ACAD_REACTORS
330
36
102
}
330
36
100
AcDbScale
 70
     0
300
1:30
140
1.0
141
30.0
290
     0
  0
SCALE
  5
5A
102
{ACAD_REACTORS
330
36
102
}
330
36
100
AcDbScale
 70
     0
300
1:40
140
1.0
141
40.0
290
     0
  0
SCALE
  5
5B
102
{ACAD_REACTORS
330
36
102
}
330
36
100
AcDbScale
 70
     0
300
1:50
140
1.0
141
50.0
290
     0
  0
SCALE
  5
5C
102
{ACAD_REACTORS
330
36
102
}
330
36
100
AcDbScale
 70
     0
300
1:100
140
1.0
141
100.0
290
     0
  0
SCALE
  5
5D
102
{ACAD_REACTORS
330
36
102
}
330
36
100
AcDbScale
 70
     0
300
2:1
140
2.0
141
1.0
290
     0
  0
SCALE
  5
5E
102
{ACAD_REACTORS
330
36
102
}
330
36
100
AcDbScale
 70
     0
300
4:1
140
4.0
141
1.0
290
     0
  0
SCALE
  5
5F
102
{ACAD_REACTORS
330
36
102
}
330
36
100
AcDbScale
 70
     0
300
8:1
140
8.0
141
1.0
290
     0
  0
SCALE
  5
60
102
{ACAD_REACTORS
330
36
102
}
330
36
100
AcDbScale
 70
     0
300
10:1
140
10.0
141
1.0
290
     0
  0
SCALE
  5
61
102
{ACAD_REACTORS
330
36
102
}
330
36
100
AcDbScale
 70
     0
300
100:1
140
100.0
141
1.0
290
     0
  0
TABLESTYLE
  5
3D
102
{ACAD_XDICTIONARY
360
3E
102
}
102
{ACAD_REACTORS
330
37
102
}
330
37
100
AcDbTableStyle
  3
Standard
 70
     0
 71
     0
 40
1.5
 41
1.5
280
     0
281
     0
  7
STANDARD
140
4.5
170
     2
 62
     0
 63
     7
283
     0
 90
        4
 91
        0
  1

274
    -2
284
     1
 64
     0
275
    -2
285
     1
 65
     0
276
    -2
286
     1
 66
     0
277
    -2
287
     1
 67
     0
278
    -2
288
     1
 68
     0
279
    -2
289
     1
 69
     0
  7
STANDARD
140
6.0
170
     5
 62
     0
 63
     7
283
     0
 90
        4
 91
        0
  1

274
    -2
284
     1
 64
     0
275
    -2
285
     1
 65
     0
276
    -2
286
     1
 66
     0
277
    -2
287
     1
 67
     0
278
    -2
288
     1
 68
     0
279
    -2
289
     1
 69
     0
  7
STANDARD
140
4.5
170
     5
 62
     0
 63
     7
283
     0
 90
        4
 91
        0
  1

274
    -2
284
     1
 64
     0
275
    -2
285
     1
 65
     0
276
    -2
286
     1
 66
     0
277
    -2
287
     1
 67
     0
278
    -2
288
     1
 68
     0
279
    -2
289
     1
 69
     0
  0
VISUALSTYLE
  5
25
102
{ACAD_XDICTIONARY
360
127
102
}
102
{ACAD_REACTORS
330
26
102
}
330
26
100
AcDbVisualStyle
  2
2dWireframe
 70
     4
 71
     0
 72
     2
 73
     0
 90
        0
 40
-0.6
 41
-30.0
 62
     5
 63
     7
421
 16777215
 74
     1
 91
        4
 64
     7
 65
   257
 75
     1
175
     1
 42
1.0
 92
        0
 66
   257
 43
1.0
 76
     1
 77
     6
 78
     2
 67
     7
 79
     5
170
     0
171
     0
290
     0
174
     0
 93
        1
 44
0.0
173
     0
291
     0
 45
0.0
1001
ACAD
1000
AcDbSavedByObjectVersion
1070
     0
  0
VISUALSTYLE
  5
40
102
{ACAD_XDICTIONARY
360
12B
102
}
102
{ACAD_REACTORS
330
26
102
}
330
26
100
AcDbVisualStyle
  2
3dWireframe
 70
     5
 71
     0
 72
     2
 73
     0
 90
        0
 40
-0.6
 41
-30.0
 62
     5
 63
     7
421
 16777215
 74
     1
 91
        4
 64
     7
 65
   257
 75
     1
175
     1
 42
1.0
 92
        0
 66
   257
 43
1.0
 76
     1
 77
     6
 78
     2
 67
     7
 79
     5
170
     0
171
     0
290
     0
174
     0
 93
        1
 44
0.0
173
     0
291
     0
 45
0.0
1001
ACAD
1000
AcDbSavedByObjectVersion
1070
     0
  0
VISUALSTYLE
  5
3F
102
{ACAD_XDICTIONARY
360
129
102
}
102
{ACAD_REACTORS
330
26
102
}
330
26
100
AcDbVisualStyle
  2
Realistic
 70
     8
 71
     2
 72
     2
 73
     0
 90
        0
 40
-0.6
 41
-30.0
 62
     5
 63
     7
421
 16777215
 74
     1
 91
        0
 64
     7
 65
   257
 75
     1
175
     1
 42
1.0
 92
        8
 66
     8
424
  7895160
 43
1.0
 76
     1
 77
     6
 78
     2
 67
     7
 79
     5
170
     0
171
     0
290
     0
174
     0
 93
       13
 44
0.0
173
     0
291
     0
 45
0.0
1001
ACAD
1000
AcDbSavedByObjectVersion
1070
     0
  0
DICTIONARYVAR
  5
119
102
{ACAD_REACTORS
330
113
102
}
330
113
100
DictionaryVariables
280
     0
  1
1:1
  0
DICTIONARYVAR
  5
115
102
{ACAD_REACTORS
330
113
102
}
330
113
100
DictionaryVariables
280
     0
  1
STANDARD
  0
DICTIONARYVAR
  5
114
102
{ACAD_REACTORS
330
113
102
}
330
113
100
DictionaryVariables
280
     0
  1
STANDARD
  0
DICTIONARYVAR
  5
116
102
{ACAD_REACTORS
330
113
102
}
330
113
100
DictionaryVariables
280
     0
  1

  0
DICTIONARYVAR
  5
117
102
{ACAD_REACTORS
330
113
102
}
330
113
100
DictionaryVariables
280
     0
  1

  0
DICTIONARYVAR
  5
11B
102
{ACAD_REACTORS
330
113
102
}
330
113
100
DictionaryVariables
280
     0
  1
1
  0
DICTIONARYVAR
  5
11C
102
{ACAD_REACTORS
330
113
102
}
330
113
100
DictionaryVariables
280
     0
  1
15
  0
DICTIONARYVAR
  5
11A
102
{ACAD_REACTORS
330
113
102
}
330
113
100
DictionaryVariables
280
     0
  1
0
  0
DICTIONARYVAR
  5
118
102
{ACAD_REACTORS
330
113
102
}
330
113
100
DictionaryVariables
280
     0
  1
0
  0
DICTIONARY
  5
126
102
{ACAD_REACTORS
330
124
102
}
330
124
100
AcDbDictionary
281
     1
  0
DICTIONARY
  5
125
102
{ACAD_REACTORS
330
124
102
}
330
124
100
AcDbDictionary
281
     1
  3
2130597240
350
11F
  3
2130597248
350
120
  3
2130597256
350
121
  3
2130597264
350
122
  3
2130597272
350
123
  0
DICTIONARY
  5
17
330
16
100
AcDbDictionary
280
     1
281
     1
  0
DICTIONARY
  5
3E
330
3D
100
AcDbDictionary
280
     1
281
     1
  3
ACAD_ROUNDTRIP_2008_TABLESTYLE_CELLSTYLEMAP
360
11D
  0
DICTIONARY
  5
127
330
25
100
AcDbDictionary
280
     1
281
     1
  3
ACAD_XREC_ROUNDTRIP
360
128
  0
DICTIONARY
  5
12B
330
40
100
AcDbDictionary
280
     1
281
     1
  3
ACAD_XREC_ROUNDTRIP
360
12C
  0
DICTIONARY
  5
129
330
3F
100
AcDbDictionary
280
     1
281
     1
  3
ACAD_XREC_ROUNDTRIP
360
12A
  0
XRECORD
  5
11F
102
{ACAD_REACTORS
330
125
102
}
330
125
100
AcDbXrecord
280
     1
  1
AcDb_Thumbnail_Schema
102
{ATTRRECORD
341
120
  2
AcDbDs::TreatedAsObjectData
280
     1
291
     1
102
ATTRRECORD}
102
{ATTRRECORD
341
121
  2
AcDbDs::Legacy
280
     1
291
     1
102
ATTRRECORD}
  2
AcDbDs::ID
280
    10
 91
        8
102
{ATTRRECORD
341
122
  2
AcDs:Indexable
280
     1
291
     1
102
ATTRRECORD}
102
{ATTRRECORD
341
123
  2
AcDbDs::HandleAttribute
280
     7
282
     1
102
ATTRRECORD}
  2
Thumbnail_Data
280
    15
 91
        0
  0
XRECORD
  5
120
102
{ACAD_REACTORS
330
125
102
}
330
125
100
AcDbXrecord
280
     1
  1
AcDbDs::TreatedAsObjectDataSchema
  2
AcDbDs::TreatedAsObjectData
280
     1
 91
        0
  0
XRECORD
  5
121
102
{ACAD_REACTORS
330
125
102
}
330
125
100
AcDbXrecord
280
     1
  1
AcDbDs::LegacySchema
  2
AcDbDs::Legacy
280
     1
 91
        0
  0
XRECORD
  5
122
102
{ACAD_REACTORS
330
125
102
}
330
125
100
AcDbXrecord
280
     1
  1
AcDbDs::IndexedPropertySchema
  2
AcDs:Indexable
280
     1
 91
        0
  0
XRECORD
  5
123
102
{ACAD_REACTORS
330
125
102
}
330
125
100
AcDbXrecord
280
     1
  1
AcDbDs::HandleAttributeSchema
  2
AcDbDs::HandleAttribute
280
     7
 91
        1
284
     1
  0
CELLSTYLEMAP
  5
11D
102
{ACAD_REACTORS
330
3E
102
}
330
3E
100
AcDbCellStyleMap
 90
        3
300
CELLSTYLE
  1
TABLEFORMAT_BEGIN
 90
        5
170
     1
 91
        0
 92
    32768
 62
   257
 93
        1
300
CONTENTFORMAT
  1
CONTENTFORMAT_BEGIN
 90
        0
 91
        0
 92
        4
 93
        0
300

 40
0.0
140
1.0
 94
        5
 62
     0
340
1C
144
6.0
309
CONTENTFORMAT_END
171
     1
301
MARGIN
  1
CELLMARGIN_BEGIN
 40
1.5
 40
1.5
 40
1.5
 40
1.5
 40
0.18
 40
0.18
309
CELLMARGIN_END
 94
        6
 95
        1
302
GRIDFORMAT
  1
GRIDFORMAT_BEGIN
 90
        0
 91
        1
 62
     0
 92
       -2
340
0
 93
        0
 40
0.045
309
GRIDFORMAT_END
 95
        2
302
GRIDFORMAT
  1
GRIDFORMAT_BEGIN
 90
        0
 91
        1
 62
     0
 92
       -2
340
0
 93
        0
 40
0.045
309
GRIDFORMAT_END
 95
        4
302
GRIDFORMAT
  1
GRIDFORMAT_BEGIN
 90
        0
 91
        1
 62
     0
 92
       -2
340
0
 93
        0
 40
0.045
309
GRIDFORMAT_END
 95
        8
302
GRIDFORMAT
  1
GRIDFORMAT_BEGIN
 90
        0
 91
        1
 62
     0
 92
       -2
340
0
 93
        0
 40
0.045
309
GRIDFORMAT_END
 95
       16
302
GRIDFORMAT
  1
GRIDFORMAT_BEGIN
 90
        0
 91
        1
 62
     0
 92
       -2
340
0
 93
        0
 40
0.045
309
GRIDFORMAT_END
 95
       32
302
GRIDFORMAT
  1
GRIDFORMAT_BEGIN
 90
        0
 91
        1
 62
     0
 92
       -2
340
0
 93
        0
 40
0.045
309
GRIDFORMAT_END
309
TABLEFORMAT_END
  1
CELLSTYLE_BEGIN
 90
        1
 91
        1
300
_TITLE
309
CELLSTYLE_END
300
CELLSTYLE
  1
TABLEFORMAT_BEGIN
 90
        5
170
     1
 91
        0
 92
        0
 62
   257
 93
        1
300
CONTENTFORMAT
  1
CONTENTFORMAT_BEGIN
 90
        0
 91
        0
 92
        4
 93
        0
300

 40
0.0
140
1.0
 94
        5
 62
     0
340
1C
144
4.5
309
CONTENTFORMAT_END
171
     1
301
MARGIN
  1
CELLMARGIN_BEGIN
 40
1.5
 40
1.5
 40
1.5
 40
1.5
 40
0.18
 40
0.18
309
CELLMARGIN_END
 94
        6
 95
        1
302
GRIDFORMAT
  1
GRIDFORMAT_BEGIN
 90
        0
 91
        1
 62
     0
 92
       -2
340
0
 93
        0
 40
0.045
309
GRIDFORMAT_END
 95
        2
302
GRIDFORMAT
  1
GRIDFORMAT_BEGIN
 90
        0
 91
        1
 62
     0
 92
       -2
340
0
 93
        0
 40
0.045
309
GRIDFORMAT_END
 95
        4
302
GRIDFORMAT
  1
GRIDFORMAT_BEGIN
 90
        0
 91
        1
 62
     0
 92
       -2
340
0
 93
        0
 40
0.045
309
GRIDFORMAT_END
 95
        8
302
GRIDFORMAT
  1
GRIDFORMAT_BEGIN
 90
        0
 91
        1
 62
     0
 92
       -2
340
0
 93
        0
 40
0.045
309
GRIDFORMAT_END
 95
       16
302
GRIDFORMAT
  1
GRIDFORMAT_BEGIN
 90
        0
 91
        1
 62
     0
 92
       -2
340
0
 93
        0
 40
0.045
309
GRIDFORMAT_END
 95
       32
302
GRIDFORMAT
  1
GRIDFORMAT_BEGIN
 90
        0
 91
        1
 62
     0
 92
       -2
340
0
 93
        0
 40
0.045
309
GRIDFORMAT_END
309
TABLEFORMAT_END
  1
CELLSTYLE_BEGIN
 90
        2
 91
        1
300
_HEADER
309
CELLSTYLE_END
300
CELLSTYLE
  1
TABLEFORMAT_BEGIN
 90
        5
170
     1
 91
        0
 92
        0
 62
   257
 93
        1
300
CONTENTFORMAT
  1
CONTENTFORMAT_BEGIN
 90
        0
 91
        0
 92
        4
 93
        0
300

 40
0.0
140
1.0
 94
        2
 62
     0
340
1C
144
4.5
309
CONTENTFORMAT_END
171
     1
301
MARGIN
  1
CELLMARGIN_BEGIN
 40
1.5
 40
1.5
 40
1.5
 40
1.5
 40
0.18
 40
0.18
309
CELLMARGIN_END
 94
        6
 95
        1
302
GRIDFORMAT
  1
GRIDFORMAT_BEGIN
 90
        0
 91
        1
 62
     0
 92
       -2
340
0
 93
        0
 40
0.045
309
GRIDFORMAT_END
 95
        2
302
GRIDFORMAT
  1
GRIDFORMAT_BEGIN
 90
        0
 91
        1
 62
     0
 92
       -2
340
0
 93
        0
 40
0.045
309
GRIDFORMAT_END
 95
        4
302
GRIDFORMAT
  1
GRIDFORMAT_BEGIN
 90
        0
 91
        1
 62
     0
 92
       -2
340
0
 93
        0
 40
0.045
309
GRIDFORMAT_END
 95
        8
302
GRIDFORMAT
  1
GRIDFORMAT_BEGIN
 90
        0
 91
        1
 62
     0
 92
       -2
340
0
 93
        0
 40
0.045
309
GRIDFORMAT_END
 95
       16
302
GRIDFORMAT
  1
GRIDFORMAT_BEGIN
 90
        0
 91
        1
 62
     0
 92
       -2
340
0
 93
        0
 40
0.045
309
GRIDFORMAT_END
 95
       32
302
GRIDFORMAT
  1
GRIDFORMAT_BEGIN
 90
        0
 91
        1
 62
     0
 92
       -2
340
0
 93
        0
 40
0.045
309
GRIDFORMAT_END
309
TABLEFORMAT_END
  1
CELLSTYLE_BEGIN
 90
        3
 91
        2
300
_DATA
309
CELLSTYLE_END
  0
XRECORD
  5
128
102
{ACAD_REACTORS
330
127
102
}
330
127
100
AcDbXrecord
280
     1
102
RTVSPost2010Prop28
280
     1
102
RTVSPost2010PropOp28
 70
     1
102
RTVSPost2010Prop29
280
     1
102
RTVSPost2010PropOp29
 70
     1
102
RTVSPost2010Prop30
280
     0
102
RTVSPost2010PropOp30
 70
     1
102
RTVSPost2010Prop31
280
     0
102
RTVSPost2010PropOp31
 70
     1
102
RTVSPost2010Prop32
280
     0
102
RTVSPost2010PropOp32
 70
     1
102
RTVSPost2010Prop33
280
     0
102
RTVSPost2010PropOp33
 70
     1
102
RTVSPost2010Prop34
280
     0
102
RTVSPost2010PropOp34
 70
     1
102
RTVSPost2010Prop35
280
     0
102
RTVSPost2010PropOp35
 70
     1
102
RTVSPost2010Prop36
280
     0
102
RTVSPost2010PropOp36
 70
     1
102
RTVSPost2010Prop37
 90
       50
102
RTVSPost2010PropOp37
 70
     1
102
RTVSPost2010Prop38
140
0.0
102
RTVSPost2010PropOp38
 70
     1
102
RTVSPost2010Prop39
140
1.0
102
RTVSPost2010PropOp39
 70
     1
102
RTVSPost2010Prop40
 90
        0
102
RTVSPost2010PropOp40
 70
     1
102
RTVSPost2010Prop41ColorIndex
 90
       18
102
RTVSPost2010Prop41ColorRGB
 90
        0
102
RTVSPost2010PropOp41
 70
     1
102
RTVSPost2010Prop42
 90
       50
102
RTVSPost2010PropOp42
 70
     1
102
RTVSPost2010Prop43
 90
        3
102
RTVSPost2010PropOp43
 70
     1
102
RTVSPost2010Prop44ColorIndex
 90
        5
102
RTVSPost2010Prop44ColorRGB
 90
      255
102
RTVSPost2010PropOp44
 70
     1
102
RTVSPost2010Prop45
280
     0
102
RTVSPost2010PropOp45
 70
     1
102
RTVSPost2010Prop46
 90
       50
102
RTVSPost2010PropOp46
 70
     1
102
RTVSPost2010Prop47
 90
       50
102
RTVSPost2010PropOp47
 70
     1
102
RTVSPost2010Prop48
 90
       50
102
RTVSPost2010PropOp48
 70
     1
102
RTVSPost2010Prop49
280
     0
102
RTVSPost2010PropOp49
 70
     1
102
RTVSPost2010Prop50
 90
       50
102
RTVSPost2010PropOp50
 70
     1
102
RTVSPost2010Prop51ColorIndex
 90
      256
102
RTVSPost2010Prop51ColorRGB
 90
-16777216
102
RTVSPost2010PropOp51
 70
     0
102
RTVSPost2010Prop52
140
1.0
102
RTVSPost2010PropOp52
 70
     0
102
RTVSPost2010Prop53
 90
        2
102
RTVSPost2010PropOp53
 70
     1
102
RTVSPost2010Prop54
  1
strokes_ogs.tif
102
RTVSPost2010PropOp54
 70
     1
102
RTVSPost2010Prop55
280
     0
102
RTVSPost2010PropOp55
 70
     1
102
RTVSPost2010Prop56
140
1.0
102
RTVSPost2010PropOp56
 70
     1
102
RTVSPost2010Prop57
140
1.0
102
RTVSPost2010PropOp57
 70
     1
102
RTVSPropertyOp0
 70
     1
102
RTVSPropertyOp1
 70
     1
102
RTVSPropertyOp2
 70
     1
102
RTVSPropertyOp3
 70
     1
102
RTVSPropertyOp4
 70
     1
102
RTVSPropertyOp5
 70
     1
102
RTVSPropertyOp6
 70
     1
102
RTVSPropertyOp7
 70
     1
102
RTVSPropertyOp8
 70
     1
102
RTVSPropertyOp9
 70
     1
102
RTVSPropertyOp10
 70
     1
102
RTVSPropertyOp11
 70
     1
102
RTVSPropertyOp12
 70
     1
102
RTVSPropertyOp13
 70
     1
102
RTVSPropertyOp14
 70
     1
102
RTVSPropertyOp15
 70
     1
102
RTVSPropertyOp16
 70
     1
102
RTVSPropertyOp17
 70
     1
102
RTVSPropertyOp18
 70
     1
102
RTVSPropertyOp19
 70
     1
102
RTVSPropertyOp20
 70
     1
102
RTVSPropertyOp21
 70
     1
102
RTVSPropertyOp22
 70
     1
102
RTVSPropertyOp23
 70
     1
102
RTVSPropertyOp24
 70
     1
102
RTVSPropertyOp25
 70
     1
102
RTVSPropertyOp26
 70
     1
102
RTVSPropertyOp27
 70
     1
102
RTVSPropertyOp28
 70
     1
102
RTVSPropertyOp29
 70
     1
102
RTVSPropertyOp30
 70
     1
102
RTVSPropertyOp31
 70
     1
102
RTVSPropertyOp32
 70
     1
102
RTVSPropertyOp33
 70
     1
102
RTVSPropertyOp34
 70
     1
102
RTVSPropertyOp35
 70
     1
102
RTVSPropertyOp36
 70
     1
102
RTVSPropertyOp37
 70
     1
102
RTVSPropertyOp38
 70
     1
102
RTVSPropertyOp39
 70
     1
102
RTVSPropertyOp40
 70
     1
102
RTVSPropertyOp41
 70
     1
102
RTVSPropertyOp42
 70
     1
102
RTVSPropertyOp43
 70
     1
102
RTVSPropertyOp44
 70
     1
102
RTVSPropertyOp45
 70
     1
102
RTVSPropertyOp46
 70
     1
102
RTVSPropertyOp47
 70
     1
102
RTVSPropertyOp48
 70
     1
102
RTVSPropertyOp49
 70
     1
102
RTVSPropertyOp50
 70
     1
102
RTVSPropertyOp51
 70
     0
102
RTVSPropertyOp52
 70
     0
102
RTVSPropertyOp53
 70
     1
102
RTVSPropertyOp54
 70
     1
102
RTVSPropertyOp55
 70
     1
102
RTVSPropertyOp56
 70
     1
102
RTVSPropertyOp57
 70
     1
102
RTVSPropertyOp58
 70
     1
102
RTVSPropertyOp59
 70
     1
102
RTVSPropertyOp60
 70
     1
102
RTVSPropertyOp61
 70
     1
102
RTVSPropertyOp62
 70
     1
  0
XRECORD
  5
12C
102
{ACAD_REACTORS
330
12B
102
}
330
12B
100
AcDbXrecord
280
     1
102
RTVSPost2010Prop28
280
     0
102
RTVSPost2010PropOp28
 70
     1
102
RTVSPost2010Prop29
280
     1
102
RTVSPost2010PropOp29
 70
     1
102
RTVSPost2010Prop30
280
     1
102
RTVSPost2010PropOp30
 70
     1
102
RTVSPost2010Prop31
280
     0
102
RTVSPost2010PropOp31
 70
     1
102
RTVSPost2010Prop32
280
     0
102
RTVSPost2010PropOp32
 70
     1
102
RTVSPost2010Prop33
280
     0
102
RTVSPost2010PropOp33
 70
     1
102
RTVSPost2010Prop34
280
     0
102
RTVSPost2010PropOp34
 70
     1
102
RTVSPost2010Prop35
280
     0
102
RTVSPost2010PropOp35
 70
     1
102
RTVSPost2010Prop36
280
     0
102
RTVSPost2010PropOp36
 70
     1
102
RTVSPost2010Prop37
 90
       50
102
RTVSPost2010PropOp37
 70
     1
102
RTVSPost2010Prop38
140
0.0
102
RTVSPost2010PropOp38
 70
     1
102
RTVSPost2010Prop39
140
1.0
102
RTVSPost2010PropOp39
 70
     1
102
RTVSPost2010Prop40
 90
        0
102
RTVSPost2010PropOp40
 70
     1
102
RTVSPost2010Prop41ColorIndex
 90
       18
102
RTVSPost2010Prop41ColorRGB
 90
        0
102
RTVSPost2010PropOp41
 70
     1
102
RTVSPost2010Prop42
 90
       50
102
RTVSPost2010PropOp42
 70
     1
102
RTVSPost2010Prop43
 90
        3
102
RTVSPost2010PropOp43
 70
     1
102
RTVSPost2010Prop44ColorIndex
 90
        5
102
RTVSPost2010Prop44ColorRGB
 90
      255
102
RTVSPost2010PropOp44
 70
     1
102
RTVSPost2010Prop45
280
     0
102
RTVSPost2010PropOp45
 70
     1
102
RTVSPost2010Prop46
 90
       50
102
RTVSPost2010PropOp46
 70
     1
102
RTVSPost2010Prop47
 90
       50
102
RTVSPost2010PropOp47
 70
     1
102
RTVSPost2010Prop48
 90
       50
102
RTVSPost2010PropOp48
 70
     1
102
RTVSPost2010Prop49
280
     0
102
RTVSPost2010PropOp49
 70
     1
102
RTVSPost2010Prop50
 90
       50
102
RTVSPost2010PropOp50
 70
     1
102
RTVSPost2010Prop51ColorIndex
 90
      256
102
RTVSPost2010Prop51ColorRGB
 90
-16777216
102
RTVSPost2010PropOp51
 70
     0
102
RTVSPost2010Prop52
140
1.0
102
RTVSPost2010PropOp52
 70
     0
102
RTVSPost2010Prop53
 90
        2
102
RTVSPost2010PropOp53
 70
     1
102
RTVSPost2010Prop54
  1
strokes_ogs.tif
102
RTVSPost2010PropOp54
 70
     1
102
RTVSPost2010Prop55
280
     0
102
RTVSPost2010PropOp55
 70
     1
102
RTVSPost2010Prop56
140
1.0
102
RTVSPost2010PropOp56
 70
     1
102
RTVSPost2010Prop57
140
1.0
102
RTVSPost2010PropOp57
 70
     1
102
RTVSPropertyOp0
 70
     1
102
RTVSPropertyOp1
 70
     1
102
RTVSPropertyOp2
 70
     1
102
RTVSPropertyOp3
 70
     1
102
RTVSPropertyOp4
 70
     1
102
RTVSPropertyOp5
 70
     1
102
RTVSPropertyOp6
 70
     1
102
RTVSPropertyOp7
 70
     1
102
RTVSPropertyOp8
 70
     1
102
RTVSPropertyOp9
 70
     1
102
RTVSPropertyOp10
 70
     1
102
RTVSPropertyOp11
 70
     1
102
RTVSPropertyOp12
 70
     1
102
RTVSPropertyOp13
 70
     1
102
RTVSPropertyOp14
 70
     1
102
RTVSPropertyOp15
 70
     1
102
RTVSPropertyOp16
 70
     1
102
RTVSPropertyOp17
 70
     1
102
RTVSPropertyOp18
 70
     1
102
RTVSPropertyOp19
 70
     1
102
RTVSPropertyOp20
 70
     1
102
RTVSPropertyOp21
 70
     1
102
RTVSPropertyOp22
 70
     1
102
RTVSPropertyOp23
 70
     1
102
RTVSPropertyOp24
 70
     1
102
RTVSPropertyOp25
 70
     1
102
RTVSPropertyOp26
 70
     1
102
RTVSPropertyOp27
 70
     1
102
RTVSPropertyOp28
 70
     1
102
RTVSPropertyOp29
 70
     1
102
RTVSPropertyOp30
 70
     1
102
RTVSPropertyOp31
 70
     1
102
RTVSPropertyOp32
 70
     1
102
RTVSPropertyOp33
 70
     1
102
RTVSPropertyOp34
 70
     1
102
RTVSPropertyOp35
 70
     1
102
RTVSPropertyOp36
 70
     1
102
RTVSPropertyOp37
 70
     1
102
RTVSPropertyOp38
 70
     1
102
RTVSPropertyOp39
 70
     1
102
RTVSPropertyOp40
 70
     1
102
RTVSPropertyOp41
 70
     1
102
RTVSPropertyOp42
 70
     1
102
RTVSPropertyOp43
 70
     1
102
RTVSPropertyOp44
 70
     1
102
RTVSPropertyOp45
 70
     1
102
RTVSPropertyOp46
 70
     1
102
RTVSPropertyOp47
 70
     1
102
RTVSPropertyOp48
 70
     1
102
RTVSPropertyOp49
 70
     1
102
RTVSPropertyOp50
 70
     1
102
RTVSPropertyOp51
 70
     0
102
RTVSPropertyOp52
 70
     0
102
RTVSPropertyOp53
 70
     1
102
RTVSPropertyOp54
 70
     1
102
RTVSPropertyOp55
 70
     1
102
RTVSPropertyOp56
 70
     1
102
RTVSPropertyOp57
 70
     1
102
RTVSPropertyOp58
 70
     1
102
RTVSPropertyOp59
 70
     1
102
RTVSPropertyOp60
 70
     1
102
RTVSPropertyOp61
 70
     1
102
RTVSPropertyOp62
 70
     1
  0
XRECORD
  5
12A
102
{ACAD_REACTORS
330
129
102
}
330
129
100
AcDbXrecord
280
     1
102
RTVSPost2010Prop28
280
     0
102
RTVSPost2010PropOp28
 70
     1
102
RTVSPost2010Prop29
280
     1
102
RTVSPost2010PropOp29
 70
     1
102
RTVSPost2010Prop30
280
     1
102
RTVSPost2010PropOp30
 70
     1
102
RTVSPost2010Prop31
280
     0
102
RTVSPost2010PropOp31
 70
     1
102
RTVSPost2010Prop32
280
     0
102
RTVSPost2010PropOp32
 70
     1
102
RTVSPost2010Prop33
280
     0
102
RTVSPost2010PropOp33
 70
     1
102
RTVSPost2010Prop34
280
     0
102
RTVSPost2010PropOp34
 70
     1
102
RTVSPost2010Prop35
280
     0
102
RTVSPost2010PropOp35
 70
     1
102
RTVSPost2010Prop36
280
     0
102
RTVSPost2010PropOp36
 70
     1
102
RTVSPost2010Prop37
 90
       50
102
RTVSPost2010PropOp37
 70
     1
102
RTVSPost2010Prop38
140
0.0
102
RTVSPost2010PropOp38
 70
     1
102
RTVSPost2010Prop39
140
1.0
102
RTVSPost2010PropOp39
 70
     1
102
RTVSPost2010Prop40
 90
        0
102
RTVSPost2010PropOp40
 70
     1
102
RTVSPost2010Prop41ColorIndex
 90
       18
102
RTVSPost2010Prop41ColorRGB
 90
        0
102
RTVSPost2010PropOp41
 70
     1
102
RTVSPost2010Prop42
 90
       50
102
RTVSPost2010PropOp42
 70
     1
102
RTVSPost2010Prop43
 90
        3
102
RTVSPost2010PropOp43
 70
     1
102
RTVSPost2010Prop44ColorIndex
 90
        5
102
RTVSPost2010Prop44ColorRGB
 90
      255
102
RTVSPost2010PropOp44
 70
     1
102
RTVSPost2010Prop45
280
     0
102
RTVSPost2010PropOp45
 70
     1
102
RTVSPost2010Prop46
 90
       50
102
RTVSPost2010PropOp46
 70
     1
102
RTVSPost2010Prop47
 90
       50
102
RTVSPost2010PropOp47
 70
     1
102
RTVSPost2010Prop48
 90
       50
102
RTVSPost2010PropOp48
 70
     1
102
RTVSPost2010Prop49
280
     0
102
RTVSPost2010PropOp49
 70
     1
102
RTVSPost2010Prop50
 90
       50
102
RTVSPost2010PropOp50
 70
     1
102
RTVSPost2010Prop51ColorIndex
 90
      256
102
RTVSPost2010Prop51ColorRGB
 90
-16777216
102
RTVSPost2010PropOp51
 70
     0
102
RTVSPost2010Prop52
140
1.0
102
RTVSPost2010PropOp52
 70
     0
102
RTVSPost2010Prop53
 90
        2
102
RTVSPost2010PropOp53
 70
     1
102
RTVSPost2010Prop54
  1
strokes_ogs.tif
102
RTVSPost2010PropOp54
 70
     1
102
RTVSPost2010Prop55
280
     0
102
RTVSPost2010PropOp55
 70
     1
102
RTVSPost2010Prop56
140
1.0
102
RTVSPost2010PropOp56
 70
     1
102
RTVSPost2010Prop57
140
1.0
102
RTVSPost2010PropOp57
 70
     1
102
RTVSPropertyOp0
 70
     1
102
RTVSPropertyOp1
 70
     1
102
RTVSPropertyOp2
 70
     1
102
RTVSPropertyOp3
 70
     1
102
RTVSPropertyOp4
 70
     1
102
RTVSPropertyOp5
 70
     1
102
RTVSPropertyOp6
 70
     1
102
RTVSPropertyOp7
 70
     1
102
RTVSPropertyOp8
 70
     1
102
RTVSPropertyOp9
 70
     1
102
RTVSPropertyOp10
 70
     1
102
RTVSPropertyOp11
 70
     1
102
RTVSPropertyOp12
 70
     1
102
RTVSPropertyOp13
 70
     1
102
RTVSPropertyOp14
 70
     1
102
RTVSPropertyOp15
 70
     1
102
RTVSPropertyOp16
 70
     1
102
RTVSPropertyOp17
 70
     1
102
RTVSPropertyOp18
 70
     1
102
RTVSPropertyOp19
 70
     1
102
RTVSPropertyOp20
 70
     1
102
RTVSPropertyOp21
 70
     1
102
RTVSPropertyOp22
 70
     1
102
RTVSPropertyOp23
 70
     1
102
RTVSPropertyOp24
 70
     1
102
RTVSPropertyOp25
 70
     1
102
RTVSPropertyOp26
 70
     1
102
RTVSPropertyOp27
 70
     1
102
RTVSPropertyOp28
 70
     1
102
RTVSPropertyOp29
 70
     1
102
RTVSPropertyOp30
 70
     1
102
RTVSPropertyOp31
 70
     1
102
RTVSPropertyOp32
 70
     1
102
RTVSPropertyOp33
 70
     1
102
RTVSPropertyOp34
 70
     1
102
RTVSPropertyOp35
 70
     1
102
RTVSPropertyOp36
 70
     1
102
RTVSPropertyOp37
 70
     1
102
RTVSPropertyOp38
 70
     1
102
RTVSPropertyOp39
 70
     1
102
RTVSPropertyOp40
 70
     1
102
RTVSPropertyOp41
 70
     1
102
RTVSPropertyOp42
 70
     1
102
RTVSPropertyOp43
 70
     1
102
RTVSPropertyOp44
 70
     1
102
RTVSPropertyOp45
 70
     1
102
RTVSPropertyOp46
 70
     1
102
RTVSPropertyOp47
 70
     1
102
RTVSPropertyOp48
 70
     1
102
RTVSPropertyOp49
 70
     1
102
RTVSPropertyOp50
 70
     1
102
RTVSPropertyOp51
 70
     0
102
RTVSPropertyOp52
 70
     0
102
RTVSPropertyOp53
 70
     1
102
RTVSPropertyOp54
 70
     1
102
RTVSPropertyOp55
 70
     1
102
RTVSPropertyOp56
 70
     1
102
RTVSPropertyOp57
 70
     1
102
RTVSPropertyOp58
 70
     1
102
RTVSPropertyOp59
 70
     1
102
RTVSPropertyOp60
 70
     1
102
RTVSPropertyOp61
 70
     1
102
RTVSPropertyOp62
 70
     1
  0
ENDSEC
  0
EOF
