  0
SECTION
  2
HEADER
  9
$ACADVER
  1
AC1021
  9
$ACADMAINTVER
 70
    50
  9
$DWGCODEPAGE
  3
ANSI_1252
  9
$INSBASE
 10
0.0
 20
0.0
 30
0.0
  9
$EXTMIN
 10
-340.3029248457315
 20
-6668.376495610186
 30
-0.2000000000000002
  9
$EXTMAX
 10
7791.0
 20
10930.59155737339
 30
0.0000000195376815
  9
$LIMMIN
 10
0.0
 20
0.0
  9
$LIMMAX
 10
790.0
 20
790.0
  9
$ORTHOMODE
 70
     0
  9
$REGENMODE
 70
     1
  9
$FILLMODE
 70
     1
  9
$QTEXTMODE
 70
     0
  9
$MIRRTEXT
 70
     1
  9
$LTSCALE
 40
4.0
  9
$ATTMODE
 70
     1
  9
$TEXTSIZE
 40
3.5
  9
$TRACEWID
 40
0.05
  9
$TEXTSTYLE
  7
ISO
  9
$CLAYER
  8
sapa_elevation
  9
$CELTYPE
  6
BYLAYER
  9
$CECOLOR
 62
   256
  9
$CELTSCALE
 40
1.0
  9
$DISPSILH
 70
     1
  9
$DIMSCALE
 40
0.0
  9
$DIMASZ
 40
3.0
  9
$DIMEXO
 40
1.5
  9
$DIMDLI
 40
10.0
  9
$DIMRND
 40
0.0
  9
$DIMDLE
 40
0.0
  9
$DIMEXE
 40
1.5
  9
$DIMTP
 40
0.0
  9
$DIMTM
 40
0.0
  9
$DIMTXT
 40
3.0
  9
$DIMCEN
 40
-5.0
  9
$DIMTSZ
 40
0.0
  9
$DIMTOL
 70
     0
  9
$DIMLIM
 70
     0
  9
$DIMTIH
 70
     0
  9
$DIMTOH
 70
     0
  9
$DIMSE1
 70
     0
  9
$DIMSE2
 70
     0
  9
$DIMTAD
 70
     1
  9
$DIMZIN
 70
     8
  9
$DIMBLK
  1

  9
$DIMASO
 70
     1
  9
$DIMSHO
 70
     1
  9
$DIMPOST
  1

  9
$DIMAPOST
  1

  9
$DIMALT
 70
     0
  9
$DIMALTD
 70
     0
  9
$DIMALTF
 40
25.4
  9
$DIMLFAC
 40
-1.0
  9
$DIMTOFL
 70
     1
  9
$DIMTVP
 40
0.0
  9
$DIMTIX
 70
     0
  9
$DIMSOXD
 70
     0
  9
$DIMSAH
 70
     0
  9
$DIMBLK1
  1

  9
$DIMBLK2
  1

  9
$DIMSTYLE
  2
MASKIN
  9
$DIMCLRD
 70
   256
  9
$DIMCLRE
 70
   256
  9
$DIMCLRT
 70
     2
  9
$DIMTFAC
 40
1.0
  9
$DIMGAP
 40
1.0
  9
$DIMJUST
 70
     0
  9
$DIMSD1
 70
     0
  9
$DIMSD2
 70
     0
  9
$DIMTOLJ
 70
     1
  9
$DIMTZIN
 70
     8
  9
$DIMALTZ
 70
     8
  9
$DIMALTTZ
 70
     8
  9
$DIMUPT
 70
     0
  9
$DIMDEC
 70
     8
  9
$DIMTDEC
 70
     8
  9
$DIMALTU
 70
     2
  9
$DIMALTTD
 70
     0
  9
$DIMTXSTY
  7
ISO
  9
$DIMAUNIT
 70
     0
  9
$DIMADEC
 70
     2
  9
$DIMALTRND
 40
0.0
  9
$DIMAZIN
 70
     2
  9
$DIMDSEP
 70
    46
  9
$DIMATFIT
 70
     3
  9
$DIMFRAC
 70
     0
  9
$DIMLDRBLK
  1

  9
$DIMLUNIT
 70
     2
  9
$DIMLWD
 70
    -2
  9
$DIMLWE
 70
    -2
  9
$DIMTMOVE
 70
     0
  9
$DIMFXL
 40
1.5
  9
$DIMFXLON
 70
     0
  9
$DIMJOGANG
 40
1.570796326794896
  9
$DIMTFILL
 70
     0
  9
$DIMTFILLCLR
 70
     0
  9
$DIMARCSYM
 70
     0
  9
$DIMLTYPE
  6

  9
$DIMLTEX1
  6

  9
$DIMLTEX2
  6

  9
$LUNITS
 70
     2
  9
$LUPREC
 70
     8
  9
$SKETCHINC
 40
0.1
  9
$FILLETRAD
 40
0.0
  9
$AUNITS
 70
     0
  9
$AUPREC
 70
     8
  9
$MENU
  1
ACAD
  9
$ELEVATION
 40
0.0
  9
$PELEVATION
 40
0.0
  9
$THICKNESS
 40
0.0
  9
$LIMCHECK
 70
     0
  9
$CHAMFERA
 40
0.0
  9
$CHAMFERB
 40
0.0
  9
$CHAMFERC
 40
0.0
  9
$CHAMFERD
 40
0.0
  9
$SKPOLY
 70
     0
  9
$TDCREATE
 40
2457666.480704630
  9
$TDUCREATE
 40
2457666.397371296
  9
$TDUPDATE
 40
2457667.688319201
  9
$TDUUPDATE
 40
2457667.604985868
  9
$TDINDWG
 40
1.0440873495
  9
$TDUSRTIMER
 40
1.0440872917
  9
$USRTIMER
 70
     1
  9
$ANGBASE
 50
0.0
  9
$ANGDIR
 70
     0
  9
$PDMODE
 70
     0
  9
$PDSIZE
 40
0.0
  9
$PLINEWID
 40
0.0
  9
$SPLFRAME
 70
     0
  9
$SPLINETYPE
 70
     6
  9
$SPLINESEGS
 70
     8
  9
$HANDSEED
  5
123
  9
$SURFTAB1
 70
     6
  9
$SURFTAB2
 70
     6
  9
$SURFTYPE
 70
     6
  9
$SURFU
 70
     6
  9
$SURFV
 70
     6
  9
$UCSBASE
  2

  9
$UCSNAME
  2

  9
$UCSORG
 10
0.0
 20
0.0
 30
0.0
  9
$UCSXDIR
 10
1.0
 20
0.0
 30
0.0
  9
$UCSYDIR
 10
0.0
 20
1.0
 30
0.0
  9
$UCSORTHOREF
  2

  9
$UCSORTHOVIEW
 70
     0
  9
$UCSORGTOP
 10
0.0
 20
0.0
 30
0.0
  9
$UCSORGBOTTOM
 10
0.0
 20
0.0
 30
0.0
  9
$UCSORGLEFT
 10
0.0
 20
0.0
 30
0.0
  9
$UCSORGRIGHT
 10
0.0
 20
0.0
 30
0.0
  9
$UCSORGFRONT
 10
0.0
 20
0.0
 30
0.0
  9
$UCSORGBACK
 10
0.0
 20
0.0
 30
0.0
  9
$PUCSBASE
  2

  9
$PUCSNAME
  2

  9
$PUCSORG
 10
0.0
 20
0.0
 30
0.0
  9
$PUCSXDIR
 10
1.0
 20
0.0
 30
0.0
  9
$PUCSYDIR
 10
0.0
 20
1.0
 30
0.0
  9
$PUCSORTHOREF
  2

  9
$PUCSORTHOVIEW
 70
     0
  9
$PUCSORGTOP
 10
0.0
 20
0.0
 30
0.0
  9
$PUCSORGBOTTOM
 10
0.0
 20
0.0
 30
0.0
  9
$PUCSORGLEFT
 10
0.0
 20
0.0
 30
0.0
  9
$PUCSORGRIGHT
 10
0.0
 20
0.0
 30
0.0
  9
$PUCSORGFRONT
 10
0.0
 20
0.0
 30
0.0
  9
$PUCSORGBACK
 10
0.0
 20
0.0
 30
0.0
  9
$USERI1
 70
     0
  9
$USERI2
 70
     0
  9
$USERI3
 70
     0
  9
$USERI4
 70
     0
  9
$USERI5
 70
     0
  9
$USERR1
 40
0.0
  9
$USERR2
 40
0.0
  9
$USERR3
 40
0.0
  9
$USERR4
 40
0.0
  9
$USERR5
 40
0.0
  9
$WORLDVIEW
 70
     1
  9
$SHADEDGE
 70
     3
  9
$SHADEDIF
 70
    70
  9
$TILEMODE
 70
     1
  9
$MAXACTVP
 70
    32
  9
$PINSBASE
 10
0.0
 20
0.0
 30
0.0
  9
$PLIMCHECK
 70
     0
  9
$PEXTMIN
 10
5.869999703752308
 20
-0.0000001723469722
 30
0.0
  9
$PEXTMAX
 10
185.8683605469043
 20
282.999999827653
 30
0.0
  9
$PLIMMIN
 10
-14.40651499994891
 20
-4.253669647431024
  9
$PLIMMAX
 10
195.5668126367698
 20
292.6723252256159
  9
$UNITMODE
 70
     0
  9
$VISRETAIN
 70
     1
  9
$PLINEGEN
 70
     0
  9
$PSLTSCALE
 70
     1
  9
$TREEDEPTH
 70
  3020
  9
$CMLSTYLE
  2
STANDARD
  9
$CMLJUST
 70
     0
  9
$CMLSCALE
 40
1.0
  9
$PROXYGRAPHICS
 70
     1
  9
$MEASUREMENT
 70
     1
  9
$CELWEIGHT
370
    -1
  9
$ENDCAPS
280
     0
  9
$JOINSTYLE
280
     0
  9
$LWDISPLAY
290
     0
  9
$INSUNITS
 70
     0
  9
$HYPERLINKBASE
  1

  9
$STYLESHEET
  1

  9
$XEDIT
290
     1
  9
$CEPSNTYPE
380
     0
  9
$PSTYLEMODE
290
     1
  9
$FINGERPRINTGUID
  2
{4B52C11A-7AD4-4463-9FD4-FFD75A933815}
  9
$VERSIONGUID
  2
{434DF5DE-DD2A-436B-B76F-3BC3DA73CF02}
  9
$EXTNAMES
290
     1
  9
$PSVPSCALE
 40
100.0
  9
$OLESTARTUP
290
     0
  9
$SORTENTS
280
   127
  9
$INDEXCTL
280
     0
  9
$HIDETEXT
280
     1
  9
$XCLIPFRAME
290
     0
  9
$HALOGAP
280
     0
  9
$OBSCOLOR
 70
   257
  9
$OBSLTYPE
280
     0
  9
$INTERSECTIONDISPLAY
280
     0
  9
$INTERSECTIONCOLOR
 70
   257
  9
$DIMASSOC
280
     2
  9
$PROJECTNAME
  1

  9
$CAMERADISPLAY
290
     0
  9
$LENSLENGTH
 40
50.0
  9
$CAMERAHEIGHT
 40
0.0
  9
$STEPSPERSEC
 40
2.0
  9
$STEPSIZE
 40
6.0
  9
$3DDWFPREC
 40
2.0
  9
$PSOLWIDTH
 40
0.25
  9
$PSOLHEIGHT
 40
4.0
  9
$LOFTANG1
 40
1.570796326794896
  9
$LOFTANG2
 40
1.570796326794896
  9
$LOFTMAG1
 40
0.0
  9
$LOFTMAG2
 40
0.0
  9
$LOFTPARAM
 70
     7
  9
$LOFTNORMALS
280
     1
  9
$LATITUDE
 40
37.795
  9
$LONGITUDE
 40
-122.394
  9
$NORTHDIRECTION
 40
0.0
  9
$TIMEZONE
 70
 -8000
  9
$LIGHTGLYPHDISPLAY
280
     1
  9
$TILEMODELIGHTSYNCH
280
     1
  9
$CMATERIAL
347
32
  9
$SOLIDHIST
280
     1
  9
$SHOWHIST
280
     1
  9
$DWFFRAME
280
     2
  9
$DGNFRAME
280
     0
  9
$REALWORLDSCALE
290
     1
  9
$INTERFERECOLOR
 62
     1
  9
$INTERFEREOBJVS
345
3E
  9
$INTERFEREVPVS
346
3F
  9
$CSHADOW
280
     0
  9
$SHADOWPLANELOCATION
 40
0.0
  0
ENDSEC
  0
SECTION
  2
CLASSES
  0
CLASS
  1
DICTIONARYVAR
  2
AcDbDictionaryVar
  3
ObjectDBX Classes
 90
        0
 91
       10
280
     0
281
     0
  0
CLASS
  1
ACDBDICTIONARYWDFLT
  2
AcDbDictionaryWithDefault
  3
ObjectDBX Classes
 90
        0
 91
        1
280
     0
281
     0
  0
CLASS
  1
PLOTSETTINGS
  2
AcDbPlotSettings
  3
ObjectDBX Classes
 90
        0
 91
        0
280
     0
281
     0
  0
CLASS
  1
TABLESTYLE
  2
AcDbTableStyle
  3
ObjectDBX Classes
 90
     4095
 91
        1
280
     0
281
     0
  0
CLASS
  1
MATERIAL
  2
AcDbMaterial
  3
ObjectDBX Classes
 90
     1153
 91
        3
280
     0
281
     0
  0
CLASS
  1
VISUALSTYLE
  2
AcDbVisualStyle
  3
ObjectDBX Classes
 90
     4095
 91
        3
280
     0
281
     0
  0
CLASS
  1
IMAGEDEF
  2
AcDbRasterImageDef
  3
ISM
 90
        0
 91
        0
280
     0
281
     0
  0
CLASS
  1
SCALE
  2
AcDbScale
  3
ObjectDBX Classes
 90
     1153
 91
       35
280
     0
281
     0
  0
CLASS
  1
MLEADERSTYLE
  2
AcDbMLeaderStyle
  3
ACDB_MLEADERSTYLE_CLASS
 90
     4095
 91
        1
280
     0
281
     0
  0
CLASS
  1
EXACXREFPANELOBJECT
  2
ExAcXREFPanelObject
  3
EXAC_ESW
 90
     1025
 91
        0
280
     0
281
     0
  0
CLASS
  1
NPOCOLLECTION
  2
AcDbImpNonPersistentObjectsCollection
  3
ObjectDBX Classes
 90
     1153
 91
        0
280
     0
281
     0
  0
CLASS
  1
CELLSTYLEMAP
  2
AcDbCellStyleMap
  3
ObjectDBX Classes
 90
     1152
 91
        1
280
     0
281
     0
  0
CLASS
  1
ACDBSECTIONVIEWSTYLE
  2
AcDbSectionViewStyle
  3
ObjectDBX Classes
 90
     1025
 91
        0
280
     0
281
     0
  0
CLASS
  1
ACDBDETAILVIEWSTYLE
  2
AcDbDetailViewStyle
  3
ObjectDBX Classes
 90
     1025
 91
        0
280
     0
281
     0
  0
CLASS
  1
MULTILEADER
  2
AcDbMLeader
  3
ACDB_MLEADER_CLASS
 90
     1025
 91
        2
280
     0
281
     1
  0
CLASS
  1
SORTENTSTABLE
  2
AcDbSortentsTable
  3
ObjectDBX Classes
 90
        0
 91
        0
280
     0
281
     0
  0
CLASS
  1
EXACTERMXREFMAP
  2
ExAcTermXrefMap
  3
EXAC_SERVICE
 90
     1025
 91
        0
280
     0
281
     0
  0
CLASS
  1
AEC_NOTIFICATION_TRACKER
  2
AecDbNotificationTracker
  3
AecBase70|Product Desc: Autodesk Architectural Desktop 2007 |Company: Autodesk,Inc. |WEB Address: www.autodesk.com
 90
      129
 91
        0
280
     1
281
     0
  0
ENDSEC
  0
SECTION
  2
TABLES
  0
TABLE
  2
VPORT
  5
23
330
0
100
AcDbSymbolTable
 70
     1
  0
VPORT
  5
24
330
23
100
AcDbSymbolTableRecord
100
AcDbViewportTableRecord
  2
*Active
 70
     0
 10
0.0
 20
0.0
 11
1.0
 21
1.0
 12
3701.330106243605
 22
15077.36342170992
 13
0.0
 23
0.0
 14
1.0
 24
1.0
 15
0.0
 25
0.0
 16
0.0
 26
0.0
 36
1.0
 17
0.0
 27
0.0
 37
0.0
 40
20414.79383602595
 41
1.607076350093109
 42
50.0
 43
0.0
 44
0.0
 50
0.0
 51
0.0
 71
     0
 72
   100
 73
     1
 74
     1
 75
     0
 76
     0
 77
     0
 78
     0
281
     0
 65
     1
110
0.0
120
0.0
130
0.0
111
1.0
121
0.0
131
0.0
112
0.0
122
1.0
132
0.0
 79
     0
146
0.0
348
25
 60
     3
 61
     5
292
     1
282
     1
141
0.0
142
0.0
 63
   250
421
  3355443
1001
ACAD_NAV_VCDISPLAY
1070
     3
  0
ENDTAB
  0
TABLE
  2
LTYPE
  5
1E
330
0
100
AcDbSymbolTable
 70
     2
  0
LTYPE
  5
1F
330
1E
100
AcDbSymbolTableRecord
100
AcDbLinetypeTableRecord
  2
BYBLOCK
 70
     0
  3

 72
    65
 73
     0
 40
0.0
  0
LTYPE
  5
20
330
1E
100
AcDbSymbolTableRecord
100
AcDbLinetypeTableRecord
  2
BYLAYER
 70
     0
  3

 72
    65
 73
     0
 40
0.0
  0
LTYPE
  5
C
330
1E
100
AcDbSymbolTableRecord
100
AcDbLinetypeTableRecord
  2
CONTINUOUS
 70
     0
  3
Solid line
 72
    65
 73
     0
 40
0.0
  0
LTYPE
  5
102
330
1E
100
AcDbSymbolTableRecord
100
AcDbLinetypeTableRecord
  2
DASHDOT
 70
     0
  3
__ . __ . __ . __ . __ . __ . __ . __ . __ . __
 72
    65
 73
     4
 40
1.0
 49
0.5
 74
     0
 49
-0.25
 74
     0
 49
0.0
 74
     0
 49
-0.25
 74
     0
  0
ENDTAB
  0
TABLE
  2
LAYER
  5
16
102
{ACAD_XDICTIONARY
360
17
102
}
330
0
100
AcDbSymbolTable
 70
     2
  0
LAYER
  5
4
102
{ACAD_XDICTIONARY
360
5
102
}
330
16
100
AcDbSymbolTableRecord
100
AcDbLayerTableRecord
  2
0
 70
     1
 62
    -7
  6
CONTINUOUS
370
    -3
390
7
347
A
  0
LAYER
  5
38
102
{ACAD_XDICTIONARY
360
39
102
}
330
16
100
AcDbSymbolTableRecord
100
AcDbLayerTableRecord
  2
sapa_elevation
 70
     0
 62
     7
  6
CONTINUOUS
370
    -3
390
7
347
A
1001
AcAecLayerStandard
1000

1000

  0
ENDTAB
  0
TABLE
  2
STYLE
  5
1B
330
0
100
AcDbSymbolTable
 70
     2
  0
STYLE
  5
1C
330
1B
100
AcDbSymbolTableRecord
100
AcDbTextStyleTableRecord
  2
STANDARD
 70
     0
 40
0.0
 41
1.0
 50
0.0
 71
     0
 42
0.2
  3
txt
  4

  0
STYLE
  5
2B
330
1B
100
AcDbSymbolTableRecord
100
AcDbTextStyleTableRecord
  2
ISO
 70
     0
 40
0.0
 41
1.0
 50
0.0
 71
     0
 42
3.5
  3
isocpeur.ttf
  4

1001
ACAD
1000
ISOCPEUR
1071
       34
  0
ENDTAB
  0
TABLE
  2
VIEW
  5
21
330
0
100
AcDbSymbolTable
 70
     0
  0
ENDTAB
  0
TABLE
  2
UCS
  5
22
330
0
100
AcDbSymbolTable
 70
     0
  0
ENDTAB
  0
TABLE
  2
APPID
  5
28
330
0
100
AcDbSymbolTable
 70
     6
  0
APPID
  5
1A
330
28
100
AcDbSymbolTableRecord
100
AcDbRegAppTableRecord
  2
ACAD
 70
     0
  0
APPID
  5
2C
330
28
100
AcDbSymbolTableRecord
100
AcDbRegAppTableRecord
  2
ACAD_DSTYLE_DIMJOGGED_JOGANGLE_SYMBOL
 70
     0
  0
APPID
  5
10
330
28
100
AcDbSymbolTableRecord
100
AcDbRegAppTableRecord
  2
ACAD_PSEXT
 70
     0
  0
APPID
  5
27
330
28
100
AcDbSymbolTableRecord
100
AcDbRegAppTableRecord
  2
ACAD_NAV_VCDISPLAY
 70
     0
  0
APPID
  5
3A
330
28
100
AcDbSymbolTableRecord
100
AcDbRegAppTableRecord
  2
AcAecLayerStandard
 70
     0
  0
APPID
  5
122
330
28
100
AcDbSymbolTableRecord
100
AcDbRegAppTableRecord
  2
ACAD_MLEADERVER
 70
     0
  0
ENDTAB
  0
TABLE
  2
DIMSTYLE
  5
29
330
0
100
AcDbSymbolTable
 70
     2
100
AcDbDimStyleTable
 71
     2
340
2A
340
2D
  0
DIMSTYLE
105
2D
330
29
100
AcDbSymbolTableRecord
100
AcDbDimStyleTableRecord
  2
Standard
 70
     0
340
1C
  0
DIMSTYLE
105
2A
330
29
100
AcDbSymbolTableRecord
100
AcDbDimStyleTableRecord
  2
MASKIN
 70
     0
 40
0.0
 41
3.0
 42
1.5
 43
10.0
 44
1.5
 49
1.5
 50
90.0
 73
     0
 74
     0
 77
     1
 78
     8
 79
     2
140
3.0
141
-5.0
144
-1.0
147
1.0
171
     0
172
     1
176
   256
177
   256
178
     2
179
     2
271
     8
272
     8
274
     0
284
     8
285
     8
286
     8
340
2B
1001
ACAD_DSTYLE_DIMJOGGED_JOGANGLE_SYMBOL
1070
   384
1040
1.570796326794896
  0
ENDTAB
  0
TABLE
  2
BLOCK_RECORD
  5
1
330
0
100
AcDbSymbolTable
 70
     0
  0
BLOCK_RECORD
  5
2
330
1
100
AcDbSymbolTableRecord
100
AcDbBlockTableRecord
  2
*MODEL_SPACE
340
E
 70
     0
280
     1
281
     0
  0
BLOCK_RECORD
  5
11
330
1
100
AcDbSymbolTableRecord
100
AcDbBlockTableRecord
  2
*Paper_Space
340
14
 70
     0
280
     1
281
     0
  0
ENDTAB
  0
ENDSEC
  0
SECTION
  2
BLOCKS
  0
BLOCK
  5
3
330
2
100
AcDbEntity
  8
0
100
AcDbBlockBegin
  2
*MODEL_SPACE
 70
     0
 10
0.0
 20
0.0
 30
0.0
  3
*MODEL_SPACE
  1

  0
ENDBLK
  5
D
330
2
100
AcDbEntity
  8
0
100
AcDbBlockEnd
  0
BLOCK
  5
12
330
11
100
AcDbEntity
 67
     1
  8
0
100
AcDbBlockBegin
  2
*Paper_Space
 70
     0
 10
0.0
 20
0.0
 30
0.0
  3
*Paper_Space
  1

  0
ENDBLK
  5
13
330
11
100
AcDbEntity
 67
     1
  8
0
100
AcDbBlockEnd
  0
ENDSEC
  0
SECTION
  2
ENTITIES
  0
LINE
  5
63
330
2
100
AcDbEntity
  8
sapa_elevation
100
AcDbLine
 10
6000.0
 20
9853.663255355124
 30
0.0
 11
4850.0
 21
9853.663255355124
 31
0.0
  0
LINE
  5
64
330
2
100
AcDbEntity
  8
sapa_elevation
100
AcDbLine
 10
2302.5
 20
9003.663255355125
 30
0.0
 11
1347.5
 21
8251.163255355125
 31
0.0
  0
LINE
  5
65
330
2
100
AcDbEntity
  8
sapa_elevation
100
AcDbLine
 10
1347.5
 20
9756.163255355126
 30
0.0
 11
2302.5
 21
9003.663255355125
 31
0.0
  0
LINE
  5
66
330
2
100
AcDbEntity
  8
sapa_elevation
100
AcDbLine
 10
1825.0
 20
9756.163255355126
 30
0.0
 11
2302.5
 21
8251.163255355125
 31
0.0
  0
LINE
  5
67
330
2
100
AcDbEntity
  8
sapa_elevation
100
AcDbLine
 10
1347.5
 20
8251.163255355125
 30
0.0
 11
1825.0
 21
9756.163255355126
 31
0.0
  0
LINE
  5
68
330
2
100
AcDbEntity
  8
sapa_elevation
100
AcDbLine
 10
1347.5
 20
8251.163255355125
 30
0.0
 11
1347.5
 21
9756.163255355126
 31
0.0
  0
LINE
  5
69
330
2
100
AcDbEntity
  8
sapa_elevation
100
AcDbLine
 10
1304.5
 20
8208.163255355124
 30
0.0
 11
1304.5
 21
9799.163255355125
 31
0.0
  0
LINE
  5
6A
330
2
100
AcDbEntity
  8
sapa_elevation
100
AcDbLine
 10
1299.5
 20
8203.163255355125
 30
0.0
 11
1299.5
 21
9804.163255355126
 31
0.0
  0
LINE
  5
6B
330
2
100
AcDbEntity
  8
sapa_elevation
100
AcDbLine
 10
2400.0
 20
8103.663255355124
 30
0.0
 11
1250.0
 21
8103.663255355124
 31
0.0
  0
LINE
  5
6C
330
2
100
AcDbEntity
  8
sapa_elevation
100
AcDbLine
 10
2302.5
 20
9756.163255355126
 30
0.0
 11
1347.5
 21
9756.163255355126
 31
0.0
  0
LINE
  5
6D
330
2
100
AcDbEntity
  8
sapa_elevation
100
AcDbLine
 10
2345.5
 20
9799.163255355125
 30
0.0
 11
1304.5
 21
9799.163255355125
 31
0.0
  0
LINE
  5
6E
330
2
100
AcDbEntity
  8
sapa_elevation
100
AcDbLine
 10
2350.5
 20
9804.163255355126
 30
0.0
 11
1299.5
 21
9804.163255355126
 31
0.0
  0
LINE
  5
6F
330
2
100
AcDbEntity
  8
sapa_elevation
100
AcDbLine
 10
2302.5
 20
8251.163255355125
 30
0.0
 11
1347.5
 21
8251.163255355125
 31
0.0
  0
LINE
  5
70
330
2
100
AcDbEntity
  8
sapa_elevation
100
AcDbLine
 10
2345.5
 20
8208.163255355124
 30
0.0
 11
1304.5
 21
8208.163255355124
 31
0.0
  0
LINE
  5
71
330
2
100
AcDbEntity
  8
sapa_elevation
100
AcDbLine
 10
2350.5
 20
8203.163255355125
 30
0.0
 11
1299.5
 21
8203.163255355125
 31
0.0
  0
LINE
  5
72
330
2
100
AcDbEntity
  8
sapa_elevation
100
AcDbLine
 10
2400.0
 20
8153.663255355125
 30
0.0
 11
1250.0
 21
8153.663255355125
 31
0.0
  0
LINE
  5
73
330
2
100
AcDbEntity
  8
sapa_elevation
100
AcDbLine
 10
2302.5
 20
8251.163255355125
 30
0.0
 11
2302.5
 21
9756.163255355126
 31
0.0
  0
LINE
  5
74
330
2
100
AcDbEntity
  8
sapa_elevation
100
AcDbLine
 10
2345.5
 20
8208.163255355124
 30
0.0
 11
2345.5
 21
9799.163255355125
 31
0.0
  0
LINE
  5
75
330
2
100
AcDbEntity
  8
sapa_elevation
100
AcDbLine
 10
2350.5
 20
8203.163255355125
 30
0.0
 11
2350.5
 21
9804.163255355126
 31
0.0
  0
LINE
  5
76
330
2
100
AcDbEntity
  8
sapa_elevation
100
AcDbLine
 10
3543.999999999993
 20
-174.9999999999854
 30
0.0
 11
2506.0
 21
25.00000000001455
 31
0.0
  0
LINE
  5
77
330
2
100
AcDbEntity
  8
sapa_elevation
100
AcDbLine
 10
2595.0
 20
25.00000000001455
 30
0.0
 11
3454.999999999993
 21
25.00000000001455
 31
0.0
  0
LINE
  5
78
330
2
100
AcDbEntity
  8
sapa_elevation
100
AcDbLine
 10
2595.0
 20
99.00000000001455
 30
0.0
 11
3454.999999999993
 21
99.00000000001455
 31
0.0
  0
LINE
  5
79
330
2
100
AcDbEntity
  8
sapa_elevation
100
AcDbLine
 10
3543.999999999993
 20
25.00000000001455
 30
0.0
 11
3543.999999999993
 21
99.00000000001455
 31
0.0
  0
LWPOLYLINE
  5
7A
330
2
100
AcDbEntity
  8
sapa_elevation
100
AcDbPolyline
 90
        4
 70
     1
 43
0.0
 10
3599.999999999993
 20
99.00000000001455
 10
3454.999999999993
 20
99.00000000001455
 10
3454.999999999993
 20
25.00000000001455
 10
3599.999999999993
 20
25.00000000001455
  0
LINE
  5
7B
330
2
100
AcDbEntity
  8
sapa_elevation
100
AcDbLine
 10
2506.0
 20
25.00000000001455
 30
0.0
 11
2506.0
 21
99.00000000001455
 31
0.0
  0
LWPOLYLINE
  5
7C
330
2
100
AcDbEntity
  8
sapa_elevation
100
AcDbPolyline
 90
        4
 70
     1
 43
0.0
 10
2450.0
 20
99.00000000001455
 10
2595.0
 20
99.00000000001455
 10
2595.0
 20
25.00000000001455
 10
2450.0
 20
25.00000000001455
  0
LINE
  5
7D
330
2
100
AcDbEntity
  8
sapa_elevation
100
AcDbLine
 10
1250.0
 20
171.0000000000145
 30
0.0
 11
1250.0
 21
0.0000000000218279
 31
0.0
  0
LINE
  5
7E
330
2
100
AcDbEntity
  8
sapa_elevation
100
AcDbLine
 10
1200.0
 20
171.0000000000145
 30
0.0
 11
1200.0
 21
0.0000000000218279
 31
0.0
  0
LINE
  5
7F
330
2
100
AcDbEntity
  8
sapa_elevation
100
AcDbLine
 10
3650.0
 20
170.9999999999927
 30
0.0
 11
3650.0
 21
0.0
 31
0.0
  0
LINE
  5
80
330
2
100
AcDbEntity
  8
sapa_elevation
100
AcDbLine
 10
3600.0
 20
170.9999999999927
 30
0.0
 11
3600.0
 21
0.0
 31
0.0
  0
LINE
  5
81
330
2
100
AcDbEntity
  8
sapa_elevation
100
AcDbLine
 10
4850.0
 20
170.9999999999927
 30
0.0
 11
4850.0
 21
0.0
 31
0.0
  0
LINE
  5
82
330
2
100
AcDbEntity
  8
sapa_elevation
100
AcDbLine
 10
4800.0
 20
170.9999999999927
 30
0.0
 11
4800.0
 21
0.0
 31
0.0
  0
LINE
  5
83
330
2
100
AcDbEntity
  8
sapa_elevation
100
AcDbLine
 10
2450.0
 20
171.0000000000145
 30
0.0
 11
2450.0
 21
0.0000000000218279
 31
0.0
  0
LINE
  5
84
330
2
100
AcDbEntity
  8
sapa_elevation
100
AcDbLine
 10
2400.0
 20
171.0000000000145
 30
0.0
 11
2400.0
 21
0.0000000000218279
 31
0.0
  0
LINE
  5
85
330
2
100
AcDbEntity
  8
sapa_elevation
100
AcDbLine
 10
50.0
 20
170.9999999999927
 30
0.0
 11
50.0
 21
0.0
 31
0.0
  0
LINE
  5
86
330
2
100
AcDbEntity
  8
sapa_elevation
100
AcDbLine
 10
0.0
 20
170.9999999999927
 30
0.0
 11
0.0
 21
0.0
 31
0.0
  0
LINE
  5
87
330
2
100
AcDbEntity
  8
sapa_elevation
100
AcDbLine
 10
2450.0
 20
0.0
 30
0.0
 11
0.0
 21
0.0
 31
0.0
  0
LINE
  5
88
330
2
100
AcDbEntity
  8
sapa_elevation
100
AcDbLine
 10
6050.0
 20
0.0
 30
0.0
 11
3600.0
 21
0.0
 31
0.0
  0
LINE
  5
89
330
2
100
AcDbEntity
  8
sapa_elevation
100
AcDbLine
 10
1200.0
 20
85.5
 30
0.0
 11
50.0
 21
85.49999999999272
 31
0.0
  0
LINE
  5
8A
330
2
100
AcDbEntity
  8
sapa_elevation
100
AcDbLine
 10
2400.0
 20
85.5
 30
0.0
 11
1250.0
 21
85.5
 31
0.0
  0
LINE
  5
8B
330
2
100
AcDbEntity
  8
sapa_elevation
100
AcDbLine
 10
4800.0
 20
85.49999999998545
 30
0.0
 11
3650.0
 21
85.49999999999272
 31
0.0
  0
LINE
  5
8C
330
2
100
AcDbEntity
  8
sapa_elevation
100
AcDbLine
 10
6000.0
 20
85.49999999999272
 30
0.0
 11
4850.0
 21
85.49999999998545
 31
0.0
  0
LINE
  5
8D
330
2
100
AcDbEntity
  8
sapa_elevation
100
AcDbLine
 10
2450.0
 20
171.0
 30
0.0
 11
0.0
 21
171.0
 31
0.0
  0
LINE
  5
8E
330
2
100
AcDbEntity
  8
sapa_elevation
100
AcDbLine
 10
6050.0
 20
171.0
 30
0.0
 11
3600.0
 21
171.0
 31
0.0
  0
LINE
  5
8F
330
2
100
AcDbEntity
  8
sapa_elevation
100
AcDbLine
 10
6000.0
 20
170.9999999999927
 30
0.0
 11
6000.0
 21
-0.0000000000145519
 31
0.0
  0
LINE
  5
90
330
2
100
AcDbEntity
  8
sapa_elevation
100
AcDbLine
 10
6050.0
 20
170.9999999999927
 30
0.0
 11
6050.0
 21
-0.0000000000145519
 31
0.0
  0
LWPOLYLINE
  5
91
330
2
100
AcDbEntity
  8
sapa_elevation
100
AcDbPolyline
 90
        4
 70
     1
 43
0.0
 10
7100.0
 20
2401.015921525803
 10
7271.0
 20
2401.015921525803
 10
7271.0
 20
2351.015921525803
 10
7100.0
 20
2351.015921525803
  0
LINE
  5
92
330
2
100
AcDbEntity
  8
sapa_elevation
100
AcDbLine
 10
2400.0
 20
2403.663255355124
 30
0.0
 11
1250.0
 21
2403.663255355124
 31
0.0
  0
LINE
  5
93
330
2
100
AcDbEntity
  8
sapa_elevation
100
AcDbLine
 10
4800.0
 20
2403.663255355124
 30
0.0
 11
3650.0
 21
2403.663255355124
 31
0.0
  0
LINE
  5
94
330
2
100
AcDbEntity
  8
sapa_elevation
100
AcDbLine
 10
2400.0
 20
2353.663255355124
 30
0.0
 11
1250.0
 21
2353.663255355124
 31
0.0
  0
LINE
  5
95
102
{ACAD_REACTORS
330
ED
102
}
330
2
100
AcDbEntity
  8
sapa_elevation
100
AcDbLine
 10
4800.0
 20
2353.663255355124
 30
0.0
 11
3650.0
 21
2353.663255355124
 31
0.0
  0
LINE
  5
96
330
2
100
AcDbEntity
  8
sapa_elevation
100
AcDbLine
 10
7185.500000000001
 20
3453.663255355124
 30
0.0
 11
7185.500000000001
 21
2401.015921525803
 31
0.0
  0
LINE
  5
97
330
2
100
AcDbEntity
  8
sapa_elevation
100
AcDbLine
 10
7185.500000000001
 20
6833.663255355124
 30
0.0
 11
7185.500000000001
 21
4653.663255355124
 31
0.0
  0
LINE
  5
98
330
2
100
AcDbEntity
  8
sapa_elevation
100
AcDbLine
 10
7185.500000000001
 20
9853.663255355124
 30
0.0
 11
7185.500000000001
 21
7273.663255355124
 31
0.0
  0
LINE
  5
99
330
2
100
AcDbEntity
  8
sapa_elevation
100
AcDbLine
 10
7050.0
 20
1183.663255355124
 30
0.0
 11
7050.0
 21
1033.663255355124
 31
0.0
  0
LINE
  5
9A
330
2
100
AcDbEntity
  8
sapa_elevation
100
AcDbLine
 10
7050.0
 20
9923.663255355124
 30
0.0
 11
7050.0
 21
10073.66325535512
 31
0.0
  0
LWPOLYLINE
  5
9B
330
2
100
AcDbEntity
  8
sapa_elevation
100
AcDbPolyline
 90
        4
 70
     1
 43
0.0
 10
7100.0
 20
3503.663255355125
 10
7271.0
 20
3503.663255355125
 10
7271.0
 20
3453.663255355124
 10
7100.0
 20
3453.663255355124
  0
LWPOLYLINE
  5
9C
330
2
100
AcDbEntity
  8
sapa_elevation
100
AcDbPolyline
 90
        4
 70
     1
 43
0.0
 10
7100.0
 20
4653.663255355124
 10
7271.0
 20
4653.663255355124
 10
7271.0
 20
4603.663255355124
 10
7100.0
 20
4603.663255355124
  0
LWPOLYLINE
  5
9D
330
2
100
AcDbEntity
  8
sapa_elevation
100
AcDbPolyline
 90
        4
 70
     1
 43
0.0
 10
7100.0
 20
6883.663255355124
 10
7271.0
 20
6883.663255355124
 10
7271.0
 20
6833.663255355124
 10
7100.0
 20
6833.663255355124
  0
LWPOLYLINE
  5
9E
330
2
100
AcDbEntity
  8
sapa_elevation
100
AcDbPolyline
 90
        4
 70
     1
 43
0.0
 10
7100.0
 20
7273.663255355124
 10
7271.0
 20
7273.663255355124
 10
7271.0
 20
7223.663255355124
 10
7100.0
 20
7223.663255355124
  0
LINE
  5
9F
330
2
100
AcDbEntity
  8
sapa_elevation
100
AcDbLine
 10
7100.0
 20
1253.663255355124
 30
0.0
 11
7100.0
 21
9853.663255355124
 31
0.0
  0
LWPOLYLINE
  5
A0
330
2
100
AcDbEntity
  8
sapa_elevation
100
AcDbPolyline
 90
        4
 70
     1
 43
0.0
 10
7100.0
 20
1253.663255355124
 10
7271.0
 20
1253.663255355124
 10
7271.0
 20
1203.663255355124
 10
7100.0
 20
1203.663255355124
  0
LINE
  5
A1
330
2
100
AcDbEntity
  8
sapa_elevation
100
AcDbLine
 10
7271.0
 20
9853.663255355124
 30
0.0
 11
7271.0
 21
1253.663255355124
 31
0.0
  0
HATCH
  5
A2
330
2
100
AcDbEntity
  8
sapa_elevation
100
AcDbHatch
 10
0.0
 20
0.0
 30
0.0
210
0.0
220
0.0
230
1.0
  2
ANSI31
 70
     0
 71
     0
 91
        1
 92
        7
 72
     0
 73
     1
 93
        4
 10
7271.0
 20
2351.015921525807
 10
7100.0
 20
2351.015921525803
 10
7100.0
 20
1253.663255355121
 10
7271.0
 20
1253.663255355121
 97
        0
 75
     0
 76
     1
 52
0.0
 41
10.0
 77
     0
 78
     1
 53
45.0
 43
-33330.32703494749
 44
-4990.94133701727
 45
-22.45064030267288
 46
22.45064030267288
 79
     0
 47
10.43729494003746
 98
        1
 10
7205.568172762898
 20
1760.656689288866
1001
ACAD
1010
0.0
1020
0.0
1030
0.0
  0
LWPOLYLINE
  5
A3
330
2
100
AcDbEntity
  8
sapa_elevation
100
AcDbPolyline
 90
        4
 70
     1
 43
0.0
 10
7100.0
 20
9903.663255355125
 10
7271.0
 20
9903.663255355125
 10
7271.0
 20
9853.663255355124
 10
7100.0
 20
9853.663255355124
  0
LINE
  5
A4
330
2
100
AcDbEntity
  8
sapa_elevation
100
AcDbLine
 10
2595.0
 20
1286.663255355124
 30
0.0
 11
3455.0
 21
1286.663255355124
 31
0.0
  0
LINE
  5
A5
330
2
100
AcDbEntity
  8
sapa_elevation
100
AcDbLine
 10
2501.0
 20
1197.663255355124
 30
0.0
 11
3549.0
 21
1197.663255355124
 31
0.0
  0
LINE
  5
A6
330
2
100
AcDbEntity
  8
sapa_elevation
100
AcDbLine
 10
2450.0
 20
1183.663255355124
 30
0.0
 11
3600.0
 21
1183.663255355124
 31
0.0
  0
LINE
  5
A7
330
2
100
AcDbEntity
  8
sapa_elevation
100
AcDbLine
 10
4850.0
 20
1203.663255355124
 30
0.0
 11
4850.0
 21
9903.663255355125
 31
0.0
  0
LINE
  5
A8
102
{ACAD_REACTORS
330
ED
102
}
330
2
100
AcDbEntity
  8
sapa_elevation
100
AcDbLine
 10
3650.0
 20
1203.663255355124
 30
0.0
 11
3650.0
 21
9903.663255355125
 31
0.0
  0
LINE
  5
A9
330
2
100
AcDbEntity
  8
sapa_elevation
100
AcDbLine
 10
2595.0
 20
1286.663255355124
 30
0.0
 11
2595.0
 21
3308.663255355125
 31
0.0
  0
LINE
  5
AA
330
2
100
AcDbEntity
  8
sapa_elevation
100
AcDbLine
 10
2506.0
 20
1197.663255355124
 30
0.0
 11
2506.0
 21
3397.663255355125
 31
0.0
  0
LINE
  5
AB
330
2
100
AcDbEntity
  8
sapa_elevation
100
AcDbLine
 10
2501.0
 20
1183.663255355124
 30
0.0
 11
2501.0
 21
3402.663255355125
 31
0.0
  0
LINE
  5
AC
330
2
100
AcDbEntity
  8
sapa_elevation
100
AcDbLine
 10
2450.0
 20
1183.663255355124
 30
0.0
 11
2450.0
 21
9903.663255355125
 31
0.0
  0
LINE
  5
AD
330
2
100
AcDbEntity
  8
sapa_elevation
100
AcDbLine
 10
1250.0
 20
1203.663255355124
 30
0.0
 11
1250.0
 21
9903.663255355125
 31
0.0
  0
LINE
  5
AE
330
2
100
AcDbEntity
  8
sapa_elevation
100
AcDbLine
 10
50.0
 20
1203.663255355124
 30
0.0
 11
50.0
 21
9903.663255355125
 31
0.0
  0
LINE
  5
AF
330
2
100
AcDbEntity
  8
sapa_elevation
100
AcDbLine
 10
6050.0
 20
1203.663255355124
 30
0.0
 11
6050.0
 21
9903.663255355125
 31
0.0
  0
LINE
  5
B0
330
2
100
AcDbEntity
  8
sapa_elevation
100
AcDbLine
 10
1200.0
 20
3503.663255355125
 30
0.0
 11
50.0
 21
3503.663255355125
 31
0.0
  0
LINE
  5
B1
330
2
100
AcDbEntity
  8
sapa_elevation
100
AcDbLine
 10
2400.0
 20
3503.663255355125
 30
0.0
 11
1250.0
 21
3503.663255355125
 31
0.0
  0
LINE
  5
B2
330
2
100
AcDbEntity
  8
sapa_elevation
100
AcDbLine
 10
3600.0
 20
3503.663255355125
 30
0.0
 11
2450.0
 21
3503.663255355125
 31
0.0
  0
LINE
  5
B3
330
2
100
AcDbEntity
  8
sapa_elevation
100
AcDbLine
 10
4800.0
 20
3503.663255355125
 30
0.0
 11
3650.0
 21
3503.663255355125
 31
0.0
  0
LINE
  5
B4
330
2
100
AcDbEntity
  8
sapa_elevation
100
AcDbLine
 10
6000.0
 20
3503.663255355125
 30
0.0
 11
4850.0
 21
3503.663255355125
 31
0.0
  0
LINE
  5
B5
330
2
100
AcDbEntity
  8
sapa_elevation
100
AcDbLine
 10
1200.0
 20
3453.663255355124
 30
0.0
 11
50.0
 21
3453.663255355124
 31
0.0
  0
LINE
  5
B6
330
2
100
AcDbEntity
  8
sapa_elevation
100
AcDbLine
 10
2400.0
 20
3453.663255355124
 30
0.0
 11
1250.0
 21
3453.663255355124
 31
0.0
  0
LINE
  5
B7
330
2
100
AcDbEntity
  8
sapa_elevation
100
AcDbLine
 10
3455.0
 20
3308.663255355125
 30
0.0
 11
2595.0
 21
3308.663255355125
 31
0.0
  0
LINE
  5
B8
330
2
100
AcDbEntity
  8
sapa_elevation
100
AcDbLine
 10
3544.0
 20
3397.663255355125
 30
0.0
 11
2506.0
 21
3397.663255355125
 31
0.0
  0
LINE
  5
B9
330
2
100
AcDbEntity
  8
sapa_elevation
100
AcDbLine
 10
3549.0
 20
3402.663255355125
 30
0.0
 11
2501.0
 21
3402.663255355125
 31
0.0
  0
LINE
  5
BA
330
2
100
AcDbEntity
  8
sapa_elevation
100
AcDbLine
 10
3600.0
 20
3453.663255355124
 30
0.0
 11
2450.0
 21
3453.663255355124
 31
0.0
  0
LINE
  5
BB
330
2
100
AcDbEntity
  8
sapa_elevation
100
AcDbLine
 10
4800.0
 20
3453.663255355124
 30
0.0
 11
3650.0
 21
3453.663255355124
 31
0.0
  0
LINE
  5
BC
330
2
100
AcDbEntity
  8
sapa_elevation
100
AcDbLine
 10
6000.0
 20
3453.663255355124
 30
0.0
 11
4850.0
 21
3453.663255355124
 31
0.0
  0
LINE
  5
BD
330
2
100
AcDbEntity
  8
sapa_elevation
100
AcDbLine
 10
1200.0
 20
4603.663255355124
 30
0.0
 11
50.0
 21
4603.663255355124
 31
0.0
  0
LINE
  5
BE
330
2
100
AcDbEntity
  8
sapa_elevation
100
AcDbLine
 10
2400.0
 20
4603.663255355124
 30
0.0
 11
1250.0
 21
4603.663255355124
 31
0.0
  0
LINE
  5
BF
330
2
100
AcDbEntity
  8
sapa_elevation
100
AcDbLine
 10
3600.0
 20
4603.663255355124
 30
0.0
 11
2450.0
 21
4603.663255355124
 31
0.0
  0
LINE
  5
C0
330
2
100
AcDbEntity
  8
sapa_elevation
100
AcDbLine
 10
4800.0
 20
4603.663255355124
 30
0.0
 11
3650.0
 21
4603.663255355124
 31
0.0
  0
LINE
  5
C1
330
2
100
AcDbEntity
  8
sapa_elevation
100
AcDbLine
 10
6000.0
 20
4603.663255355124
 30
0.0
 11
4850.0
 21
4603.663255355124
 31
0.0
  0
LINE
  5
C2
330
2
100
AcDbEntity
  8
sapa_elevation
100
AcDbLine
 10
1200.0
 20
4653.663255355124
 30
0.0
 11
50.0
 21
4653.663255355124
 31
0.0
  0
LINE
  5
C3
330
2
100
AcDbEntity
  8
sapa_elevation
100
AcDbLine
 10
2400.0
 20
4653.663255355124
 30
0.0
 11
1250.0
 21
4653.663255355124
 31
0.0
  0
LINE
  5
C4
330
2
100
AcDbEntity
  8
sapa_elevation
100
AcDbLine
 10
3600.0
 20
4653.663255355124
 30
0.0
 11
2450.0
 21
4653.663255355124
 31
0.0
  0
LINE
  5
C5
330
2
100
AcDbEntity
  8
sapa_elevation
100
AcDbLine
 10
4800.0
 20
4653.663255355124
 30
0.0
 11
3650.0
 21
4653.663255355124
 31
0.0
  0
LINE
  5
C6
330
2
100
AcDbEntity
  8
sapa_elevation
100
AcDbLine
 10
6000.0
 20
4653.663255355124
 30
0.0
 11
4850.0
 21
4653.663255355124
 31
0.0
  0
LINE
  5
C7
330
2
100
AcDbEntity
  8
sapa_elevation
100
AcDbLine
 10
1200.0
 20
6833.663255355124
 30
0.0
 11
50.0
 21
6833.663255355124
 31
0.0
  0
LINE
  5
C8
330
2
100
AcDbEntity
  8
sapa_elevation
100
AcDbLine
 10
2400.0
 20
6833.663255355124
 30
0.0
 11
1250.0
 21
6833.663255355124
 31
0.0
  0
LINE
  5
C9
330
2
100
AcDbEntity
  8
sapa_elevation
100
AcDbLine
 10
3600.0
 20
6833.663255355124
 30
0.0
 11
2450.0
 21
6833.663255355124
 31
0.0
  0
LINE
  5
CA
330
2
100
AcDbEntity
  8
sapa_elevation
100
AcDbLine
 10
4800.0
 20
6833.663255355124
 30
0.0
 11
3650.0
 21
6833.663255355124
 31
0.0
  0
LINE
  5
CB
330
2
100
AcDbEntity
  8
sapa_elevation
100
AcDbLine
 10
6000.0
 20
6833.663255355124
 30
0.0
 11
4850.0
 21
6833.663255355124
 31
0.0
  0
LINE
  5
CC
330
2
100
AcDbEntity
  8
sapa_elevation
100
AcDbLine
 10
1200.0
 20
6883.663255355124
 30
0.0
 11
50.0
 21
6883.663255355124
 31
0.0
  0
LINE
  5
CD
330
2
100
AcDbEntity
  8
sapa_elevation
100
AcDbLine
 10
2400.0
 20
6883.663255355124
 30
0.0
 11
1250.0
 21
6883.663255355124
 31
0.0
  0
LINE
  5
CE
330
2
100
AcDbEntity
  8
sapa_elevation
100
AcDbLine
 10
3600.0
 20
6883.663255355124
 30
0.0
 11
2450.0
 21
6883.663255355124
 31
0.0
  0
LINE
  5
CF
330
2
100
AcDbEntity
  8
sapa_elevation
100
AcDbLine
 10
4800.0
 20
6883.663255355124
 30
0.0
 11
3650.0
 21
6883.663255355124
 31
0.0
  0
LINE
  5
D0
330
2
100
AcDbEntity
  8
sapa_elevation
100
AcDbLine
 10
6000.0
 20
6883.663255355124
 30
0.0
 11
4850.0
 21
6883.663255355124
 31
0.0
  0
LINE
  5
D1
330
2
100
AcDbEntity
  8
sapa_elevation
100
AcDbLine
 10
1200.0
 20
7273.663255355124
 30
0.0
 11
50.0
 21
7273.663255355124
 31
0.0
  0
LINE
  5
D2
330
2
100
AcDbEntity
  8
sapa_elevation
100
AcDbLine
 10
2400.0
 20
7273.663255355124
 30
0.0
 11
1250.0
 21
7273.663255355124
 31
0.0
  0
LINE
  5
D3
330
2
100
AcDbEntity
  8
sapa_elevation
100
AcDbLine
 10
3600.0
 20
7273.663255355124
 30
0.0
 11
2450.0
 21
7273.663255355124
 31
0.0
  0
LINE
  5
D4
330
2
100
AcDbEntity
  8
sapa_elevation
100
AcDbLine
 10
4800.0
 20
7273.663255355124
 30
0.0
 11
3650.0
 21
7273.663255355124
 31
0.0
  0
LINE
  5
D5
330
2
100
AcDbEntity
  8
sapa_elevation
100
AcDbLine
 10
6000.0
 20
7273.663255355124
 30
0.0
 11
4850.0
 21
7273.663255355124
 31
0.0
  0
LINE
  5
D6
330
2
100
AcDbEntity
  8
sapa_elevation
100
AcDbLine
 10
1200.0
 20
7223.663255355124
 30
0.0
 11
50.0
 21
7223.663255355124
 31
0.0
  0
LINE
  5
D7
330
2
100
AcDbEntity
  8
sapa_elevation
100
AcDbLine
 10
2400.0
 20
7223.663255355124
 30
0.0
 11
1250.0
 21
7223.663255355124
 31
0.0
  0
LINE
  5
D8
330
2
100
AcDbEntity
  8
sapa_elevation
100
AcDbLine
 10
3600.0
 20
7223.663255355124
 30
0.0
 11
2450.0
 21
7223.663255355124
 31
0.0
  0
LINE
  5
D9
330
2
100
AcDbEntity
  8
sapa_elevation
100
AcDbLine
 10
4800.0
 20
7223.663255355124
 30
0.0
 11
3650.0
 21
7223.663255355124
 31
0.0
  0
LINE
  5
DA
330
2
100
AcDbEntity
  8
sapa_elevation
100
AcDbLine
 10
6000.0
 20
7223.663255355124
 30
0.0
 11
4850.0
 21
7223.663255355124
 31
0.0
  0
LINE
  5
DB
102
{ACAD_REACTORS
330
ED
102
}
330
2
100
AcDbEntity
  8
sapa_elevation
100
AcDbLine
 10
4800.0
 20
1203.663255355124
 30
0.0
 11
4800.0
 21
9903.663255355125
 31
0.0
  0
LINE
  5
DC
330
2
100
AcDbEntity
  8
sapa_elevation
100
AcDbLine
 10
3455.0
 20
1286.663255355124
 30
0.0
 11
3455.0
 21
3308.663255355125
 31
0.0
  0
LINE
  5
DD
330
2
100
AcDbEntity
  8
sapa_elevation
100
AcDbLine
 10
3544.0
 20
1197.663255355124
 30
0.0
 11
3544.0
 21
3397.663255355125
 31
0.0
  0
LINE
  5
DE
330
2
100
AcDbEntity
  8
sapa_elevation
100
AcDbLine
 10
3549.0
 20
1183.663255355124
 30
0.0
 11
3549.0
 21
3402.663255355125
 31
0.0
  0
LINE
  5
DF
330
2
100
AcDbEntity
  8
sapa_elevation
100
AcDbLine
 10
3600.0
 20
1183.663255355124
 30
0.0
 11
3600.0
 21
9903.663255355125
 31
0.0
  0
LINE
  5
E0
330
2
100
AcDbEntity
  8
sapa_elevation
100
AcDbLine
 10
2400.0
 20
1203.663255355124
 30
0.0
 11
2400.0
 21
9903.663255355125
 31
0.0
  0
LINE
  5
E1
330
2
100
AcDbEntity
  8
sapa_elevation
100
AcDbLine
 10
1200.0
 20
1203.663255355124
 30
0.0
 11
1200.0
 21
9903.663255355125
 31
0.0
  0
LINE
  5
E2
330
2
100
AcDbEntity
  8
sapa_elevation
100
AcDbLine
 10
0.0
 20
1203.663255355124
 30
0.0
 11
0.0
 21
9903.663255355125
 31
0.0
  0
LINE
  5
E3
330
2
100
AcDbEntity
  8
sapa_elevation
100
AcDbLine
 10
6000.0
 20
1203.663255355124
 30
0.0
 11
6000.0
 21
9903.663255355125
 31
0.0
  0
HATCH
  5
E4
330
2
100
AcDbEntity
  8
sapa_elevation
100
AcDbHatch
 10
0.0
 20
0.0
 30
0.0
210
0.0
220
0.0
230
1.0
  2
ANSI32
 70
     0
 71
     0
 91
        7
 92
        1
 93
        4
 72
     1
 10
50.0
 20
4603.663255355124
 11
50.0
 21
3503.663255355125
 72
     1
 10
50.0
 20
3503.663255355125
 11
1200.0
 21
3503.663255355125
 72
     1
 10
1200.0
 20
3503.663255355125
 11
1200.0
 21
4603.663255355124
 72
     1
 10
1200.0
 20
4603.663255355124
 11
50.0
 21
4603.663255355124
 97
        0
 92
        1
 93
        4
 72
     1
 10
1250.0
 20
4603.663255355124
 11
1250.0
 21
3503.663255355125
 72
     1
 10
1250.0
 20
3503.663255355125
 11
2400.0
 21
3503.663255355125
 72
     1
 10
2400.0
 20
3503.663255355125
 11
2400.0
 21
4603.663255355124
 72
     1
 10
2400.0
 20
4603.663255355124
 11
1250.0
 21
4603.663255355124
 97
        0
 92
        1
 93
        4
 72
     1
 10
2450.0
 20
4603.663255355124
 11
2450.0
 21
3503.663255355125
 72
     1
 10
2450.0
 20
3503.663255355125
 11
3600.0
 21
3503.663255355125
 72
     1
 10
3600.0
 20
3503.663255355125
 11
3600.0
 21
4603.663255355124
 72
     1
 10
3600.0
 20
4603.663255355124
 11
2450.0
 21
4603.663255355124
 97
        0
 92
        1
 93
        4
 72
     1
 10
4800.0
 20
4603.663255355124
 11
3650.0
 21
4603.663255355124
 72
     1
 10
3650.0
 20
4603.663255355124
 11
3650.0
 21
3503.663255355125
 72
     1
 10
3650.0
 20
3503.663255355125
 11
4800.0
 21
3503.663255355125
 72
     1
 10
4800.0
 20
3503.663255355125
 11
4800.0
 21
4603.663255355124
 97
        0
 92
        1
 93
        4
 72
     1
 10
4850.0
 20
3503.663255355125
 11
6000.0
 21
3503.663255355125
 72
     1
 10
6000.0
 20
3503.663255355125
 11
6000.0
 21
4603.663255355124
 72
     1
 10
6000.0
 20
4603.663255355124
 11
4850.0
 21
4603.663255355124
 72
     1
 10
4850.0
 20
4603.663255355124
 11
4850.0
 21
3503.663255355125
 97
        0
 92
        1
 93
        4
 72
     1
 10
822.7515761909744
 20
3826.856461587551
 11
1212.751576190974
 21
3826.856461587551
 72
     1
 10
1212.751576190974
 20
3826.856461587551
 11
1212.751576190974
 21
4546.856461587551
 72
     1
 10
1212.751576190974
 20
4546.856461587551
 11
822.7515761909744
 21
4546.856461587551
 72
     1
 10
822.7515761909744
 20
4546.856461587551
 11
822.7515761909744
 21
3826.856461587551
 97
        0
 92
       16
 93
        2
 72
     1
 10
3244.238593606322
 20
3826.856461587551
 11
3244.238593606322
 21
4546.856461587551
 72
     1
 10
3244.238593606322
 20
4546.856461587551
 11
3244.238593606322
 21
3826.856461587551
 97
        0
 75
     0
 76
     1
 52
0.0
 41
20.0
 77
     0
 78
     2
 53
45.0
 43
62969.79526742693
 44
7280.179834042676
 45
-134.7038418160373
 46
134.7038418160373
 79
     0
 53
45.0
 43
63059.59786742692
 44
7280.179834042676
 45
-134.7038418160373
 46
134.7038418160373
 79
     0
 98
        5
 10
645.4122337657899
 20
4184.912269151522
 10
1815.503364228149
 20
4173.446245923696
 10
2939.708487875935
 20
4150.514107375929
 10
4534.244378644478
 20
4012.92155236569
 10
5291.362177528994
 20
4058.785737369108
1001
ACAD
1010
0.0
1020
0.0
1030
0.0
  0
LINE
  5
E5
330
2
100
AcDbEntity
  8
sapa_elevation
100
AcDbLine
 10
1200.0
 20
9853.663255355124
 30
0.0
 11
50.0
 21
9853.663255355124
 31
0.0
  0
LINE
  5
E6
330
2
100
AcDbEntity
  8
sapa_elevation
100
AcDbLine
 10
2400.0
 20
9853.663255355124
 30
0.0
 11
1250.0
 21
9853.663255355124
 31
0.0
  0
LINE
  5
E7
330
2
100
AcDbEntity
  8
sapa_elevation
100
AcDbLine
 10
3600.0
 20
9853.663255355124
 30
0.0
 11
2450.0
 21
9853.663255355124
 31
0.0
  0
LINE
  5
E8
330
2
100
AcDbEntity
  8
sapa_elevation
100
AcDbLine
 10
4800.0
 20
9853.663255355124
 30
0.0
 11
3650.0
 21
9853.663255355124
 31
0.0
  0
LINE
  5
E9
330
2
100
AcDbEntity
  8
sapa_elevation
100
AcDbLine
 10
6050.0
 20
9903.663255355125
 30
0.0
 11
0.0
 21
9903.663255355125
 31
0.0
  0
LINE
  5
EA
330
2
100
AcDbEntity
  8
sapa_elevation
100
AcDbLine
 10
1200.0
 20
1253.663255355124
 30
0.0
 11
50.0
 21
1253.663255355124
 31
0.0
  0
LINE
  5
EB
330
2
100
AcDbEntity
  8
sapa_elevation
100
AcDbLine
 10
2400.0
 20
1253.663255355124
 30
0.0
 11
1250.0
 21
1253.663255355124
 31
0.0
  0
LINE
  5
EC
102
{ACAD_REACTORS
330
ED
102
}
330
2
100
AcDbEntity
  8
sapa_elevation
100
AcDbLine
 10
4800.0
 20
1253.663255355124
 30
0.0
 11
3650.0
 21
1253.663255355124
 31
0.0
  0
HATCH
  5
ED
330
2
100
AcDbEntity
  8
sapa_elevation
100
AcDbHatch
 10
0.0
 20
0.0
 30
0.0
210
0.0
220
0.0
230
1.0
  2
ANSI32
 70
     0
 71
     1
 91
        1
 92
        7
 72
     0
 73
     1
 93
        4
 10
4800.0
 20
2353.663255355124
 10
3650.0
 20
2353.663255355124
 10
3650.0
 20
1253.663255355124
 10
4800.0
 20
1253.663255355124
 97
        4
330
95
330
A8
330
EC
330
DB
 75
     0
 76
     1
 52
0.0
 41
20.0
 77
     0
 78
     2
 53
45.0
 43
62969.79526742693
 44
7280.179834042676
 45
-134.7038418160373
 46
134.7038418160373
 79
     0
 53
45.0
 43
63059.59786742692
 44
7280.179834042676
 45
-134.7038418160373
 46
134.7038418160373
 79
     0
 47
12.71487936787035
 98
        1
 10
4336.944262763369
 20
1875.042770566695
1001
ACAD
1010
0.0
1020
0.0
1030
0.0
  0
LINE
  5
EE
330
2
100
AcDbEntity
  8
sapa_elevation
100
AcDbLine
 10
6000.0
 20
1253.663255355124
 30
0.0
 11
4850.0
 21
1253.663255355124
 31
0.0
  0
LINE
  5
EF
330
2
100
AcDbEntity
  8
sapa_elevation
100
AcDbLine
 10
2450.0
 20
1203.663255355124
 30
0.0
 11
0.0
 21
1203.663255355124
 31
0.0
  0
LINE
  5
F0
330
2
100
AcDbEntity
  8
sapa_elevation
100
AcDbLine
 10
6050.0
 20
1203.663255355124
 30
0.0
 11
3600.0
 21
1203.663255355124
 31
0.0
  0
LINE
  5
F1
330
2
100
AcDbEntity
  8
sapa_elevation
100
AcDbLine
 10
7050.0
 20
9923.663255355124
 30
0.0
 11
7791.0
 21
9923.663255355124
 31
0.0
  0
LINE
  5
F2
330
2
100
AcDbEntity
  8
sapa_elevation
100
AcDbLine
 10
7291.0
 20
7203.663255355124
 30
0.0
 11
7291.0
 21
6903.663255355124
 31
0.0
  0
LINE
  5
F3
330
2
100
AcDbEntity
  8
sapa_elevation
100
AcDbLine
 10
7291.0
 20
6903.663255355124
 30
0.0
 11
7791.0
 21
6903.663255355124
 31
0.0
  0
LINE
  5
F4
330
2
100
AcDbEntity
  8
sapa_elevation
100
AcDbLine
 10
7291.0
 20
7203.663255355124
 30
0.0
 11
7791.0
 21
7203.663255355124
 31
0.0
  0
LINE
  5
F5
330
2
100
AcDbEntity
  8
sapa_elevation
100
AcDbLine
 10
7791.0
 20
1183.663255355124
 30
0.0
 11
7050.0
 21
1183.663255355124
 31
0.0
  0
LINE
  5
F6
330
2
100
AcDbEntity
  8
sapa_elevation
100
AcDbLine
 10
7291.0
 20
4203.663255355124
 30
0.0
 11
7291.0
 21
3903.663255355125
 31
0.0
  0
LINE
  5
F7
330
2
100
AcDbEntity
  8
sapa_elevation
100
AcDbLine
 10
7291.0
 20
3903.663255355125
 30
0.0
 11
7791.0
 21
3903.663255355125
 31
0.0
  0
LINE
  5
F8
330
2
100
AcDbEntity
  8
sapa_elevation
100
AcDbLine
 10
7291.0
 20
4203.663255355124
 30
0.0
 11
7791.0
 21
4203.663255355124
 31
0.0
  0
HATCH
  5
F9
330
2
100
AcDbEntity
  8
sapa_elevation
100
AcDbHatch
 10
0.0
 20
0.0
 30
0.0
210
0.0
220
0.0
230
1.0
  2
ANSI31
 70
     0
 71
     0
 91
        1
 92
        7
 72
     0
 73
     1
 93
        4
 10
7791.0
 20
7203.663255355124
 10
7291.0
 20
7203.663255355124
 10
7291.0
 20
6903.663255355124
 10
7791.0
 20
6903.663255355124
 97
        0
 75
     0
 76
     1
 52
0.0
 41
10.0
 77
     0
 78
     1
 53
45.0
 43
5037.998020344821
 44
6403.570823070404
 45
-22.45064030267288
 46
22.45064030267288
 79
     0
 47
5.754429181446798
 98
        1
 10
7580.763508281582
 20
6980.197325919653
1001
ACAD
1010
0.0
1020
0.0
1030
0.0
  0
MULTILEADER
  5
FA
330
2
100
AcDbEntity
  8
sapa_elevation
 92
      440
310
B8010000160000000C00000016000000000000C00C00000033000000000000000C00000013000000993A00000C00000033000000000000000C00000010000000010000000C00000016000000000000C00C00000012000000FF7F00000C00000013000000010000000C00000014000000010000005400000007000000030000
310
0020313E89B009AF40951CB49015C68240000000000000000020313E89B079AD4040C75E3BC0D08340000000000000000020313E89B009AF40EB7109E66ADB844000000000000000000C00000013000000891300003C000000060000000200000020313E89B009AF4040C75E3BC0D0834000000000000000006061319B8650
310
B04040C75E3BC0D0834000000000000000000C00000013000000112700003C00000006000000020000006061319B8650B04040C75E3BC0D0834000000000000000006061319B8659B04040C75E3BC0D0834000000000000000000C00000016000000000000C00C00000012000000FF7F00000C00000017000000000000000C
310
000000130000009A3A00000C00000016000000000000C00C00000012000000FF7F00000C00000017000000FFFFFFFF0C0000003300000000000000
100
AcDbMLeader
300
CONTEXT_DATA{
 40
50.0
 10
4185.525805555604
 20
634.0938632397228
 30
0.0
 41
200.0
140
200.0
145
100.0
174
     1
175
     6
176
     0
177
     0
290
     1
304

 11
0.0
 21
0.0
 31
-1.0
340
1C
 12
4285.525805555604
 22
534.0938632397228
 32
0.0
 13
1.0
 23
0.0
 33
0.0
 42
3.141592653589793
 43
0.0
 44
0.0
 45
1.0
170
     1
 90
-1073741824
171
     1
172
     5
 91
-1073741824
141
0.0
 92
        0
291
     0
292
     0
173
     0
293
     0
142
0.0
143
0.0
294
     0
295
     0
296
     0
110
3814.782302350955
120
634.0938632397228
130
0.0
111
1.0
121
0.0
131
0.0
112
0.0
122
1.0
132
0.0
297
     0
302
LEADER{
290
     1
291
     1
 10
4176.525805555604
 20
634.0938632397228
 30
0.0
 11
1.0
 21
0.0
 31
0.0
 90
        0
 40
9.0
304
LEADER_LINE{
 10
3772.844797080514
 20
634.0938632397228
 30
0.0
 91
        0
305
}
303
}
301
}
340
FB
 90
 17056896
170
     1
 91
-1056964608
341
1F
171
    -2
290
     1
291
     1
 41
0.36
 42
4.0
172
     2
343
1C
173
     1
 95
        6
174
     1
175
     0
 92
-1056964608
292
     0
 93
-1056964608
 10
1.0
 20
1.0
 30
1.0
 43
0.0
176
     0
293
     0
294
     0
178
     0
179
     1
 45
50.0
1001
ACAD_MLEADERVER
1070
     2
  0
LINE
  5
FC
330
2
100
AcDbEntity
  8
sapa_elevation
100
AcDbLine
 10
4185.525805555604
 20
634.0938632397228
 30
0.0
 11
4185.525805555604
 21
834.0938632397229
 31
0.0
  0
MULTILEADER
  5
FD
330
2
100
AcDbEntity
  8
sapa_elevation
 92
      440
310
B8010000160000000C00000016000000000000C00C00000033000000000000000C00000013000000993A00000C00000033000000000000000C00000010000000010000000C00000016000000000000C00C00000012000000FF7F00000C00000013000000010000000C00000014000000010000005400000007000000030000
310
0020313E89B009AF402986E4B2D09BC440000000000000000020313E89B079AD40D4308F5D7BACC440000000000000000020313E89B009AF407FDB390826BDC44000000000000000000C00000013000000891300003C000000060000000200000020313E89B009AF40D4308F5D7BACC44000000000000000006061319B8650
310
B040D4308F5D7BACC44000000000000000000C00000013000000112700003C00000006000000020000006061319B8650B040D4308F5D7BACC44000000000000000006061319B8659B040D4308F5D7BACC44000000000000000000C00000016000000000000C00C00000012000000FF7F00000C00000017000000000000000C
310
000000130000009A3A00000C00000016000000000000C00C00000012000000FF7F00000C00000017000000FFFFFFFF0C0000003300000000000000
100
AcDbMLeader
300
CONTEXT_DATA{
 40
50.0
 10
4185.525805555604
 20
10584.96379270443
 30
0.0
 41
200.0
140
200.0
145
100.0
174
     1
175
     6
176
     0
177
     0
290
     1
304

 11
0.0
 21
0.0
 31
1.0
340
1C
 12
4285.525805555604
 22
10684.96379270443
 32
0.0
 13
1.0
 23
0.0
 33
0.0
 42
0.0
 43
0.0
 44
0.0
 45
1.0
170
     1
 90
-1073741824
171
     1
172
     5
 91
-1073741824
141
0.0
 92
        0
291
     0
292
     0
173
     0
293
     0
142
0.0
143
0.0
294
     0
295
     0
296
     0
110
3814.782302350955
120
10584.96379270443
130
0.0
111
1.0
121
0.0
131
0.0
112
0.0
122
1.0
132
0.0
297
     0
302
LEADER{
290
     1
291
     1
 10
4176.525805555604
 20
10584.96379270443
 30
0.0
 11
1.0
 21
0.0
 31
0.0
 90
        0
 40
9.0
304
LEADER_LINE{
 10
3772.844797080514
 20
10584.96379270443
 30
0.0
 91
        0
305
}
303
}
301
}
340
FB
 90
 17056896
170
     1
 91
-1056964608
341
1F
171
    -2
290
     1
291
     1
 41
0.36
 42
4.0
172
     2
343
1C
173
     1
 95
        6
174
     1
175
     0
 92
-1056964608
292
     0
 93
-1056964608
 10
1.0
 20
1.0
 30
1.0
 43
0.0
176
     0
293
     0
294
     0
178
     0
179
     1
 45
50.0
1001
ACAD_MLEADERVER
1070
     2
  0
LINE
  5
FE
330
2
100
AcDbEntity
  8
sapa_elevation
100
AcDbLine
 10
4185.525805555604
 20
10584.96379270443
 30
0.0
 11
4185.525805555604
 21
10384.96379270443
 31
0.0
  0
HATCH
  5
FF
330
2
100
AcDbEntity
  8
sapa_elevation
100
AcDbHatch
 10
0.0
 20
0.0
 30
0.0
210
0.0
220
0.0
230
1.0
  2
ANSI31
 70
     0
 71
     0
 91
        1
 92
        7
 72
     0
 73
     1
 93
        4
 10
7271.0
 20
7223.663255355124
 10
7100.0
 20
7223.663255355124
 10
7100.0
 20
6883.663255355124
 10
7271.0
 20
6883.663255355124
 97
        0
 75
     0
 76
     1
 52
0.0
 41
10.0
 77
     0
 78
     1
 53
45.0
 43
5037.998020344821
 44
3403.570823070404
 45
-22.45064030267288
 46
22.45064030267288
 79
     0
 47
1.876129959203464
 98
        1
 10
7197.001930920553
 20
7039.954105799683
1001
ACAD
1010
0.0
1020
0.0
1030
0.0
  0
HATCH
  5
100
330
2
100
AcDbEntity
  8
sapa_elevation
100
AcDbHatch
 10
0.0
 20
0.0
 30
0.0
210
0.0
220
0.0
230
1.0
  2
ANSI31
 70
     0
 71
     0
 91
        1
 92
        7
 72
     0
 73
     1
 93
        4
 10
7271.0
 20
4603.663255355124
 10
7100.0
 20
4603.663255355124
 10
7100.0
 20
3503.663255355125
 10
7271.0
 20
3503.663255355125
 97
        0
 75
     0
 76
     1
 52
0.0
 41
10.0
 77
     0
 78
     1
 53
45.0
 43
5037.998020344821
 44
3403.570823070404
 45
-22.45064030267288
 46
22.45064030267288
 79
     0
 47
2.810624664102633
 98
        1
 10
7169.23370473404
 20
4064.727139778683
1001
ACAD
1010
0.0
1020
0.0
1030
0.0
  0
LINE
  5
101
330
2
100
AcDbEntity
  8
sapa_elevation
  6
DASHDOT
100
AcDbLine
 10
3625.0
 20
983.6632553551243
 30
0.0
 11
3625.0
 21
10103.66325535512
 31
0.0
  0
HATCH
  5
103
330
2
100
AcDbEntity
  8
sapa_elevation
100
AcDbHatch
 10
0.0
 20
0.0
 30
0.0
210
0.0
220
0.0
230
1.0
  2
ANSI32
 70
     0
 71
     0
 91
        5
 92
        7
 72
     0
 73
     1
 93
        4
 10
50.0
 20
7223.663255355124
 10
50.0
 20
6883.663255355124
 10
1200.0
 20
6883.663255355124
 10
1200.0
 20
7223.663255355124
 97
        0
 92
        7
 72
     0
 73
     1
 93
        4
 10
1250.0
 20
7223.663255355124
 10
1250.0
 20
6883.663255355124
 10
2400.0
 20
6883.663255355124
 10
2400.0
 20
7223.663255355124
 97
        0
 92
        7
 72
     0
 73
     1
 93
        4
 10
3600.0
 20
6883.663255355124
 10
3600.0
 20
7223.663255355124
 10
2450.0
 20
7223.663255355124
 10
2450.0
 20
6883.663255355124
 97
        0
 92
        7
 72
     0
 73
     1
 93
        4
 10
3650.0
 20
7223.663255355124
 10
3650.0
 20
6883.663255355124
 10
4800.0
 20
6883.663255355124
 10
4800.0
 20
7223.663255355124
 97
        0
 92
        7
 72
     0
 73
     1
 93
        4
 10
6000.0
 20
6883.663255355124
 10
6000.0
 20
7223.663255355124
 10
4850.0
 20
7223.663255355124
 10
4850.0
 20
6883.663255355124
 97
        0
 75
     0
 76
     1
 52
0.0
 41
20.0
 77
     0
 78
     2
 53
45.0
 43
6148.146786091544
 44
3403.570823070404
 45
-134.7038418160373
 46
134.7038418160373
 79
     0
 53
45.0
 43
6237.949386091546
 44
3403.570823070404
 45
-134.7038418160373
 46
134.7038418160373
 79
     0
 47
11.99928713488775
 98
        5
 10
597.7670693006221
 20
7104.715291417
 10
1642.199925778477
 20
7092.716001555193
 10
3070.791803008134
 20
7032.719552246155
 10
4319.309049810589
 20
7056.718131969771
 10
5555.821416664359
 20
7020.720262384348
1001
ACAD
1010
0.0
1020
0.0
1030
0.0
  0
HATCH
  5
104
330
2
100
AcDbEntity
  8
sapa_elevation
100
AcDbHatch
 10
0.0
 20
0.0
 30
0.0
210
0.0
220
0.0
230
1.0
  2
ANSI31
 70
     0
 71
     0
 91
        1
 92
        7
 72
     0
 73
     1
 93
        3
 10
7050.0
 20
10073.66325535512
 10
7050.0
 20
9923.663255355117
 10
7791.0
 20
9923.663255355124
 97
        0
 75
     0
 76
     1
 52
0.0
 41
10.0
 77
     0
 78
     1
 53
45.0
 43
5037.998020344821
 44
3403.570823070404
 45
-22.45064030267288
 46
22.45064030267288
 79
     0
 47
4.303415458446361
 98
        1
 10
7099.289392746898
 20
9995.656734562217
1001
ACAD
1010
0.0
1020
0.0
1030
0.0
  0
HATCH
  5
105
330
2
100
AcDbEntity
  8
sapa_elevation
100
AcDbHatch
 10
0.0
 20
0.0
 30
0.0
210
0.0
220
0.0
230
1.0
  2
ANSI31
 70
     0
 71
     0
 91
        1
 92
        7
 72
     0
 73
     1
 93
        3
 10
7791.0
 20
1183.663255355124
 10
7050.0
 20
1183.663255355124
 10
7050.0
 20
1033.663255355124
 97
        0
 75
     0
 76
     1
 52
0.0
 41
10.0
 77
     0
 78
     1
 53
45.0
 43
5037.998020344821
 44
3403.570823070404
 45
-22.45064030267288
 46
22.45064030267288
 79
     0
 47
1.079362698434344
 98
        1
 10
7134.505710938771
 20
1122.047256182108
1001
ACAD
1010
0.0
1020
0.0
1030
0.0
  0
HATCH
  5
106
330
2
100
AcDbEntity
  8
sapa_elevation
100
AcDbHatch
 10
0.0
 20
0.0
 30
0.0
210
0.0
220
0.0
230
1.0
  2
ANSI31
 70
     0
 71
     0
 91
        1
 92
        7
 72
     0
 73
     1
 93
        4
 10
7791.0
 20
4203.663255355124
 10
7291.0
 20
4203.663255355124
 10
7291.0
 20
3903.663255355125
 10
7791.0
 20
3903.663255355125
 97
        0
 75
     0
 76
     1
 52
0.0
 41
10.0
 77
     0
 78
     1
 53
45.0
 43
5037.998020344821
 44
3403.570823070404
 45
-22.45064030267288
 46
22.45064030267288
 79
     0
 47
5.754429181446798
 98
        1
 10
7580.763508281582
 20
3980.197325919654
1001
ACAD
1010
0.0
1020
0.0
1030
0.0
  0
ENDSEC
  0
SECTION
  2
OBJECTS
  0
DICTIONARY
  5
9
330
0
100
AcDbDictionary
281
     1
  3
ACAD_COLOR
350
34
  3
ACAD_GROUP
350
2F
  3
ACAD_LAYOUT
350
F
  3
ACAD_MATERIAL
350
B
  3
ACAD_MLEADERSTYLE
350
37
  3
ACAD_MLINESTYLE
350
30
  3
ACAD_PLOTSETTINGS
350
31
  3
ACAD_PLOTSTYLENAME
350
8
  3
ACAD_SCALELIST
350
35
  3
ACAD_TABLESTYLE
350
36
  3
ACAD_VISUALSTYLE
350
26
  3
ACDB_RECOMPOSE_DATA
350
113
  3
AcDbVariableDictionary
350
107
  3
AcDsDecomposeData
350
119
  0
DICTIONARY
  5
17
330
16
100
AcDbDictionary
280
     1
281
     1
  3
ACAD_LAYERSTATES
360
18
  3
ACLYDICTIONARY
360
19
  0
DICTIONARY
  5
5
330
4
100
AcDbDictionary
280
     1
281
     1
  3
ADSK_XREC_LAYER_RECONCILED
360
6
  0
DICTIONARY
  5
39
330
38
100
AcDbDictionary
280
     1
281
     1
  0
DICTIONARY
  5
34
102
{ACAD_REACTORS
330
9
102
}
330
9
100
AcDbDictionary
281
     1
  0
DICTIONARY
  5
2F
102
{ACAD_REACTORS
330
9
102
}
330
9
100
AcDbDictionary
281
     1
  0
DICTIONARY
  5
F
102
{ACAD_REACTORS
330
9
102
}
330
9
100
AcDbDictionary
281
     1
  3
Model
350
E
  3
Web
350
14
  0
DICTIONARY
  5
B
102
{ACAD_REACTORS
330
9
102
}
330
9
100
AcDbDictionary
281
     1
  3
ByBlock
350
33
  3
ByLayer
350
32
  3
Global
350
A
  0
DICTIONARY
  5
37
102
{ACAD_REACTORS
330
9
102
}
330
9
100
AcDbDictionary
281
     1
  3
Standard
350
FB
  0
DICTIONARY
  5
30
102
{ACAD_REACTORS
330
9
102
}
330
9
100
AcDbDictionary
281
     1
  3
STANDARD
350
3B
  0
DICTIONARY
  5
31
102
{ACAD_REACTORS
330
9
102
}
330
9
100
AcDbDictionary
281
     1
  0
ACDBDICTIONARYWDFLT
  5
8
102
{ACAD_REACTORS
330
9
102
}
330
9
100
AcDbDictionary
281
     1
  3
Normal
350
7
100
AcDbDictionaryWithDefault
340
7
  0
DICTIONARY
  5
35
102
{ACAD_REACTORS
330
9
102
}
330
9
100
AcDbDictionary
281
     1
  3
*A1
350
40
  3
*A10
350
41
  3
*A11
350
42
  3
*A12
350
43
  3
*A13
350
44
  3
*A14
350
45
  3
*A15
350
46
  3
*A16
350
47
  3
*A2
350
48
  3
*A3
350
49
  3
*A4
350
4A
  3
*A5
350
4B
  3
*A6
350
4C
  3
*A7
350
4D
  3
*A8
350
4E
  3
*A9
350
4F
  3
A0
350
50
  3
A1
350
51
  3
A2
350
52
  3
A3
350
53
  3
A4
350
54
  3
A5
350
55
  3
A6
350
56
  3
A7
350
57
  3
A8
350
58
  3
A9
350
59
  3
B0
350
5A
  3
B1
350
5B
  3
B2
350
5C
  3
B3
350
5D
  3
B4
350
5E
  3
B5
350
5F
  3
B6
350
60
  3
B7
350
61
  3
B8
350
62
  0
DICTIONARY
  5
36
102
{ACAD_REACTORS
330
9
102
}
330
9
100
AcDbDictionary
281
     1
  3
Standard
350
3C
  0
DICTIONARY
  5
26
102
{ACAD_REACTORS
330
9
102
}
330
9
100
AcDbDictionary
281
     1
  3
2dWireframe
350
25
  3
Realistic
350
3E
  3
Wireframe
350
3F
  0
XRECORD
  5
113
102
{ACAD_REACTORS
330
9
102
}
330
9
100
AcDbXrecord
280
     1
 90
        1
330
3C
  0
DICTIONARY
  5
107
102
{ACAD_REACTORS
330
9
102
}
330
9
100
AcDbDictionary
281
     1
  3
CANNOSCALE
350
10E
  3
CMLEADERSTYLE
350
109
  3
CTABLESTYLE
350
108
  3
CVIEWDETAILSTYLE
350
10A
  3
CVIEWSECTIONSTYLE
350
10B
  3
LAYEREVAL
350
110
  3
LAYERNOTIFY
350
111
  3
LIGHTINGUNITS
350
10F
  3
MSLTSCALE
350
10D
  3
UPDATETHUMBNAIL
350
10C
  0
DICTIONARY
  5
119
102
{ACAD_REACTORS
330
9
102
}
330
9
100
AcDbDictionary
281
     1
  3
AcDsRecords
350
11B
  3
AcDsSchemas
350
11A
1001
ACAD
1070
     2
  0
DICTIONARY
  5
18
102
{ACAD_REACTORS
330
17
102
}
330
17
100
AcDbDictionary
281
     1
  0
DICTIONARY
  5
19
102
{ACAD_REACTORS
330
17
102
}
330
17
100
AcDbDictionary
281
     1
1001
ACAD
1000
<AllUnreconciled
  0
XRECORD
  5
6
102
{ACAD_REACTORS
330
5
102
}
330
5
100
AcDbXrecord
280
     1
290
     1
  0
LAYOUT
  5
E
102
{ACAD_REACTORS
330
F
102
}
330
F
100
AcDbPlotSettings
  1

  2
DWF6 ePlot.pc3
  4
ISO_full_bleed_A4_(210.00_x_297.00_MM)
  6

 40
6.0
 41
5.0
 42
7.0
 43
5.0
 44
210.0
 45
297.0
 46
0.0
 47
0.0
 48
0.0
 49
0.0
140
0.0
141
0.0
142
1.0
143
1.929958503202149
 70
 11952
 72
     1
 73
     1
 74
     0
  7
sapa1.ctb
 75
     0
147
0.5181458556444709
 76
     0
 77
     2
 78
   300
148
-209.4861090460728
149
-189.6933865316904
100
AcDbLayout
  1
Model
 70
     1
 71
     0
 10
0.0
 20
0.0
 11
12.0
 21
9.0
 12
0.0
 22
0.0
 32
0.0
 14
0.0
 24
0.0
 34
0.0
 15
0.0
 25
0.0
 35
0.0
146
0.0
 13
0.0
 23
0.0
 33
0.0
 16
1.0
 26
0.0
 36
0.0
 17
0.0
 27
1.0
 37
0.0
 76
     0
330
2
331
24
1001
ACAD_PSEXT
1000
DWF6 ePlot.pc3
1000
DWF6 ePlot
1000
File
1000

1070
     0
  0
LAYOUT
  5
14
102
{ACAD_XDICTIONARY
360
15
102
}
102
{ACAD_REACTORS
330
F
102
}
330
F
100
AcDbPlotSettings
  1

  2
frontp04.pc3
  4
A4
  6

 40
4.233333110809326
 41
4.233341693878173
 42
4.233322143554687
 43
4.23333740234375
 44
209.9733276367187
 45
296.9259948730469
 46
12.0
 47
0.0
 48
0.0
 49
0.0
140
0.0
141
0.0
142
1.0
143
1.0
 70
   688
 72
     1
 73
     0
 74
     1
  7
sapa2.ctb
 75
    16
147
1.0
 76
     1
 77
     2
 78
   300
148
-1.826818110860415
149
0.0203279535528509
100
AcDbLayout
  1
Web
 70
     1
 71
     1
 10
-14.40651499994891
 20
-4.253669647431024
 11
195.5668126367698
 21
292.6723252256159
 12
0.0
 22
0.0
 32
0.0
 14
5.869999703752308
 24
-0.0000001723469722
 34
0.0
 15
185.8683605469043
 25
282.999999827653
 35
0.0
146
0.0
 13
0.0
 23
0.0
 33
0.0
 16
1.0
 26
0.0
 36
0.0
 17
0.0
 27
1.0
 37
0.0
 76
     0
330
11
1001
ACAD_PSEXT
1000
frontp04.pc3
1000
HP LaserJet 4200 PCL6
1000
Sapa Building System
1000
HP Laserjet 4200n, pcl 6
1070
     0
  0
MATERIAL
  5
33
102
{ACAD_REACTORS
330
B
102
}
330
B
100
AcDbMaterial
  1
ByBlock
 73
     1
 78
     1
172
     1
176
     1
270
     1
274
     1
 94
       63
  0
MATERIAL
  5
32
102
{ACAD_REACTORS
330
B
102
}
330
B
100
AcDbMaterial
  1
ByLayer
 73
     1
 78
     1
172
     1
176
     1
270
     1
274
     1
 94
       63
  0
MATERIAL
  5
A
102
{ACAD_REACTORS
330
B
102
}
330
B
100
AcDbMaterial
  1
Global
 73
     1
 78
     1
172
     1
176
     1
270
     1
274
     1
 94
       63
  0
MLEADERSTYLE
  5
FB
102
{ACAD_REACTORS
330
37
330
FD
330
FA
102
}
330
37
100
AcDbMLeaderStyle
170
     2
171
     1
172
     0
 90
        2
 40
0.0
 41
0.0
173
     1
 91
-1056964608
340
1F
 92
       -2
290
     1
 42
2.0
291
     1
 43
0.36
  3
Standard
 44
4.0
300

342
1C
174
     1
178
     6
175
     1
176
     0
 93
-1056964608
 45
4.0
292
     0
297
     0
 46
4.0
 94
-1056964608
 47
1.0
 49
1.0
140
1.0
293
     1
141
0.0
294
     1
177
     0
142
1.0
295
     0
296
     0
143
0.125
1001
ACAD_MLEADERVER
1070
     2
  0
MLINESTYLE
  5
3B
102
{ACAD_REACTORS
330
30
102
}
330
30
100
AcDbMlineStyle
  2
STANDARD
 70
     0
  3

 62
   256
 51
90.0
 52
90.0
 71
     2
 49
0.5
 62
   256
  6
BYLAYER
 49
-0.5
 62
   256
  6
BYLAYER
  0
ACDBPLACEHOLDER
  5
7
102
{ACAD_REACTORS
330
8
102
}
330
8
  0
SCALE
  5
40
102
{ACAD_REACTORS
330
35
102
}
330
35
100
AcDbScale
 70
     0
300
1/128" = 1'-0"_XREF
140
0.0078125
141
12.0
290
     0
  0
SCALE
  5
41
102
{ACAD_REACTORS
330
35
102
}
330
35
100
AcDbScale
 70
     0
300
3/32" = 1'-0"_XREF
140
0.09375
141
12.0
290
     0
  0
SCALE
  5
42
102
{ACAD_REACTORS
330
35
102
}
330
35
100
AcDbScale
 70
     0
300
1/8" = 1'-0"_XREF
140
0.125
141
12.0
290
     0
  0
SCALE
  5
43
102
{ACAD_REACTORS
330
35
102
}
330
35
100
AcDbScale
 70
     0
300
3/16" = 1'-0"_XREF
140
0.1875
141
12.0
290
     0
  0
SCALE
  5
44
102
{ACAD_REACTORS
330
35
102
}
330
35
100
AcDbScale
 70
     0
300
1/4" = 1'-0"_XREF
140
0.25
141
12.0
290
     0
  0
SCALE
  5
45
102
{ACAD_REACTORS
330
35
102
}
330
35
100
AcDbScale
 70
     0
300
3/8" = 1'-0"_XREF
140
0.375
141
12.0
290
     0
  0
SCALE
  5
46
102
{ACAD_REACTORS
330
35
102
}
330
35
100
AcDbScale
 70
     0
300
1/2" = 1'-0"_XREF
140
0.5
141
12.0
290
     0
  0
SCALE
  5
47
102
{ACAD_REACTORS
330
35
102
}
330
35
100
AcDbScale
 70
     0
300
3/4" = 1'-0"_XREF
140
0.75
141
12.0
290
     0
  0
SCALE
  5
48
102
{ACAD_REACTORS
330
35
102
}
330
35
100
AcDbScale
 70
     0
300
1" = 1'-0"_XREF
140
1.0
141
12.0
290
     0
  0
SCALE
  5
49
102
{ACAD_REACTORS
330
35
102
}
330
35
100
AcDbScale
 70
     0
300
1-1/2" = 1'-0"_XREF
140
1.5
141
12.0
290
     0
  0
SCALE
  5
4A
102
{ACAD_REACTORS
330
35
102
}
330
35
100
AcDbScale
 70
     0
300
3" = 1'-0"_XREF
140
3.0
141
12.0
290
     0
  0
SCALE
  5
4B
102
{ACAD_REACTORS
330
35
102
}
330
35
100
AcDbScale
 70
     0
300
6" = 1'-0"_XREF
140
6.0
141
12.0
290
     0
  0
SCALE
  5
4C
102
{ACAD_REACTORS
330
35
102
}
330
35
100
AcDbScale
 70
     0
300
1'-0" = 1'-0"_XREF
140
12.0
141
12.0
290
     0
  0
SCALE
  5
4D
102
{ACAD_REACTORS
330
35
102
}
330
35
100
AcDbScale
 70
     0
300
1/64" = 1'-0"_XREF
140
0.015625
141
12.0
290
     0
  0
SCALE
  5
4E
102
{ACAD_REACTORS
330
35
102
}
330
35
100
AcDbScale
 70
     0
300
1/32" = 1'-0"_XREF
140
0.03125
141
12.0
290
     0
  0
SCALE
  5
4F
102
{ACAD_REACTORS
330
35
102
}
330
35
100
AcDbScale
 70
     0
300
1/16" = 1'-0"_XREF
140
0.0625
141
12.0
290
     0
  0
SCALE
  5
50
102
{ACAD_REACTORS
330
35
102
}
330
35
100
AcDbScale
 70
     0
300
1:1
140
1.0
141
1.0
290
     1
  0
SCALE
  5
51
102
{ACAD_REACTORS
330
35
102
}
330
35
100
AcDbScale
 70
     0
300
1:2.5
140
1.0
141
2.5
290
     0
  0
SCALE
  5
52
102
{ACAD_REACTORS
330
35
102
}
330
35
100
AcDbScale
 70
     0
300
1:2
140
1.0
141
2.0
290
     0
  0
SCALE
  5
53
102
{ACAD_REACTORS
330
35
102
}
330
35
100
AcDbScale
 70
     0
300
1:4
140
1.0
141
4.0
290
     0
  0
SCALE
  5
54
102
{ACAD_REACTORS
330
35
102
}
330
35
100
AcDbScale
 70
     0
300
1:5
140
1.0
141
5.0
290
     0
  0
SCALE
  5
55
102
{ACAD_REACTORS
330
35
102
}
330
35
100
AcDbScale
 70
     0
300
1:8
140
1.0
141
8.0
290
     0
  0
SCALE
  5
56
102
{ACAD_REACTORS
330
35
102
}
330
35
100
AcDbScale
 70
     0
300
1:10
140
1.0
141
10.0
290
     0
  0
SCALE
  5
57
102
{ACAD_REACTORS
330
35
102
}
330
35
100
AcDbScale
 70
     0
300
1:16
140
1.0
141
16.0
290
     0
  0
SCALE
  5
58
102
{ACAD_REACTORS
330
35
102
}
330
35
100
AcDbScale
 70
     0
300
1:20
140
1.0
141
20.0
290
     0
  0
SCALE
  5
59
102
{ACAD_REACTORS
330
35
102
}
330
35
100
AcDbScale
 70
     0
300
1:30
140
1.0
141
30.0
290
     0
  0
SCALE
  5
5A
102
{ACAD_REACTORS
330
35
102
}
330
35
100
AcDbScale
 70
     0
300
1:40
140
1.0
141
40.0
290
     0
  0
SCALE
  5
5B
102
{ACAD_REACTORS
330
35
102
}
330
35
100
AcDbScale
 70
     0
300
1:50
140
1.0
141
50.0
290
     0
  0
SCALE
  5
5C
102
{ACAD_REACTORS
330
35
102
}
330
35
100
AcDbScale
 70
     0
300
1:100
140
1.0
141
100.0
290
     0
  0
SCALE
  5
5D
102
{ACAD_REACTORS
330
35
102
}
330
35
100
AcDbScale
 70
     0
300
2:1
140
2.0
141
1.0
290
     0
  0
SCALE
  5
5E
102
{ACAD_REACTORS
330
35
102
}
330
35
100
AcDbScale
 70
     0
300
4:1
140
4.0
141
1.0
290
     0
  0
SCALE
  5
5F
102
{ACAD_REACTORS
330
35
102
}
330
35
100
AcDbScale
 70
     0
300
5:1
140
5.0
141
1.0
290
     0
  0
SCALE
  5
60
102
{ACAD_REACTORS
330
35
102
}
330
35
100
AcDbScale
 70
     0
300
8:1
140
8.0
141
1.0
290
     0
  0
SCALE
  5
61
102
{ACAD_REACTORS
330
35
102
}
330
35
100
AcDbScale
 70
     0
300
10:1
140
10.0
141
1.0
290
     0
  0
SCALE
  5
62
102
{ACAD_REACTORS
330
35
102
}
330
35
100
AcDbScale
 70
     0
300
100:1
140
100.0
141
1.0
290
     0
  0
TABLESTYLE
  5
3C
102
{ACAD_XDICTIONARY
360
3D
102
}
102
{ACAD_REACTORS
330
36
102
}
330
36
100
AcDbTableStyle
  3
Standard
 70
     0
 71
     0
 40
1.5
 41
1.5
280
     0
281
     0
  7
STANDARD
140
4.5
170
     2
 62
     0
 63
     7
283
     0
 90
        4
 91
        0
  1

274
    -2
284
     1
 64
     0
275
    -2
285
     1
 65
     0
276
    -2
286
     1
 66
     0
277
    -2
287
     1
 67
     0
278
    -2
288
     1
 68
     0
279
    -2
289
     1
 69
     0
  7
STANDARD
140
6.0
170
     5
 62
     0
 63
     7
283
     0
 90
        4
 91
        0
  1

274
    -2
284
     1
 64
     0
275
    -2
285
     1
 65
     0
276
    -2
286
     1
 66
     0
277
    -2
287
     1
 67
     0
278
    -2
288
     1
 68
     0
279
    -2
289
     1
 69
     0
  7
STANDARD
140
4.5
170
     5
 62
     0
 63
     7
283
     0
 90
        4
 91
        0
  1

274
    -2
284
     1
 64
     0
275
    -2
285
     1
 65
     0
276
    -2
286
     1
 66
     0
277
    -2
287
     1
 67
     0
278
    -2
288
     1
 68
     0
279
    -2
289
     1
 69
     0
  0
VISUALSTYLE
  5
25
102
{ACAD_XDICTIONARY
360
11C
102
}
102
{ACAD_REACTORS
330
26
102
}
330
26
100
AcDbVisualStyle
  2
2dWireframe
 70
     4
 71
     0
 72
     2
 73
     0
 90
        0
 40
-0.6
 41
-30.0
 62
     5
 63
     7
421
 16777215
 74
     1
 91
        4
 64
     7
 65
   257
 75
     1
175
     1
 42
1.0
 92
        0
 66
   257
 43
1.0
 76
     1
 77
     6
 78
     2
 67
     7
 79
     5
170
     0
171
     0
290
     0
174
     0
 93
        1
 44
0.0
173
     0
291
     0
 45
0.0
1001
ACAD
1000
AcDbSavedByObjectVersion
1070
     0
  0
VISUALSTYLE
  5
3E
102
{ACAD_XDICTIONARY
360
11E
102
}
102
{ACAD_REACTORS
330
26
102
}
330
26
100
AcDbVisualStyle
  2
Realistic
 70
     8
 71
     2
 72
     2
 73
     0
 90
        0
 40
-0.6
 41
-30.0
 62
     5
 63
     7
421
 16777215
 74
     1
 91
        0
 64
     7
 65
   257
 75
     1
175
     1
 42
1.0
 92
        8
 66
     8
424
  7895160
 43
1.0
 76
     1
 77
     6
 78
     2
 67
     7
 79
     5
170
     0
171
     0
290
     0
174
     0
 93
       13
 44
0.0
173
     0
291
     0
 45
0.0
1001
ACAD
1000
AcDbSavedByObjectVersion
1070
     0
  0
VISUALSTYLE
  5
3F
102
{ACAD_XDICTIONARY
360
120
102
}
102
{ACAD_REACTORS
330
26
102
}
330
26
100
AcDbVisualStyle
  2
Wireframe
 70
     5
 71
     0
 72
     2
 73
     0
 90
        0
 40
-0.6
 41
-30.0
 62
     5
 63
     7
421
 16777215
 74
     1
 91
        4
 64
     7
 65
   257
 75
     1
175
     1
 42
1.0
 92
        0
 66
   257
 43
1.0
 76
     1
 77
     6
 78
     2
 67
     7
 79
     3
170
     0
171
     0
290
     0
174
     0
 93
        1
 44
0.0
173
     0
291
     0
 45
0.0
1001
ACAD
1000
AcDbSavedByObjectVersion
1070
     0
  0
DICTIONARYVAR
  5
10E
102
{ACAD_REACTORS
330
107
102
}
330
107
100
DictionaryVariables
280
     0
  1
1:1
  0
DICTIONARYVAR
  5
109
102
{ACAD_REACTORS
330
107
102
}
330
107
100
DictionaryVariables
280
     0
  1
STANDARD
  0
DICTIONARYVAR
  5
108
102
{ACAD_REACTORS
330
107
102
}
330
107
100
DictionaryVariables
280
     0
  1
STANDARD
  0
DICTIONARYVAR
  5
10A
102
{ACAD_REACTORS
330
107
102
}
330
107
100
DictionaryVariables
280
     0
  1

  0
DICTIONARYVAR
  5
10B
102
{ACAD_REACTORS
330
107
102
}
330
107
100
DictionaryVariables
280
     0
  1

  0
DICTIONARYVAR
  5
110
102
{ACAD_REACTORS
330
107
102
}
330
107
100
DictionaryVariables
280
     0
  1
1
  0
DICTIONARYVAR
  5
111
102
{ACAD_REACTORS
330
107
102
}
330
107
100
DictionaryVariables
280
     0
  1
15
  0
DICTIONARYVAR
  5
10F
102
{ACAD_REACTORS
330
107
102
}
330
107
100
DictionaryVariables
280
     0
  1
0
  0
DICTIONARYVAR
  5
10D
102
{ACAD_REACTORS
330
107
102
}
330
107
100
DictionaryVariables
280
     0
  1
0
  0
DICTIONARYVAR
  5
10C
102
{ACAD_REACTORS
330
107
102
}
330
107
100
DictionaryVariables
280
     0
  1
31
  0
DICTIONARY
  5
11B
102
{ACAD_REACTORS
330
119
102
}
330
119
100
AcDbDictionary
281
     1
  0
DICTIONARY
  5
11A
102
{ACAD_REACTORS
330
119
102
}
330
119
100
AcDbDictionary
281
     1
  3
2124838176
350
114
  3
2124838184
350
115
  3
2124838192
350
116
  3
2124838200
350
117
  3
2124838208
350
118
  0
DICTIONARY
  5
15
330
14
100
AcDbDictionary
280
     1
281
     1
  0
DICTIONARY
  5
3D
330
3C
100
AcDbDictionary
280
     1
281
     1
  3
ACAD_ROUNDTRIP_2008_TABLESTYLE_CELLSTYLEMAP
360
112
  0
DICTIONARY
  5
11C
330
25
100
AcDbDictionary
280
     1
281
     1
  3
ACAD_XREC_ROUNDTRIP
360
11D
  0
DICTIONARY
  5
11E
330
3E
100
AcDbDictionary
280
     1
281
     1
  3
ACAD_XREC_ROUNDTRIP
360
11F
  0
DICTIONARY
  5
120
330
3F
100
AcDbDictionary
280
     1
281
     1
  3
ACAD_XREC_ROUNDTRIP
360
121
  0
XRECORD
  5
114
102
{ACAD_REACTORS
330
11A
102
}
330
11A
100
AcDbXrecord
280
     1
  1
AcDb_Thumbnail_Schema
102
{ATTRRECORD
341
115
  2
AcDbDs::TreatedAsObjectData
280
     1
291
     1
102
ATTRRECORD}
102
{ATTRRECORD
341
116
  2
AcDbDs::Legacy
280
     1
291
     1
102
ATTRRECORD}
  2
AcDbDs::ID
280
    10
 91
        8
102
{ATTRRECORD
341
117
  2
AcDs:Indexable
280
     1
291
     1
102
ATTRRECORD}
102
{ATTRRECORD
341
118
  2
AcDbDs::HandleAttribute
280
     7
282
     1
102
ATTRRECORD}
  2
Thumbnail_Data
280
    15
 91
        0
  0
XRECORD
  5
115
102
{ACAD_REACTORS
330
11A
102
}
330
11A
100
AcDbXrecord
280
     1
  1
AcDbDs::TreatedAsObjectDataSchema
  2
AcDbDs::TreatedAsObjectData
280
     1
 91
        0
  0
XRECORD
  5
116
102
{ACAD_REACTORS
330
11A
102
}
330
11A
100
AcDbXrecord
280
     1
  1
AcDbDs::LegacySchema
  2
AcDbDs::Legacy
280
     1
 91
        0
  0
XRECORD
  5
117
102
{ACAD_REACTORS
330
11A
102
}
330
11A
100
AcDbXrecord
280
     1
  1
AcDbDs::IndexedPropertySchema
  2
AcDs:Indexable
280
     1
 91
        0
  0
XRECORD
  5
118
102
{ACAD_REACTORS
330
11A
102
}
330
11A
100
AcDbXrecord
280
     1
  1
AcDbDs::HandleAttributeSchema
  2
AcDbDs::HandleAttribute
280
     7
 91
        1
284
     1
  0
CELLSTYLEMAP
  5
112
102
{ACAD_REACTORS
330
3D
102
}
330
3D
100
AcDbCellStyleMap
 90
        3
300
CELLSTYLE
  1
TABLEFORMAT_BEGIN
 90
        5
170
     1
 91
        0
 92
    32768
 62
   257
 93
        1
300
CONTENTFORMAT
  1
CONTENTFORMAT_BEGIN
 90
        0
 91
        0
 92
        4
 93
        0
300

 40
0.0
140
1.0
 94
        5
 62
     0
340
1C
144
6.0
309
CONTENTFORMAT_END
171
     1
301
MARGIN
  1
CELLMARGIN_BEGIN
 40
1.5
 40
1.5
 40
1.5
 40
1.5
 40
0.18
 40
0.18
309
CELLMARGIN_END
 94
        6
 95
        1
302
GRIDFORMAT
  1
GRIDFORMAT_BEGIN
 90
        0
 91
        1
 62
     0
 92
       -2
340
0
 93
        0
 40
0.045
309
GRIDFORMAT_END
 95
        2
302
GRIDFORMAT
  1
GRIDFORMAT_BEGIN
 90
        0
 91
        1
 62
     0
 92
       -2
340
0
 93
        0
 40
0.045
309
GRIDFORMAT_END
 95
        4
302
GRIDFORMAT
  1
GRIDFORMAT_BEGIN
 90
        0
 91
        1
 62
     0
 92
       -2
340
0
 93
        0
 40
0.045
309
GRIDFORMAT_END
 95
        8
302
GRIDFORMAT
  1
GRIDFORMAT_BEGIN
 90
        0
 91
        1
 62
     0
 92
       -2
340
0
 93
        0
 40
0.045
309
GRIDFORMAT_END
 95
       16
302
GRIDFORMAT
  1
GRIDFORMAT_BEGIN
 90
        0
 91
        1
 62
     0
 92
       -2
340
0
 93
        0
 40
0.045
309
GRIDFORMAT_END
 95
       32
302
GRIDFORMAT
  1
GRIDFORMAT_BEGIN
 90
        0
 91
        1
 62
     0
 92
       -2
340
0
 93
        0
 40
0.045
309
GRIDFORMAT_END
309
TABLEFORMAT_END
  1
CELLSTYLE_BEGIN
 90
        1
 91
        1
300
_TITLE
309
CELLSTYLE_END
300
CELLSTYLE
  1
TABLEFORMAT_BEGIN
 90
        5
170
     1
 91
        0
 92
        0
 62
   257
 93
        1
300
CONTENTFORMAT
  1
CONTENTFORMAT_BEGIN
 90
        0
 91
        0
 92
        4
 93
        0
300

 40
0.0
140
1.0
 94
        5
 62
     0
340
1C
144
4.5
309
CONTENTFORMAT_END
171
     1
301
MARGIN
  1
CELLMARGIN_BEGIN
 40
1.5
 40
1.5
 40
1.5
 40
1.5
 40
0.18
 40
0.18
309
CELLMARGIN_END
 94
        6
 95
        1
302
GRIDFORMAT
  1
GRIDFORMAT_BEGIN
 90
        0
 91
        1
 62
     0
 92
       -2
340
0
 93
        0
 40
0.045
309
GRIDFORMAT_END
 95
        2
302
GRIDFORMAT
  1
GRIDFORMAT_BEGIN
 90
        0
 91
        1
 62
     0
 92
       -2
340
0
 93
        0
 40
0.045
309
GRIDFORMAT_END
 95
        4
302
GRIDFORMAT
  1
GRIDFORMAT_BEGIN
 90
        0
 91
        1
 62
     0
 92
       -2
340
0
 93
        0
 40
0.045
309
GRIDFORMAT_END
 95
        8
302
GRIDFORMAT
  1
GRIDFORMAT_BEGIN
 90
        0
 91
        1
 62
     0
 92
       -2
340
0
 93
        0
 40
0.045
309
GRIDFORMAT_END
 95
       16
302
GRIDFORMAT
  1
GRIDFORMAT_BEGIN
 90
        0
 91
        1
 62
     0
 92
       -2
340
0
 93
        0
 40
0.045
309
GRIDFORMAT_END
 95
       32
302
GRIDFORMAT
  1
GRIDFORMAT_BEGIN
 90
        0
 91
        1
 62
     0
 92
       -2
340
0
 93
        0
 40
0.045
309
GRIDFORMAT_END
309
TABLEFORMAT_END
  1
CELLSTYLE_BEGIN
 90
        2
 91
        1
300
_HEADER
309
CELLSTYLE_END
300
CELLSTYLE
  1
TABLEFORMAT_BEGIN
 90
        5
170
     1
 91
        0
 92
        0
 62
   257
 93
        1
300
CONTENTFORMAT
  1
CONTENTFORMAT_BEGIN
 90
        0
 91
        0
 92
        4
 93
        0
300

 40
0.0
140
1.0
 94
        2
 62
     0
340
1C
144
4.5
309
CONTENTFORMAT_END
171
     1
301
MARGIN
  1
CELLMARGIN_BEGIN
 40
1.5
 40
1.5
 40
1.5
 40
1.5
 40
0.18
 40
0.18
309
CELLMARGIN_END
 94
        6
 95
        1
302
GRIDFORMAT
  1
GRIDFORMAT_BEGIN
 90
        0
 91
        1
 62
     0
 92
       -2
340
0
 93
        0
 40
0.045
309
GRIDFORMAT_END
 95
        2
302
GRIDFORMAT
  1
GRIDFORMAT_BEGIN
 90
        0
 91
        1
 62
     0
 92
       -2
340
0
 93
        0
 40
0.045
309
GRIDFORMAT_END
 95
        4
302
GRIDFORMAT
  1
GRIDFORMAT_BEGIN
 90
        0
 91
        1
 62
     0
 92
       -2
340
0
 93
        0
 40
0.045
309
GRIDFORMAT_END
 95
        8
302
GRIDFORMAT
  1
GRIDFORMAT_BEGIN
 90
        0
 91
        1
 62
     0
 92
       -2
340
0
 93
        0
 40
0.045
309
GRIDFORMAT_END
 95
       16
302
GRIDFORMAT
  1
GRIDFORMAT_BEGIN
 90
        0
 91
        1
 62
     0
 92
       -2
340
0
 93
        0
 40
0.045
309
GRIDFORMAT_END
 95
       32
302
GRIDFORMAT
  1
GRIDFORMAT_BEGIN
 90
        0
 91
        1
 62
     0
 92
       -2
340
0
 93
        0
 40
0.045
309
GRIDFORMAT_END
309
TABLEFORMAT_END
  1
CELLSTYLE_BEGIN
 90
        3
 91
        2
300
_DATA
309
CELLSTYLE_END
  0
XRECORD
  5
11D
102
{ACAD_REACTORS
330
11C
102
}
330
11C
100
AcDbXrecord
280
     1
102
RTVSPost2010Prop28
280
     1
102
RTVSPost2010PropOp28
 70
     1
102
RTVSPost2010Prop29
280
     1
102
RTVSPost2010PropOp29
 70
     1
102
RTVSPost2010Prop30
280
     0
102
RTVSPost2010PropOp30
 70
     1
102
RTVSPost2010Prop31
280
     0
102
RTVSPost2010PropOp31
 70
     1
102
RTVSPost2010Prop32
280
     0
102
RTVSPost2010PropOp32
 70
     1
102
RTVSPost2010Prop33
280
     0
102
RTVSPost2010PropOp33
 70
     1
102
RTVSPost2010Prop34
280
     0
102
RTVSPost2010PropOp34
 70
     1
102
RTVSPost2010Prop35
280
     0
102
RTVSPost2010PropOp35
 70
     1
102
RTVSPost2010Prop36
280
     0
102
RTVSPost2010PropOp36
 70
     1
102
RTVSPost2010Prop37
 90
       50
102
RTVSPost2010PropOp37
 70
     1
102
RTVSPost2010Prop38
140
0.0
102
RTVSPost2010PropOp38
 70
     1
102
RTVSPost2010Prop39
140
1.0
102
RTVSPost2010PropOp39
 70
     1
102
RTVSPost2010Prop40
 90
        0
102
RTVSPost2010PropOp40
 70
     1
102
RTVSPost2010Prop41ColorIndex
 90
       18
102
RTVSPost2010Prop41ColorRGB
 90
        0
102
RTVSPost2010PropOp41
 70
     1
102
RTVSPost2010Prop42
 90
       50
102
RTVSPost2010PropOp42
 70
     1
102
RTVSPost2010Prop43
 90
        3
102
RTVSPost2010PropOp43
 70
     1
102
RTVSPost2010Prop44ColorIndex
 90
        5
102
RTVSPost2010Prop44ColorRGB
 90
      255
102
RTVSPost2010PropOp44
 70
     1
102
RTVSPost2010Prop45
280
     0
102
RTVSPost2010PropOp45
 70
     1
102
RTVSPost2010Prop46
 90
       50
102
RTVSPost2010PropOp46
 70
     1
102
RTVSPost2010Prop47
 90
       50
102
RTVSPost2010PropOp47
 70
     1
102
RTVSPost2010Prop48
 90
       50
102
RTVSPost2010PropOp48
 70
     1
102
RTVSPost2010Prop49
280
     0
102
RTVSPost2010PropOp49
 70
     1
102
RTVSPost2010Prop50
 90
       50
102
RTVSPost2010PropOp50
 70
     1
102
RTVSPost2010Prop51ColorIndex
 90
      256
102
RTVSPost2010Prop51ColorRGB
 90
-16777216
102
RTVSPost2010PropOp51
 70
     0
102
RTVSPost2010Prop52
140
1.0
102
RTVSPost2010PropOp52
 70
     0
102
RTVSPost2010Prop53
 90
        2
102
RTVSPost2010PropOp53
 70
     1
102
RTVSPost2010Prop54
  1
strokes_ogs.tif
102
RTVSPost2010PropOp54
 70
     1
102
RTVSPost2010Prop55
280
     0
102
RTVSPost2010PropOp55
 70
     1
102
RTVSPost2010Prop56
140
1.0
102
RTVSPost2010PropOp56
 70
     1
102
RTVSPost2010Prop57
140
1.0
102
RTVSPost2010PropOp57
 70
     1
102
RTVSPropertyOp0
 70
     1
102
RTVSPropertyOp1
 70
     1
102
RTVSPropertyOp2
 70
     1
102
RTVSPropertyOp3
 70
     1
102
RTVSPropertyOp4
 70
     1
102
RTVSPropertyOp5
 70
     1
102
RTVSPropertyOp6
 70
     1
102
RTVSPropertyOp7
 70
     1
102
RTVSPropertyOp8
 70
     1
102
RTVSPropertyOp9
 70
     1
102
RTVSPropertyOp10
 70
     1
102
RTVSPropertyOp11
 70
     1
102
RTVSPropertyOp12
 70
     1
102
RTVSPropertyOp13
 70
     1
102
RTVSPropertyOp14
 70
     1
102
RTVSPropertyOp15
 70
     1
102
RTVSPropertyOp16
 70
     1
102
RTVSPropertyOp17
 70
     1
102
RTVSPropertyOp18
 70
     1
102
RTVSPropertyOp19
 70
     1
102
RTVSPropertyOp20
 70
     1
102
RTVSPropertyOp21
 70
     1
102
RTVSPropertyOp22
 70
     1
102
RTVSPropertyOp23
 70
     1
102
RTVSPropertyOp24
 70
     1
102
RTVSPropertyOp25
 70
     1
102
RTVSPropertyOp26
 70
     1
102
RTVSPropertyOp27
 70
     1
102
RTVSPropertyOp28
 70
     1
102
RTVSPropertyOp29
 70
     1
102
RTVSPropertyOp30
 70
     1
102
RTVSPropertyOp31
 70
     1
102
RTVSPropertyOp32
 70
     1
102
RTVSPropertyOp33
 70
     1
102
RTVSPropertyOp34
 70
     1
102
RTVSPropertyOp35
 70
     1
102
RTVSPropertyOp36
 70
     1
102
RTVSPropertyOp37
 70
     1
102
RTVSPropertyOp38
 70
     1
102
RTVSPropertyOp39
 70
     1
102
RTVSPropertyOp40
 70
     1
102
RTVSPropertyOp41
 70
     1
102
RTVSPropertyOp42
 70
     1
102
RTVSPropertyOp43
 70
     1
102
RTVSPropertyOp44
 70
     1
102
RTVSPropertyOp45
 70
     1
102
RTVSPropertyOp46
 70
     1
102
RTVSPropertyOp47
 70
     1
102
RTVSPropertyOp48
 70
     1
102
RTVSPropertyOp49
 70
     1
102
RTVSPropertyOp50
 70
     1
102
RTVSPropertyOp51
 70
     0
102
RTVSPropertyOp52
 70
     0
102
RTVSPropertyOp53
 70
     1
102
RTVSPropertyOp54
 70
     1
102
RTVSPropertyOp55
 70
     1
102
RTVSPropertyOp56
 70
     1
102
RTVSPropertyOp57
 70
     1
102
RTVSPropertyOp58
 70
     1
102
RTVSPropertyOp59
 70
     1
102
RTVSPropertyOp60
 70
     1
102
RTVSPropertyOp61
 70
     1
102
RTVSPropertyOp62
 70
     1
  0
XRECORD
  5
11F
102
{ACAD_REACTORS
330
11E
102
}
330
11E
100
AcDbXrecord
280
     1
102
RTVSPost2010Prop28
280
     0
102
RTVSPost2010PropOp28
 70
     1
102
RTVSPost2010Prop29
280
     1
102
RTVSPost2010PropOp29
 70
     1
102
RTVSPost2010Prop30
280
     1
102
RTVSPost2010PropOp30
 70
     1
102
RTVSPost2010Prop31
280
     0
102
RTVSPost2010PropOp31
 70
     1
102
RTVSPost2010Prop32
280
     0
102
RTVSPost2010PropOp32
 70
     1
102
RTVSPost2010Prop33
280
     0
102
RTVSPost2010PropOp33
 70
     1
102
RTVSPost2010Prop34
280
     0
102
RTVSPost2010PropOp34
 70
     1
102
RTVSPost2010Prop35
280
     0
102
RTVSPost2010PropOp35
 70
     1
102
RTVSPost2010Prop36
280
     0
102
RTVSPost2010PropOp36
 70
     1
102
RTVSPost2010Prop37
 90
       50
102
RTVSPost2010PropOp37
 70
     1
102
RTVSPost2010Prop38
140
0.0
102
RTVSPost2010PropOp38
 70
     1
102
RTVSPost2010Prop39
140
1.0
102
RTVSPost2010PropOp39
 70
     1
102
RTVSPost2010Prop40
 90
        0
102
RTVSPost2010PropOp40
 70
     1
102
RTVSPost2010Prop41ColorIndex
 90
       18
102
RTVSPost2010Prop41ColorRGB
 90
        0
102
RTVSPost2010PropOp41
 70
     1
102
RTVSPost2010Prop42
 90
       50
102
RTVSPost2010PropOp42
 70
     1
102
RTVSPost2010Prop43
 90
        3
102
RTVSPost2010PropOp43
 70
     1
102
RTVSPost2010Prop44ColorIndex
 90
        5
102
RTVSPost2010Prop44ColorRGB
 90
      255
102
RTVSPost2010PropOp44
 70
     1
102
RTVSPost2010Prop45
280
     0
102
RTVSPost2010PropOp45
 70
     1
102
RTVSPost2010Prop46
 90
       50
102
RTVSPost2010PropOp46
 70
     1
102
RTVSPost2010Prop47
 90
       50
102
RTVSPost2010PropOp47
 70
     1
102
RTVSPost2010Prop48
 90
       50
102
RTVSPost2010PropOp48
 70
     1
102
RTVSPost2010Prop49
280
     0
102
RTVSPost2010PropOp49
 70
     1
102
RTVSPost2010Prop50
 90
       50
102
RTVSPost2010PropOp50
 70
     1
102
RTVSPost2010Prop51ColorIndex
 90
      256
102
RTVSPost2010Prop51ColorRGB
 90
-16777216
102
RTVSPost2010PropOp51
 70
     0
102
RTVSPost2010Prop52
140
1.0
102
RTVSPost2010PropOp52
 70
     0
102
RTVSPost2010Prop53
 90
        2
102
RTVSPost2010PropOp53
 70
     1
102
RTVSPost2010Prop54
  1
strokes_ogs.tif
102
RTVSPost2010PropOp54
 70
     1
102
RTVSPost2010Prop55
280
     0
102
RTVSPost2010PropOp55
 70
     1
102
RTVSPost2010Prop56
140
1.0
102
RTVSPost2010PropOp56
 70
     1
102
RTVSPost2010Prop57
140
1.0
102
RTVSPost2010PropOp57
 70
     1
102
RTVSPropertyOp0
 70
     1
102
RTVSPropertyOp1
 70
     1
102
RTVSPropertyOp2
 70
     1
102
RTVSPropertyOp3
 70
     1
102
RTVSPropertyOp4
 70
     1
102
RTVSPropertyOp5
 70
     1
102
RTVSPropertyOp6
 70
     1
102
RTVSPropertyOp7
 70
     1
102
RTVSPropertyOp8
 70
     1
102
RTVSPropertyOp9
 70
     1
102
RTVSPropertyOp10
 70
     1
102
RTVSPropertyOp11
 70
     1
102
RTVSPropertyOp12
 70
     1
102
RTVSPropertyOp13
 70
     1
102
RTVSPropertyOp14
 70
     1
102
RTVSPropertyOp15
 70
     1
102
RTVSPropertyOp16
 70
     1
102
RTVSPropertyOp17
 70
     1
102
RTVSPropertyOp18
 70
     1
102
RTVSPropertyOp19
 70
     1
102
RTVSPropertyOp20
 70
     1
102
RTVSPropertyOp21
 70
     1
102
RTVSPropertyOp22
 70
     1
102
RTVSPropertyOp23
 70
     1
102
RTVSPropertyOp24
 70
     1
102
RTVSPropertyOp25
 70
     1
102
RTVSPropertyOp26
 70
     1
102
RTVSPropertyOp27
 70
     1
102
RTVSPropertyOp28
 70
     1
102
RTVSPropertyOp29
 70
     1
102
RTVSPropertyOp30
 70
     1
102
RTVSPropertyOp31
 70
     1
102
RTVSPropertyOp32
 70
     1
102
RTVSPropertyOp33
 70
     1
102
RTVSPropertyOp34
 70
     1
102
RTVSPropertyOp35
 70
     1
102
RTVSPropertyOp36
 70
     1
102
RTVSPropertyOp37
 70
     1
102
RTVSPropertyOp38
 70
     1
102
RTVSPropertyOp39
 70
     1
102
RTVSPropertyOp40
 70
     1
102
RTVSPropertyOp41
 70
     1
102
RTVSPropertyOp42
 70
     1
102
RTVSPropertyOp43
 70
     1
102
RTVSPropertyOp44
 70
     1
102
RTVSPropertyOp45
 70
     1
102
RTVSPropertyOp46
 70
     1
102
RTVSPropertyOp47
 70
     1
102
RTVSPropertyOp48
 70
     1
102
RTVSPropertyOp49
 70
     1
102
RTVSPropertyOp50
 70
     1
102
RTVSPropertyOp51
 70
     0
102
RTVSPropertyOp52
 70
     0
102
RTVSPropertyOp53
 70
     1
102
RTVSPropertyOp54
 70
     1
102
RTVSPropertyOp55
 70
     1
102
RTVSPropertyOp56
 70
     1
102
RTVSPropertyOp57
 70
     1
102
RTVSPropertyOp58
 70
     1
102
RTVSPropertyOp59
 70
     1
102
RTVSPropertyOp60
 70
     1
102
RTVSPropertyOp61
 70
     1
102
RTVSPropertyOp62
 70
     1
  0
XRECORD
  5
121
102
{ACAD_REACTORS
330
120
102
}
330
120
100
AcDbXrecord
280
     1
102
RTVSPost2010Prop28
280
     0
102
RTVSPost2010PropOp28
 70
     1
102
RTVSPost2010Prop29
280
     1
102
RTVSPost2010PropOp29
 70
     1
102
RTVSPost2010Prop30
280
     1
102
RTVSPost2010PropOp30
 70
     1
102
RTVSPost2010Prop31
280
     0
102
RTVSPost2010PropOp31
 70
     1
102
RTVSPost2010Prop32
280
     0
102
RTVSPost2010PropOp32
 70
     1
102
RTVSPost2010Prop33
280
     0
102
RTVSPost2010PropOp33
 70
     1
102
RTVSPost2010Prop34
280
     0
102
RTVSPost2010PropOp34
 70
     1
102
RTVSPost2010Prop35
280
     0
102
RTVSPost2010PropOp35
 70
     1
102
RTVSPost2010Prop36
280
     0
102
RTVSPost2010PropOp36
 70
     1
102
RTVSPost2010Prop37
 90
       50
102
RTVSPost2010PropOp37
 70
     1
102
RTVSPost2010Prop38
140
0.0
102
RTVSPost2010PropOp38
 70
     1
102
RTVSPost2010Prop39
140
1.0
102
RTVSPost2010PropOp39
 70
     1
102
RTVSPost2010Prop40
 90
        0
102
RTVSPost2010PropOp40
 70
     1
102
RTVSPost2010Prop41ColorIndex
 90
       18
102
RTVSPost2010Prop41ColorRGB
 90
        0
102
RTVSPost2010PropOp41
 70
     1
102
RTVSPost2010Prop42
 90
       50
102
RTVSPost2010PropOp42
 70
     1
102
RTVSPost2010Prop43
 90
        3
102
RTVSPost2010PropOp43
 70
     1
102
RTVSPost2010Prop44ColorIndex
 90
        5
102
RTVSPost2010Prop44ColorRGB
 90
      255
102
RTVSPost2010PropOp44
 70
     1
102
RTVSPost2010Prop45
280
     0
102
RTVSPost2010PropOp45
 70
     1
102
RTVSPost2010Prop46
 90
       50
102
RTVSPost2010PropOp46
 70
     1
102
RTVSPost2010Prop47
 90
       50
102
RTVSPost2010PropOp47
 70
     1
102
RTVSPost2010Prop48
 90
       50
102
RTVSPost2010PropOp48
 70
     1
102
RTVSPost2010Prop49
280
     0
102
RTVSPost2010PropOp49
 70
     1
102
RTVSPost2010Prop50
 90
       50
102
RTVSPost2010PropOp50
 70
     1
102
RTVSPost2010Prop51ColorIndex
 90
      256
102
RTVSPost2010Prop51ColorRGB
 90
-16777216
102
RTVSPost2010PropOp51
 70
     0
102
RTVSPost2010Prop52
140
1.0
102
RTVSPost2010PropOp52
 70
     0
102
RTVSPost2010Prop53
 90
        2
102
RTVSPost2010PropOp53
 70
     1
102
RTVSPost2010Prop54
  1
strokes_ogs.tif
102
RTVSPost2010PropOp54
 70
     1
102
RTVSPost2010Prop55
280
     0
102
RTVSPost2010PropOp55
 70
     1
102
RTVSPost2010Prop56
140
1.0
102
RTVSPost2010PropOp56
 70
     1
102
RTVSPost2010Prop57
140
1.0
102
RTVSPost2010PropOp57
 70
     1
102
RTVSPropertyOp0
 70
     1
102
RTVSPropertyOp1
 70
     1
102
RTVSPropertyOp2
 70
     1
102
RTVSPropertyOp3
 70
     1
102
RTVSPropertyOp4
 70
     1
102
RTVSPropertyOp5
 70
     1
102
RTVSPropertyOp6
 70
     1
102
RTVSPropertyOp7
 70
     1
102
RTVSPropertyOp8
 70
     1
102
RTVSPropertyOp9
 70
     1
102
RTVSPropertyOp10
 70
     1
102
RTVSPropertyOp11
 70
     1
102
RTVSPropertyOp12
 70
     1
102
RTVSPropertyOp13
 70
     1
102
RTVSPropertyOp14
 70
     1
102
RTVSPropertyOp15
 70
     1
102
RTVSPropertyOp16
 70
     1
102
RTVSPropertyOp17
 70
     1
102
RTVSPropertyOp18
 70
     1
102
RTVSPropertyOp19
 70
     1
102
RTVSPropertyOp20
 70
     1
102
RTVSPropertyOp21
 70
     1
102
RTVSPropertyOp22
 70
     1
102
RTVSPropertyOp23
 70
     1
102
RTVSPropertyOp24
 70
     1
102
RTVSPropertyOp25
 70
     1
102
RTVSPropertyOp26
 70
     1
102
RTVSPropertyOp27
 70
     1
102
RTVSPropertyOp28
 70
     1
102
RTVSPropertyOp29
 70
     1
102
RTVSPropertyOp30
 70
     1
102
RTVSPropertyOp31
 70
     1
102
RTVSPropertyOp32
 70
     1
102
RTVSPropertyOp33
 70
     1
102
RTVSPropertyOp34
 70
     1
102
RTVSPropertyOp35
 70
     1
102
RTVSPropertyOp36
 70
     1
102
RTVSPropertyOp37
 70
     1
102
RTVSPropertyOp38
 70
     1
102
RTVSPropertyOp39
 70
     1
102
RTVSPropertyOp40
 70
     1
102
RTVSPropertyOp41
 70
     1
102
RTVSPropertyOp42
 70
     1
102
RTVSPropertyOp43
 70
     1
102
RTVSPropertyOp44
 70
     1
102
RTVSPropertyOp45
 70
     1
102
RTVSPropertyOp46
 70
     1
102
RTVSPropertyOp47
 70
     1
102
RTVSPropertyOp48
 70
     1
102
RTVSPropertyOp49
 70
     1
102
RTVSPropertyOp50
 70
     1
102
RTVSPropertyOp51
 70
     0
102
RTVSPropertyOp52
 70
     0
102
RTVSPropertyOp53
 70
     1
102
RTVSPropertyOp54
 70
     1
102
RTVSPropertyOp55
 70
     1
102
RTVSPropertyOp56
 70
     1
102
RTVSPropertyOp57
 70
     1
102
RTVSPropertyOp58
 70
     1
102
RTVSPropertyOp59
 70
     1
102
RTVSPropertyOp60
 70
     1
102
RTVSPropertyOp61
 70
     1
102
RTVSPropertyOp62
 70
     1
  0
ENDSEC
  0
EOF
