  0
SECTION
  2
HEADER
  9
$ACADVER
  1
AC1009
  9
$INSBASE
 10
0.0
 20
0.0
 30
0.0
  9
$EXTMIN
 10
-43.239045996939353
 20
-126.38871031344929
 30
0.0
  9
$EXTMAX
 10
80.966832819207212
 20
83.7117656388901
 30
0.0
  9
$LIMMIN
 10
0.0
 20
0.0
  9
$LIMMAX
 10
790.0
 20
790.0
  9
$ORTHOMODE
 70
     1
  9
$REGENMODE
 70
     1
  9
$FILLMODE
 70
     1
  9
$QTEXTMODE
 70
     0
  9
$MIRRTEXT
 70
     1
  9
$DRAGMODE
 70
     2
  9
$LTSCALE
 40
4.0
  9
$OSMODE
 70
   167
  9
$ATTMODE
 70
     1
  9
$TEXTSIZE
 40
3.5
  9
$TRACEWID
 40
0.05
  9
$TEXTSTYLE
  7
ISO
  9
$CLAYER
  8
0
  9
$CELTYPE
  6
BYLAYER
  9
$CECOLOR
 62
   256
  9
$DIMSCALE
 40
0.0
  9
$DIMASZ
 40
3.0
  9
$DIMEXO
 40
1.5
  9
$DIMDLI
 40
10.0
  9
$DIMRND
 40
0.0
  9
$DIMDLE
 40
0.0
  9
$DIMEXE
 40
1.5
  9
$DIMTP
 40
0.0
  9
$DIMTM
 40
0.0
  9
$DIMTXT
 40
3.0
  9
$DIMCEN
 40
-5.0
  9
$DIMTSZ
 40
0.0
  9
$DIMTOL
 70
     0
  9
$DIMLIM
 70
     0
  9
$DIMTIH
 70
     0
  9
$DIMTOH
 70
     0
  9
$DIMSE1
 70
     0
  9
$DIMSE2
 70
     0
  9
$DIMTAD
 70
     1
  9
$DIMZIN
 70
     8
  9
$DIMBLK
  1

  9
$DIMASO
 70
     1
  9
$DIMSHO
 70
     1
  9
$DIMPOST
  1

  9
$DIMAPOST
  1

  9
$DIMALT
 70
     0
  9
$DIMALTD
 70
     0
  9
$DIMALTF
 40
25.399999999999999
  9
$DIMLFAC
 40
-1.0
  9
$DIMTOFL
 70
     1
  9
$DIMTVP
 40
0.0
  9
$DIMTIX
 70
     0
  9
$DIMSOXD
 70
     0
  9
$DIMSAH
 70
     0
  9
$DIMBLK1
  1

  9
$DIMBLK2
  1

  9
$DIMSTYLE
  2
MASKIN
  9
$DIMCLRD
 70
   256
  9
$DIMCLRE
 70
   256
  9
$DIMCLRT
 70
     2
  9
$DIMTFAC
 40
1.0
  9
$DIMGAP
 40
1.0
  9
$LUNITS
 70
     2
  9
$LUPREC
 70
     8
  9
$SKETCHINC
 40
0.1
  9
$FILLETRAD
 40
0.0
  9
$AUNITS
 70
     0
  9
$AUPREC
 70
     8
  9
$MENU
  1
ACAD
  9
$ELEVATION
 40
0.0
  9
$PELEVATION
 40
0.0
  9
$THICKNESS
 40
0.0
  9
$LIMCHECK
 70
     0
  9
$BLIPMODE
 70
     0
  9
$CHAMFERA
 40
0.0
  9
$CHAMFERB
 40
0.0
  9
$SKPOLY
 70
     0
  9
$TDCREATE
 40
2454869.6356481831
  9
$TDUPDATE
 40
2455056.3532602079
  9
$TDINDWG
 40
0.011037963
  9
$TDUSRTIMER
 40
0.0110377778
  9
$USRTIMER
 70
     1
  9
$ANGBASE
 50
0.0
  9
$ANGDIR
 70
     0
  9
$PDMODE
 70
     0
  9
$PDSIZE
 40
0.0
  9
$PLINEWID
 40
0.0
  9
$COORDS
 70
     1
  9
$SPLFRAME
 70
     0
  9
$SPLINETYPE
 70
     6
  9
$SPLINESEGS
 70
     8
  9
$ATTDIA
 70
     0
  9
$ATTREQ
 70
     1
  9
$HANDLING
 70
     1
  9
$HANDSEED
  5
1768
  9
$SURFTAB1
 70
     6
  9
$SURFTAB2
 70
     6
  9
$SURFTYPE
 70
     6
  9
$SURFU
 70
     6
  9
$SURFV
 70
     6
  9
$UCSNAME
  2

  9
$UCSORG
 10
0.0
 20
0.0
 30
0.0
  9
$UCSXDIR
 10
1.0
 20
0.0
 30
0.0
  9
$UCSYDIR
 10
0.0
 20
1.0
 30
0.0
  9
$PUCSNAME
  2

  9
$PUCSORG
 10
0.0
 20
0.0
 30
0.0
  9
$PUCSXDIR
 10
1.0
 20
0.0
 30
0.0
  9
$PUCSYDIR
 10
0.0
 20
1.0
 30
0.0
  9
$USERI1
 70
     0
  9
$USERI2
 70
     0
  9
$USERI3
 70
     0
  9
$USERI4
 70
     0
  9
$USERI5
 70
     0
  9
$USERR1
 40
0.0
  9
$USERR2
 40
0.0
  9
$USERR3
 40
0.0
  9
$USERR4
 40
0.0
  9
$USERR5
 40
0.0
  9
$WORLDVIEW
 70
     1
  9
$SHADEDGE
 70
     3
  9
$SHADEDIF
 70
    70
  9
$TILEMODE
 70
     1
  9
$MAXACTVP
 70
    16
  9
$PLIMCHECK
 70
     0
  9
$PEXTMIN
 10
1.0000000000000000E+020
 20
1.0000000000000000E+020
 30
1.0000000000000000E+020
  9
$PEXTMAX
 10
-1.0000000000000000E+020
 20
-1.0000000000000000E+020
 30
-1.0000000000000000E+020
  9
$PLIMMIN
 10
-5.069427490234375
 20
-5.8737497329711914
  9
$PLIMMAX
 10
291.89889526367187
 20
204.0995779037475
  9
$UNITMODE
 70
     0
  9
$VISRETAIN
 70
     1
  9
$PLINEGEN
 70
     0
  9
$PSLTSCALE
 70
     1
  0
ENDSEC
  0
SECTION
  2
TABLES
  0
TABLE
  2
VPORT
 70
     1
  0
VPORT
  2
*ACTIVE
 70
     0
 10
0.0
 20
0.0
 11
1.0
 21
1.0
 12
91.754151372398383
 22
-21.334564600065619
 13
0.0
 23
0.0
 14
1.0
 24
1.0
 15
0.0
 25
0.0
 16
0.0
 26
0.0
 36
1.0
 17
0.0
 27
0.0
 37
0.0
 40
211.8915962308709
 41
2.362776025236593
 42
50.0
 43
0.0
 44
0.0
 50
0.0
 51
0.0
 71
     0
 72
   100
 73
     1
 74
     1
 75
     0
 76
     0
 77
     0
 78
     0
  0
ENDTAB
  0
TABLE
  2
LTYPE
 70
     7
  0
LTYPE
  2
CONTINUOUS
 70
     0
  3
Solid line
 72
    65
 73
     0
 40
0.0
  0
LTYPE
  2
BYGG-01482201$0$NEWDOT
 70
     0
  3
____ . ____ . ____ . ____ . ____ . ____ . ____
 72
    65
 73
     4
 40
2.0
 49
1.0
 49
-0.5
 49
0.0
 49
-0.5
  0
LTYPE
  2
BYGG-014357$0$NEWDOT
 70
     0
  3
____ . ____ . ____ . ____ . ____ . ____ . ____
 72
    65
 73
     4
 40
2.0
 49
1.0
 49
-0.5
 49
0.0
 49
-0.5
  0
LTYPE
  2
BYGG-014357$0$DASHDOT
 70
     0
  3
__ . __ . __ . __ . __ . __ . __ . __ . __ . __
 72
    65
 73
     4
 40
1.0
 49
0.5
 49
-0.25
 49
0.0
 49
-0.25
  0
LTYPE
  2
BYGG-014357$0$DASHED
 70
     0
  3
__ __ __ __ __ __ __ __ __ __ __ __ __ __ __
 72
    65
 73
     2
 40
0.75
 49
0.5
 49
-0.25
  0
LTYPE
  2
BYGG-014292$0$DASHDOT
 70
     0
  3
__ . __ . __ . __ . __ . __ . __ . __ . __ . __
 72
    65
 73
     4
 40
1.0
 49
0.5
 49
-0.25
 49
0.0
 49
-0.25
  0
LTYPE
  2
BYGG-014292$0$NEWDOT
 70
     0
  3
____ . ____ . ____ . ____ . ____ . ____ . ____
 72
    65
 73
     4
 40
2.0
 49
1.0
 49
-0.5
 49
0.0
 49
-0.5
  0
ENDTAB
  0
TABLE
  2
LAYER
 70
    60
  0
LAYER
  2
0
 70
     0
 62
     7
  6
CONTINUOUS
  0
LAYER
  2
SAPA_ARTIKELNR
 70
     0
 62
     4
  6
CONTINUOUS
  0
LAYER
  2
SAPA_LIGHT
 70
     1
 62
     1
  6
CONTINUOUS
  0
LAYER
  2
SAPA_ISOLATOR
 70
     0
 62
     4
  6
CONTINUOUS
  0
LAYER
  2
SAPA_MATT
 70
     0
 62
     1
  6
CONTINUOUS
  0
LAYER
  2
SAPA_GLAS
 70
     0
 62
     4
  6
CONTINUOUS
  0
LAYER
  2
SAPA_FOGBAND
 70
     0
 62
     2
  6
CONTINUOUS
  0
LAYER
  2
SAPA_PROFIL
 70
     0
 62
     7
  6
CONTINUOUS
  0
ENDTAB
  0
TABLE
  2
STYLE
 70
    17
  0
STYLE
  2
STANDARD
 70
     0
 40
0.0
 41
1.0
 50
0.0
 71
     0
 42
0.2
  3
txt
  4

  0
STYLE
  2
ISO
 70
     0
 40
0.0
 41
1.0
 50
0.0
 71
     0
 42
3.5
  3
txt
  4

  0
STYLE
  2
BYGG-021589$0$STANDARD
 70
     0
 40
0.0
 41
1.0
 50
0.0
 71
     0
 42
0.2
  3
txt
  4

  0
STYLE
  2
BYGG-021589$0$ISO
 70
     0
 40
0.0
 41
1.0
 50
0.0
 71
     0
 42
3.5
  3
isocp3.shx
  4

  0
STYLE
  2
BYGG-01482201$0$STANDARD
 70
     0
 40
0.0
 41
1.0
 50
0.0
 71
     0
 42
0.2
  3
txt
  4

  0
STYLE
  2
BYGG-01482201$0$ISO
 70
     0
 40
0.0
 41
1.0
 50
0.0
 71
     0
 42
3.5
  3
isocp3.shx
  4

  0
STYLE
  2
BYGG-021610$0$STANDARD
 70
     0
 40
0.0
 41
1.0
 50
0.0
 71
     0
 42
0.2
  3
txt
  4

  0
STYLE
  2
BYGG-021610$0$ISO
 70
     0
 40
0.0
 41
1.0
 50
0.0
 71
     0
 42
3.5
  3
isocp3.shx
  4

  0
STYLE
  2
BYGG-014357$0$STANDARD
 70
     0
 40
0.0
 41
1.0
 50
0.0
 71
     0
 42
0.2
  3
txt
  4

  0
STYLE
  2
BYGG-014357$0$ISO
 70
     0
 40
0.0
 41
1.0
 50
0.0
 71
     0
 42
3.5
  3
isocp3.shx
  4

  0
STYLE
  2
BYGG-014062$0$STANDARD
 70
     0
 40
0.0
 41
1.0
 50
0.0
 71
     0
 42
0.2
  3
txt
  4

  0
STYLE
  2
BYGG-014062$0$ISO
 70
     0
 40
0.0
 41
1.0
 50
0.0
 71
     0
 42
3.5
  3
isocp3.shx
  4

  0
STYLE
  2
BYGG-022886$0$STANDARD
 70
     0
 40
0.0
 41
1.0
 50
0.0
 71
     0
 42
0.2
  3
txt
  4

  0
STYLE
  2
BYGG-022886$0$ISO
 70
     0
 40
0.0
 41
1.0
 50
0.0
 71
     0
 42
3.5
  3
txt
  4

  0
STYLE
  2
BYGG-021586$0$STANDARD
 70
     0
 40
0.0
 41
1.0
 50
0.0
 71
     0
 42
0.2
  3
TXT.shx
  4

  0
STYLE
  2
BYGG-014292$0$STANDARD
 70
     0
 40
0.0
 41
1.0
 50
0.0
 71
     0
 42
0.2
  3
TXT.shx
  4

  0
STYLE
  2
BYGG-014292$0$ISO
 70
     0
 40
0.0
 41
1.0
 50
0.0
 71
     0
 42
8.75
  3
isocp3.shx
  4

  0
ENDTAB
  0
TABLE
  2
VIEW
 70
     0
  0
ENDTAB
  0
TABLE
  2
UCS
 70
     0
  0
ENDTAB
  0
TABLE
  2
APPID
 70
    15
  0
APPID
  2
ACAD
 70
     0
  0
APPID
  2
ACAD_DSTYLE_DIMTEXT_FILL
 70
     0
  0
APPID
  2
ACAD_DSTYLE_DIMEXT_LENGTH
 70
     0
  0
APPID
  2
ACAD_DSTYLE_DIMEXT_ENABLED
 70
     0
  0
APPID
  2
ACAD_DSTYLE_DIM_LINETYPE
 70
     0
  0
APPID
  2
ACAD_DSTYLE_DIM_EXT1_LINETYPE
 70
     0
  0
APPID
  2
ACAD_DSTYLE_DIM_EXT2_LINETYPE
 70
     0
  0
APPID
  2
ACAD_DSTYLE_DIMJOGGED_JOGA
 70
     0
  0
APPID
  2
ACAD_DSTYLE_DIMARC_LENGTH_
 70
     0
  0
APPID
  2
ACAD_PSEXT
 70
     0
  0
APPID
  2
ACAD_MLEADERVER
 70
     0
  0
APPID
  2
AMG_ARCHIVE11
 70
     0
  0
APPID
  2
ACAD_EXEMPT_FROM_CAD_STANDARDS
 70
     0
  0
APPID
  2
ACADANNOTATIVE
 70
     0
  0
APPID
  2
ACAECLAYERSTANDARD
 70
     0
  0
ENDTAB
  0
TABLE
  2
DIMSTYLE
 70
    18
  0
DIMSTYLE
  2
MASKIN
 70
     0
  3

  4

  5

  6

  7

 40
0.0
 41
3.0
 42
1.5
 43
10.0
 44
1.5
 45
0.0
 46
0.0
 47
0.0
 48
0.0
140
3.0
141
-5.0
142
0.0
143
25.399999999999999
144
-1.0
145
0.0
146
1.0
147
1.0
 71
     0
 72
     0
 73
     0
 74
     0
 75
     0
 76
     0
 77
     1
 78
     8
170
     0
171
     0
172
     1
173
     0
174
     0
175
     0
176
   256
177
   256
178
     2
  0
DIMSTYLE
  2
BYGG-021589$0$MASKIN
 70
     0
  3

  4

  5

  6

  7

 40
0.0
 41
3.0
 42
1.5
 43
10.0
 44
1.5
 45
0.0
 46
0.0
 47
0.0
 48
0.0
140
3.0
141
-5.0
142
0.0
143
25.399999999999999
144
-1.0
145
0.0
146
1.0
147
1.0
 71
     0
 72
     0
 73
     0
 74
     0
 75
     0
 76
     0
 77
     1
 78
     8
170
     0
171
     0
172
     1
173
     0
174
     0
175
     0
176
   256
177
   256
178
   256
  0
DIMSTYLE
  2
BYGG-01482201$0$STANDARD
 70
     0
  3

  4

  5

  6

  7

 40
1.0
 41
0.18
 42
0.0625
 43
0.38
 44
0.18
 45
0.0
 46
0.0
 47
0.0
 48
0.0
140
0.18
141
0.09
142
0.0
143
25.399999999999999
144
1.0
145
0.0
146
1.0
147
0.09
 71
     0
 72
     0
 73
     1
 74
     1
 75
     0
 76
     0
 77
     0
 78
     0
170
     0
171
     2
172
     0
173
     0
174
     0
175
     0
176
     0
177
     0
178
     0
  0
DIMSTYLE
  2
BYGG-01482201$0$MASKIN
 70
     0
  3

  4

  5

  6

  7

 40
0.0
 41
3.0
 42
1.5
 43
10.0
 44
1.5
 45
0.0
 46
0.0
 47
0.0
 48
0.0
140
3.0
141
-5.0
142
0.0
143
25.399999999999999
144
-1.0
145
0.0
146
1.0
147
1.0
 71
     0
 72
     0
 73
     0
 74
     1
 75
     0
 76
     0
 77
     1
 78
     8
170
     0
171
     0
172
     1
173
     0
174
     0
175
     0
176
   256
177
   256
178
     2
  0
DIMSTYLE
  2
BYGG-021610$0$MASKIN
 70
     0
  3

  4

  5

  6

  7

 40
0.0
 41
3.0
 42
1.5
 43
10.0
 44
1.5
 45
0.0
 46
0.0
 47
0.0
 48
0.0
140
3.0
141
-5.0
142
0.0
143
25.399999999999999
144
-1.0
145
0.0
146
1.0
147
1.0
 71
     0
 72
     0
 73
     0
 74
     0
 75
     0
 76
     0
 77
     1
 78
     8
170
     0
171
     0
172
     1
173
     0
174
     0
175
     0
176
   256
177
   256
178
   256
  0
DIMSTYLE
  2
BYGG-014357$0$MASKIN
 70
     0
  3

  4

  5

  6

  7

 40
0.0
 41
3.0
 42
1.5
 43
10.0
 44
1.5
 45
0.0
 46
0.0
 47
0.0
 48
0.0
140
3.0
141
-5.0
142
0.0
143
25.399999999999999
144
-1.0
145
0.0
146
1.0
147
1.0
 71
     0
 72
     0
 73
     0
 74
     0
 75
     0
 76
     0
 77
     1
 78
     8
170
     0
171
     0
172
     1
173
     0
174
     0
175
     0
176
   256
177
   256
178
   256
  0
DIMSTYLE
  2
BYGG-014357$0$MASKIN1
 70
     0
  3

  4

  5

  6

  7

 40
1.0
 41
3.0
 42
1.5
 43
10.0
 44
1.5
 45
0.0
 46
0.0
 47
0.0
 48
0.0
140
3.0
141
-5.0
142
0.0
143
25.399999999999999
144
1.0
145
0.0
146
1.0
147
0.9
 71
     0
 72
     0
 73
     0
 74
     0
 75
     0
 76
     0
 77
     1
 78
     8
170
     0
171
     0
172
     1
173
     0
174
     0
175
     0
176
   256
177
   256
178
   256
  0
DIMSTYLE
  2
BYGG-014357$0$MASKIN2
 70
     0
  3

  4

  5

  6

  7

 40
1.0
 41
3.0
 42
1.5
 43
10.0
 44
1.5
 45
0.0
 46
0.0
 47
0.0
 48
0.0
140
3.0
141
-5.0
142
0.0
143
25.399999999999999
144
1.0
145
0.0
146
1.0
147
0.9
 71
     0
 72
     0
 73
     0
 74
     0
 75
     0
 76
     0
 77
     1
 78
     8
170
     0
171
     0
172
     1
173
     0
174
     0
175
     0
176
   256
177
   256
178
   256
  0
DIMSTYLE
  2
BYGG-014357$0$MASKIN3
 70
     0
  3

  4

  5

  6

  7

 40
1.0
 41
3.0
 42
1.5
 43
10.0
 44
1.5
 45
0.0
 46
0.0
 47
0.0
 48
0.0
140
3.0
141
-5.0
142
0.0
143
25.399999999999999
144
1.0
145
0.0
146
1.0
147
0.9
 71
     0
 72
     0
 73
     0
 74
     0
 75
     0
 76
     0
 77
     1
 78
     8
170
     0
171
     0
172
     1
173
     0
174
     0
175
     0
176
   256
177
   256
178
   256
  0
DIMSTYLE
  2
BYGG-014357$0$DMST_1
 70
     0
  3

  4

  5

  6

  7

 40
1.0
 41
0.7000000000000002
 42
0.0
 43
7.0
 44
0.4
 45
0.0
 46
0.0
 47
0.15
 48
0.15
140
0.7000000000000002
141
0.0
142
0.0
143
25.399999999999999
144
1.0
145
0.0
146
0.7
147
0.09
 71
     1
 72
     0
 73
     0
 74
     0
 75
     0
 76
     0
 77
     1
 78
     9
170
     0
171
     2
172
     0
173
     0
174
     0
175
     0
176
     1
177
     1
178
     2
  0
DIMSTYLE
  2
BYGG-014062$0$MASKIN
 70
     0
  3

  4

  5

  6

  7

 40
0.0
 41
3.0
 42
1.5
 43
10.0
 44
1.5
 45
0.0
 46
0.0
 47
0.0
 48
0.0
140
3.0
141
-5.0
142
0.0
143
25.399999999999999
144
-1.0
145
0.0
146
1.0
147
1.0
 71
     0
 72
     0
 73
     0
 74
     0
 75
     0
 76
     0
 77
     1
 78
     8
170
     0
171
     0
172
     1
173
     0
174
     0
175
     0
176
   256
177
   256
178
   256
  0
DIMSTYLE
  2
BYGG-014062$0$STANDARD
 70
     0
  3

  4

  5

  6

  7

 40
1.0
 41
0.18
 42
0.0625
 43
0.38
 44
0.18
 45
0.0
 46
0.0
 47
0.0
 48
0.0
140
0.18
141
0.09
142
0.0
143
25.399999999999999
144
1.0
145
0.0
146
1.0
147
0.09
 71
     0
 72
     0
 73
     1
 74
     1
 75
     0
 76
     0
 77
     0
 78
     0
170
     0
171
     2
172
     0
173
     0
174
     0
175
     0
176
     0
177
     0
178
     0
  0
DIMSTYLE
  2
BYGG-022886$0$STANDARD
 70
     0
  3

  4

  5

  6

  7

 40
1.0
 41
0.18
 42
0.0625
 43
0.38
 44
0.18
 45
0.0
 46
0.0
 47
0.0
 48
0.0
140
0.18
141
0.09
142
0.0
143
25.399999999999999
144
1.0
145
0.0
146
1.0
147
0.09
 71
     0
 72
     0
 73
     1
 74
     1
 75
     0
 76
     0
 77
     0
 78
     0
170
     0
171
     2
172
     0
173
     0
174
     0
175
     0
176
     0
177
     0
178
     0
  0
DIMSTYLE
  2
BYGG-022886$0$MASKIN
 70
     0
  3

  4

  5

  6

  7

 40
0.0
 41
3.0
 42
1.5
 43
10.0
 44
1.5
 45
0.0
 46
0.0
 47
0.0
 48
0.0
140
3.0
141
-5.0
142
0.0
143
25.399999999999999
144
-1.0
145
0.0
146
1.0
147
1.0
 71
     0
 72
     0
 73
     0
 74
     0
 75
     0
 76
     0
 77
     1
 78
     8
170
     0
171
     0
172
     1
173
     0
174
     0
175
     0
176
   256
177
   256
178
     2
  0
DIMSTYLE
  2
BYGG-021586$0$STANDARD
 70
     0
  3

  4

  5

  6

  7

 40
1.0
 41
0.18
 42
0.0625
 43
0.38
 44
0.18
 45
0.0
 46
0.0
 47
0.0
 48
0.0
140
0.18
141
0.09
142
0.0
143
25.399999999999999
144
1.0
145
0.0
146
1.0
147
0.09
 71
     0
 72
     0
 73
     1
 74
     1
 75
     0
 76
     0
 77
     0
 78
     0
170
     0
171
     2
172
     0
173
     0
174
     0
175
     0
176
     0
177
     0
178
     0
  0
DIMSTYLE
  2
BYGG-014292$0$STANDARD
 70
     0
  3

  4

  5

  6

  7

 40
1.0
 41
0.18
 42
0.0625
 43
0.38
 44
0.18
 45
0.0
 46
0.0
 47
0.0
 48
0.0
140
0.18
141
0.09
142
0.0
143
25.399999999999999
144
1.0
145
0.0
146
1.0
147
0.09
 71
     0
 72
     0
 73
     1
 74
     1
 75
     0
 76
     0
 77
     0
 78
     0
170
     0
171
     2
172
     0
173
     0
174
     0
175
     0
176
     0
177
     0
178
     0
  0
DIMSTYLE
  2
BYGG-014292$0$MASKINM
 70
     0
  3

  4

  5

  6

  7

 40
2.0
 41
3.5
 42
1.5
 43
10.0
 44
1.5
 45
0.0
 46
0.0
 47
0.0
 48
0.0
140
3.5
141
-5.0
142
0.0
143
25.399999999999999
144
1.0
145
0.0
146
1.0
147
0.09
 71
     0
 72
     0
 73
     0
 74
     0
 75
     0
 76
     0
 77
     1
 78
     8
170
     0
171
     0
172
     1
173
     0
174
     0
175
     0
176
     1
177
     1
178
     1
  0
DIMSTYLE
  2
BYGG-014292$0$MASKIN
 70
     0
  3

  4

  5

  6

  7

 40
0.0
 41
3.0
 42
1.5
 43
10.0
 44
1.5
 45
0.0
 46
0.0
 47
0.0
 48
0.0
140
3.0
141
-5.0
142
0.0
143
25.399999999999999
144
-1.0
145
0.0
146
1.0
147
1.0
 71
     0
 72
     0
 73
     0
 74
     1
 75
     0
 76
     0
 77
     1
 78
     8
170
     0
171
     0
172
     1
173
     0
174
     0
175
     0
176
   256
177
   256
178
     2
  0
ENDTAB
  0
ENDSEC
  0
SECTION
  2
BLOCKS
  0
BLOCK
  8
0
  2
$MODEL_SPACE
 70
     0
 10
0.0
 20
0.0
 30
0.0
  3
$MODEL_SPACE
  1

  0
ENDBLK
  5
37
  8
0
  0
BLOCK
 67
     1
  8
0
  2
$PAPER_SPACE
 70
     0
 10
0.0
 20
0.0
 30
0.0
  3
$PAPER_SPACE
  1

  0
ENDBLK
  5
35
 67
     1
  8
0
  0
BLOCK
  8
0
  2
*U28
 70
     1
 10
0.0
 20
0.0
 30
0.0
  3
*U28
  1

  0
TEXT
  5
C76
  8
SAPA_ARTIKELNR
 10
-6.4303857324235638
 20
66.451161059970673
 30
0.0
 40
3.5
  1
68654
  7
ISO
  0
ENDBLK
  5
C78
  8
0
  0
BLOCK
  8
0
  2
*U29
 70
     1
 10
0.0
 20
0.0
 30
0.0
  3
*U29
  1

  0
TEXT
  5
C7A
  8
SAPA_ARTIKELNR
 10
-6.4303857324235638
 20
-92.829388404107021
 30
0.0
 40
3.5
  1
42657
  7
ISO
  0
ENDBLK
  5
C7C
  8
0
  0
BLOCK
  8
0
  2
*U30
 70
     1
 10
0.0
 20
0.0
 30
0.0
  3
*U30
  1

  0
TEXT
  5
C7E
  8
SAPA_ARTIKELNR
 10
-6.4303857324235638
 20
-111.8951902723834
 30
0.0
 40
3.5
  1
42287
  7
ISO
  0
ENDBLK
  5
C80
  8
0
  0
BLOCK
  8
0
  2
*U31
 70
     1
 10
0.0
 20
0.0
 30
0.0
  3
*U31
  1

  0
TEXT
  5
C99
  8
0
 62
     2
 10
-2.1000000000006098
 20
-123.88871031344929
 30
0.0
 40
3.0
  1
50
  7
ISO
  0
ENDBLK
  5
C9B
  8
0
  0
BLOCK
  8
0
  2
*U32
 70
     1
 10
0.0
 20
0.0
 30
0.0
  3
*U32
  1

  0
TEXT
  5
C9D
  8
0
 62
     2
 10
65.366832819207218
 20
-72.202354597655457
 30
0.0
 40
3.0
  1
-3%%D - 5%%D
  7
ISO
  0
ENDBLK
  5
C9F
  8
0
  0
BLOCK
  8
0
  2
*U33
 70
     1
 10
0.0
 20
0.0
 30
0.0
  3
*U33
  1

  0
TEXT
  5
DAD
  8
0
 62
     2
 10
519.44555345861374
 20
444.85263631951398
 30
0.0
 40
6.0
  1
100
 50
90.0
  7
BYGG-01482201$0$ISO
  0
ENDBLK
  5
DAF
  8
0
  0
BLOCK
  8
0
  2
*U34
 70
     1
 10
0.0
 20
0.0
 30
0.0
  3
*U34
  1

  0
TEXT
  5
DB1
  8
0
 62
     2
 10
551.65528576274187
 20
514.06440195840526
 30
0.0
 40
6.0
  1
50
  7
BYGG-01482201$0$ISO
  0
ENDBLK
  5
DB3
  8
0
  0
BLOCK
  8
0
  2
*U35
 70
     1
 10
0.0
 20
0.0
 30
0.0
  3
*U35
  1

  0
TEXT
  5
EA3
  8
0
 10
641.15247639990275
 20
316.63306531357932
 30
0.0
 40
3.0
  1
47.6
  7
BYGG-014357$0$ISO
  0
ENDBLK
  5
EA5
  8
0
  0
BLOCK
  8
0
  2
*U36
 70
     1
 10
0.0
 20
0.0
 30
0.0
  3
*U36
  1

  0
SOLID
  5
F76
  8
0
  6
CONTINUOUS
 10
9.4375787696808402
 20
24.826120052127042
 30
0.0
 11
9.2573012059076412
 21
24.75144664022061
 31
0.0
 12
9.6178563334540392
 22
24.75144664022061
 32
0.0
 13
9.6178563334540392
 23
24.75144664022061
 33
0.0
210
0.0
220
0.0
230
1.0
  0
SOLID
  5
F77
  8
0
  6
CONTINUOUS
 10
9.2573012059076412
 20
24.75144664022061
 30
0.0
 11
9.1826277940012009
 21
24.571169076447411
 31
0.0
 12
9.6925297453604795
 22
24.571169076447411
 32
0.0
 13
9.6925297453604795
 23
24.571169076447411
 33
0.0
210
0.0
220
0.0
230
1.0
  0
SOLID
  5
F78
  8
0
  6
CONTINUOUS
 10
-9.2573012059076412
 20
24.75144664022061
 30
0.0
 11
-9.6178563334540392
 21
24.75144664022061
 31
0.0
 12
-9.6925297453604795
 22
24.571169076447411
 32
0.0
 13
-9.6925297453604795
 23
24.571169076447411
 33
0.0
210
0.0
220
0.0
230
-1.0
  0
SOLID
  5
F79
  8
0
  6
CONTINUOUS
 10
9.1826277940012009
 20
24.571169076447411
 30
0.0
 11
9.2573012059076412
 21
24.390891512674209
 31
0.0
 12
9.6178563334540392
 22
24.390891512674209
 32
0.0
 13
9.6178563334540392
 23
24.390891512674209
 33
0.0
210
0.0
220
0.0
230
1.0
  0
SOLID
  5
F7A
  8
0
  6
CONTINUOUS
 10
-9.1826277940012009
 20
24.571169076447411
 30
0.0
 11
-9.6925297453604795
 21
24.571169076447411
 31
0.0
 12
-9.6178563334540392
 22
24.390891512674209
 32
0.0
 13
-9.6178563334540392
 23
24.390891512674209
 33
0.0
210
0.0
220
0.0
230
-1.0
  0
SOLID
  5
F7B
  8
0
  6
CONTINUOUS
 10
-9.2573012059076412
 20
24.390891512674209
 30
0.0
 11
-9.6178563334540392
 21
24.390891512674209
 31
0.0
 12
-9.4375787696808402
 22
24.31621810076777
 32
0.0
 13
-9.4375787696808402
 23
24.31621810076777
 33
0.0
210
0.0
220
0.0
230
-1.0
  0
LINE
  5
F7C
  8
0
  6
CONTINUOUS
 10
9.4375787696808402
 20
24.826120052127042
 30
0.0
 11
9.2573012059076412
 21
24.75144664022061
 31
0.0
  0
LINE
  5
F7D
  8
0
  6
CONTINUOUS
 10
9.6178563334540392
 20
24.75144664022061
 30
0.0
 11
9.4375787696808402
 21
24.826120052127042
 31
0.0
  0
LINE
  5
F7E
  8
0
  6
CONTINUOUS
 10
9.2573012059076412
 20
24.75144664022061
 30
0.0
 11
9.1826277940012009
 21
24.571169076447411
 31
0.0
  0
LINE
  5
F7F
  8
0
  6
CONTINUOUS
 10
9.6178563334540392
 20
24.75144664022061
 30
0.0
 11
9.6925297453604795
 21
24.571169076447411
 31
0.0
  0
LINE
  5
F80
  8
0
  6
CONTINUOUS
 10
9.1826277940012009
 20
24.571169076447411
 30
0.0
 11
9.2573012059076412
 21
24.390891512674209
 31
0.0
  0
LINE
  5
F81
  8
0
  6
CONTINUOUS
 10
9.6925297453604795
 20
24.571169076447411
 30
0.0
 11
9.6178563334540392
 21
24.390891512674209
 31
0.0
  0
LINE
  5
F82
  8
0
  6
CONTINUOUS
 10
9.6178563334540392
 20
24.390891512674209
 30
0.0
 11
9.4375787696808402
 21
24.31621810076777
 31
0.0
  0
LINE
  5
F83
  8
0
  6
CONTINUOUS
 10
9.4375787696808402
 20
24.31621810076777
 30
0.0
 11
9.2573012059076412
 21
24.390891512674209
 31
0.0
  0
ENDBLK
  5
F85
  8
0
  0
BLOCK
  8
0
  2
*U37
 70
     1
 10
0.0
 20
0.0
 30
0.0
  3
*U37
  1

  0
TEXT
  5
FB8
  8
0
 62
     2
 10
2.0539613285034188
 20
22.016416973523722
 30
0.0
 40
3.0
  1
28.5
 50
90.0
  7
BYGG-014292$0$ISO
  0
ENDBLK
  5
FBA
  8
0
  0
BLOCK
  8
0
  2
*U38
 70
     1
 10
0.0
 20
0.0
 30
0.0
  3
*U38
  1

  0
TEXT
  5
FBC
  8
0
 62
     2
 10
34.681394406916482
 20
-0.7911300387418372
 30
0.0
 40
3.0
  1
50
  7
BYGG-014292$0$ISO
  0
ENDBLK
  5
FBE
  8
0
  0
BLOCK
  8
0
  2
*U39
 70
     1
 10
0.0
 20
0.0
 30
0.0
  3
*U39
  1

  0
TEXT
  5
FC1
  8
0
 62
     2
 10
-36.412094508852661
 20
8.7976377952744524
 30
0.0
 40
6.0
  1
100
 50
90.0
  7
BYGG-01482201$0$ISO
  0
ENDBLK
  5
FC3
  8
0
  0
BLOCK
  8
0
  2
*U40
 70
     1
 10
0.0
 20
0.0
 30
0.0
  3
*U40
  1

  0
TEXT
  5
FC5
  8
0
 62
     2
 10
-4.2023622047246922
 20
78.009403434165677
 30
0.0
 40
6.0
  1
50
  7
BYGG-01482201$0$ISO
  0
ENDBLK
  5
FC7
  8
0
  0
BLOCK
  8
0
  2
*U41
 70
     1
 10
0.0
 20
0.0
 30
0.0
  3
*U41
  1

  0
TEXT
  5
FC9
  8
0
 10
-3.8244094488188982
 20
-95.896778417594376
 30
0.0
 40
3.0
  1
47.6
  7
BYGG-014357$0$ISO
  0
ENDBLK
  5
FCB
  8
0
  0
BLOCK
  8
0
  2
*U42
 70
     1
 10
0.0
 20
0.0
 30
0.0
  3
*U42
  1

  0
TEXT
  5
FCD
  8
0
 62
     2
 10
-34.728614180775878
 20
-95.440638141859338
 30
0.0
 40
3.0
  1
28.5
 50
90.0
  7
BYGG-014292$0$ISO
  0
ENDBLK
  5
FCF
  8
0
  0
BLOCK
  8
0
  2
*U43
 70
     1
 10
0.0
 20
0.0
 30
0.0
  3
*U43
  1

  0
TEXT
  5
12F3
  8
0
 62
     2
 10
-2.1011811023628151
 20
-118.2481851541249
 30
0.0
 40
3.0
  1
50
  7
BYGG-014292$0$ISO
  0
ENDBLK
  5
12F5
  8
0
  0
BLOCK
  8
0
  2
*U44
 70
     1
 10
0.0
 20
0.0
 30
0.0
  3
*U44
  1

  0
SOLID
  5
1399
  8
SAPA_FOGBAND
  6
CONTINUOUS
 10
-18.629356795612811
 20
-74.773515879681014
 30
0.0
 11
-18.809634359385999
 21
-74.848189291587445
 31
0.0
 12
-18.449079231839612
 22
-74.848189291587445
 32
0.0
 13
-18.449079231839612
 23
-74.848189291587445
 33
0.0
210
0.0
220
0.0
230
1.0
  0
SOLID
  5
139A
  8
SAPA_FOGBAND
  6
CONTINUOUS
 10
-18.809634359385999
 20
-74.848189291587445
 30
0.0
 11
-18.884307771292448
 21
-75.028466855360648
 31
0.0
 12
-18.374405819933159
 22
-75.028466855360648
 32
0.0
 13
-18.374405819933159
 23
-75.028466855360648
 33
0.0
210
0.0
220
0.0
230
1.0
  0
SOLID
  5
139B
  8
SAPA_FOGBAND
  6
CONTINUOUS
 10
18.809634359385999
 20
-74.848189291587445
 30
0.0
 11
18.449079231839612
 21
-74.848189291587445
 31
0.0
 12
18.374405819933159
 22
-75.028466855360648
 32
0.0
 13
18.374405819933159
 23
-75.028466855360648
 33
0.0
210
0.0
220
0.0
230
-1.0
  0
SOLID
  5
139C
  8
SAPA_FOGBAND
  6
CONTINUOUS
 10
-18.884307771292448
 20
-75.028466855360648
 30
0.0
 11
-18.809634359385999
 21
-75.208744419133851
 31
0.0
 12
-18.449079231839612
 22
-75.208744419133851
 32
0.0
 13
-18.449079231839612
 23
-75.208744419133851
 33
0.0
210
0.0
220
0.0
230
1.0
  0
SOLID
  5
139D
  8
SAPA_FOGBAND
  6
CONTINUOUS
 10
18.884307771292448
 20
-75.028466855360648
 30
0.0
 11
18.374405819933159
 21
-75.028466855360648
 31
0.0
 12
18.449079231839612
 22
-75.208744419133851
 32
0.0
 13
18.449079231839612
 23
-75.208744419133851
 33
0.0
210
0.0
220
0.0
230
-1.0
  0
SOLID
  5
139E
  8
SAPA_FOGBAND
  6
CONTINUOUS
 10
18.809634359385999
 20
-75.208744419133851
 30
0.0
 11
18.449079231839612
 21
-75.208744419133851
 31
0.0
 12
18.629356795612811
 22
-75.283417831040282
 32
0.0
 13
18.629356795612811
 23
-75.283417831040282
 33
0.0
210
0.0
220
0.0
230
-1.0
  0
LINE
  5
139F
  8
SAPA_FOGBAND
  6
CONTINUOUS
 10
-18.629356795612811
 20
-74.773515879681014
 30
0.0
 11
-18.809634359385999
 21
-74.848189291587445
 31
0.0
  0
LINE
  5
13A0
  8
SAPA_FOGBAND
  6
CONTINUOUS
 10
-18.449079231839612
 20
-74.848189291587445
 30
0.0
 11
-18.629356795612811
 21
-74.773515879681014
 31
0.0
  0
LINE
  5
13A1
  8
SAPA_FOGBAND
  6
CONTINUOUS
 10
-18.809634359385999
 20
-74.848189291587445
 30
0.0
 11
-18.884307771292448
 21
-75.028466855360648
 31
0.0
  0
LINE
  5
13A2
  8
SAPA_FOGBAND
  6
CONTINUOUS
 10
-18.449079231839612
 20
-74.848189291587445
 30
0.0
 11
-18.374405819933159
 21
-75.028466855360648
 31
0.0
  0
LINE
  5
13A3
  8
SAPA_FOGBAND
  6
CONTINUOUS
 10
-18.884307771292448
 20
-75.028466855360648
 30
0.0
 11
-18.809634359385999
 21
-75.208744419133851
 31
0.0
  0
LINE
  5
13A4
  8
SAPA_FOGBAND
  6
CONTINUOUS
 10
-18.374405819933159
 20
-75.028466855360648
 30
0.0
 11
-18.449079231839612
 21
-75.208744419133851
 31
0.0
  0
LINE
  5
13A5
  8
SAPA_FOGBAND
  6
CONTINUOUS
 10
-18.449079231839612
 20
-75.208744419133851
 30
0.0
 11
-18.629356795612811
 21
-75.283417831040282
 31
0.0
  0
LINE
  5
13A6
  8
SAPA_FOGBAND
  6
CONTINUOUS
 10
-18.629356795612811
 20
-75.283417831040282
 30
0.0
 11
-18.809634359385999
 21
-75.208744419133851
 31
0.0
  0
ENDBLK
  5
13A8
  8
0
  0
BLOCK
  8
0
  2
*U45
 70
     1
 10
0.0
 20
0.0
 30
0.0
  3
*U45
  1

  0
SOLID
  5
1414
  8
SAPA_FOGBAND
  6
CONTINUOUS
 10
18.62328954940449
 20
-74.773588083150315
 30
0.0
 11
18.594369982301401
 21
-74.777045840709476
 31
0.0
 12
18.671635317249361
 22
-74.777045840709476
 32
0.0
 13
18.671635317249361
 23
-74.777045840709476
 33
0.0
210
0.0
220
0.0
230
1.0
  0
SOLID
  5
1415
  8
SAPA_FOGBAND
  6
CONTINUOUS
 10
18.594369982301401
 20
-74.777045840709476
 30
0.0
 11
18.575163067645651
 21
-74.779342308498997
 31
0.0
 12
18.680205851717801
 22
-74.779342308498997
 32
0.0
 13
18.680205851717801
 23
-74.779342308498997
 33
0.0
210
0.0
220
0.0
230
1.0
  0
SOLID
  5
1416
  8
SAPA_FOGBAND
  6
CONTINUOUS
 10
-18.594369982301401
 20
-74.777045840709476
 30
0.0
 11
-18.671635317249361
 21
-74.777045840709476
 31
0.0
 12
-18.680205851717801
 22
-74.779342308498997
 32
0.0
 13
-18.680205851717801
 23
-74.779342308498997
 33
0.0
210
0.0
220
0.0
230
-1.0
  0
SOLID
  5
1417
  8
SAPA_FOGBAND
  6
CONTINUOUS
 10
18.575163067645651
 20
-74.779342308498997
 30
0.0
 11
18.54310359385018
 21
-74.789590608809192
 31
0.0
 12
18.718453029166682
 22
-74.789590608809192
 32
0.0
 13
18.718453029166682
 23
-74.789590608809192
 33
0.0
210
0.0
220
0.0
230
1.0
  0
SOLID
  5
1418
  8
SAPA_FOGBAND
  6
CONTINUOUS
 10
-18.575163067645651
 20
-74.779342308498997
 30
0.0
 11
-18.680205851717801
 21
-74.779342308498997
 31
0.0
 12
-18.718453029166682
 22
-74.789590608809192
 32
0.0
 13
-18.718453029166682
 23
-74.789590608809192
 33
0.0
210
0.0
220
0.0
230
-1.0
  0
SOLID
  5
1419
  8
SAPA_FOGBAND
  6
CONTINUOUS
 10
18.54310359385018
 20
-74.789590608809192
 30
0.0
 11
18.52899528841591
 21
-74.794100544058935
 31
0.0
 12
18.72773712498724
 22
-74.794100544058935
 32
0.0
 13
18.72773712498724
 23
-74.794100544058935
 33
0.0
210
0.0
220
0.0
230
1.0
  0
SOLID
  5
141A
  8
SAPA_FOGBAND
  6
CONTINUOUS
 10
-18.54310359385018
 20
-74.789590608809192
 30
0.0
 11
-18.718453029166682
 21
-74.789590608809192
 31
0.0
 12
-18.72773712498724
 22
-74.794100544058935
 32
0.0
 13
-18.72773712498724
 23
-74.794100544058935
 33
0.0
210
0.0
220
0.0
230
-1.0
  0
SOLID
  5
141B
  8
SAPA_FOGBAND
  6
CONTINUOUS
 10
18.52899528841591
 20
-74.794100544058935
 30
0.0
 11
18.498469314594882
 21
-74.810768986845275
 31
0.0
 12
18.76205057106538
 22
-74.810768986845275
 32
0.0
 13
18.76205057106538
 23
-74.810768986845275
 33
0.0
210
0.0
220
0.0
230
1.0
  0
SOLID
  5
141C
  8
SAPA_FOGBAND
  6
CONTINUOUS
 10
-18.52899528841591
 20
-74.794100544058935
 30
0.0
 11
-18.72773712498724
 21
-74.794100544058935
 31
0.0
 12
-18.76205057106538
 22
-74.810768986845275
 32
0.0
 13
-18.76205057106538
 23
-74.810768986845275
 33
0.0
210
0.0
220
0.0
230
-1.0
  0
SOLID
  5
141D
  8
SAPA_FOGBAND
  6
CONTINUOUS
 10
18.498469314594882
 20
-74.810768986845275
 30
0.0
 11
18.486454835545629
 21
-74.817329388744795
 31
0.0
 12
18.77081424201641
 22
-74.817329388744795
 32
0.0
 13
18.77081424201641
 23
-74.817329388744795
 33
0.0
210
0.0
220
0.0
230
1.0
  0
SOLID
  5
141E
  8
SAPA_FOGBAND
  6
CONTINUOUS
 10
-18.498469314594882
 20
-74.810768986845275
 30
0.0
 11
-18.76205057106538
 21
-74.810768986845275
 31
0.0
 12
-18.77081424201641
 22
-74.817329388744795
 32
0.0
 13
-18.77081424201641
 23
-74.817329388744795
 33
0.0
210
0.0
220
0.0
230
-1.0
  0
SOLID
  5
141F
  8
SAPA_FOGBAND
  6
CONTINUOUS
 10
18.486454835545629
 20
-74.817329388744795
 30
0.0
 11
18.45922100973198
 21
-74.839815533055756
 31
0.0
 12
18.800852214188961
 22
-74.839815533055756
 32
0.0
 13
18.800852214188961
 23
-74.839815533055756
 33
0.0
210
0.0
220
0.0
230
1.0
  0
SOLID
  5
1420
  8
SAPA_FOGBAND
  6
CONTINUOUS
 10
-18.486454835545629
 20
-74.817329388744795
 30
0.0
 11
-18.77081424201641
 21
-74.817329388744795
 31
0.0
 12
-18.800852214188961
 22
-74.839815533055756
 32
0.0
 13
-18.800852214188961
 23
-74.839815533055756
 33
0.0
210
0.0
220
0.0
230
-1.0
  0
SOLID
  5
1421
  8
SAPA_FOGBAND
  6
CONTINUOUS
 10
18.45922100973198
 20
-74.839815533055756
 30
0.0
 11
18.449079231839601
 21
-74.848189291587445
 31
0.0
 12
18.80846446522915
 22
-74.848189291587445
 32
0.0
 13
18.80846446522915
 23
-74.848189291587445
 33
0.0
  0
SOLID
  5
1422
  8
SAPA_FOGBAND
  6
CONTINUOUS
 10
-18.45922100973198
 20
-74.839815533055756
 30
0.0
 11
-18.800852214188961
 21
-74.839815533055756
 31
0.0
 12
-18.80846446522915
 22
-74.848189291587445
 32
0.0
 13
-18.80846446522915
 23
-74.848189291587445
 33
0.0
210
0.0
220
0.0
230
-1.0
  0
SOLID
  5
1423
  8
SAPA_FOGBAND
  6
CONTINUOUS
 10
18.449079231839601
 20
-74.848189291587445
 30
0.0
 11
18.426380632663129
 21
-74.875680429580569
 31
0.0
 12
18.833455566058259
 22
-74.875680429580569
 32
0.0
 13
18.833455566058259
 23
-74.875680429580569
 33
0.0
  0
SOLID
  5
1424
  8
SAPA_FOGBAND
  6
CONTINUOUS
 10
-18.449079231839601
 20
-74.848189291587445
 30
0.0
 11
-18.80846446522915
 21
-74.848189291587445
 31
0.0
 12
-18.833455566058259
 22
-74.875680429580569
 32
0.0
 13
-18.833455566058259
 23
-74.875680429580569
 33
0.0
210
0.0
220
0.0
230
-1.0
  0
SOLID
  5
1425
  8
SAPA_FOGBAND
  6
CONTINUOUS
 10
18.426380632663129
 20
-74.875680429580569
 30
0.0
 11
18.418219328996951
 21
-74.88556489529347
 31
0.0
 12
18.839480462318019
 22
-74.88556489529347
 32
0.0
 13
18.839480462318019
 23
-74.88556489529347
 33
0.0
210
0.0
220
0.0
230
1.0
  0
SOLID
  5
1426
  8
SAPA_FOGBAND
  6
CONTINUOUS
 10
-18.426380632663129
 20
-74.875680429580569
 30
0.0
 11
-18.833455566058259
 21
-74.875680429580569
 31
0.0
 12
-18.839480462318019
 22
-74.88556489529347
 32
0.0
 13
-18.839480462318019
 23
-74.88556489529347
 33
0.0
210
0.0
220
0.0
230
-1.0
  0
SOLID
  5
1427
  8
SAPA_FOGBAND
  6
CONTINUOUS
 10
18.418219328996951
 20
-74.88556489529347
 30
0.0
 11
18.401017646018548
 21
-74.917067425614221
 31
0.0
 12
18.858682256589489
 22
-74.917067425614221
 32
0.0
 13
18.858682256589489
 23
-74.917067425614221
 33
0.0
210
0.0
220
0.0
230
1.0
  0
SOLID
  5
1428
  8
SAPA_FOGBAND
  6
CONTINUOUS
 10
-18.418219328996951
 20
-74.88556489529347
 30
0.0
 11
-18.839480462318019
 21
-74.88556489529347
 31
0.0
 12
-18.858682256589489
 22
-74.917067425614221
 32
0.0
 13
-18.858682256589489
 23
-74.917067425614221
 33
0.0
210
0.0
220
0.0
230
-1.0
  0
SOLID
  5
1429
  8
SAPA_FOGBAND
  6
CONTINUOUS
 10
18.401017646018548
 20
-74.917067425614221
 30
0.0
 11
18.394990484311101
 21
-74.928105348163754
 31
0.0
 12
18.86279918884885
 22
-74.928105348163754
 32
0.0
 13
18.86279918884885
 23
-74.928105348163754
 33
0.0
  0
SOLID
  5
142A
  8
SAPA_FOGBAND
  6
CONTINUOUS
 10
-18.401017646018548
 20
-74.917067425614221
 30
0.0
 11
-18.858682256589489
 21
-74.917067425614221
 31
0.0
 12
-18.86279918884885
 22
-74.928105348163754
 32
0.0
 13
-18.86279918884885
 23
-74.928105348163754
 33
0.0
210
0.0
220
0.0
230
-1.0
  0
SOLID
  5
142B
  8
SAPA_FOGBAND
  6
CONTINUOUS
 10
18.394990484311101
 20
-74.928105348163754
 30
0.0
 11
18.384001882288171
 21
-74.962480687287297
 31
0.0
 12
18.875620527459361
 22
-74.962480687287297
 32
0.0
 13
18.875620527459361
 23
-74.962480687287297
 33
0.0
  0
SOLID
  5
142C
  8
SAPA_FOGBAND
  6
CONTINUOUS
 10
-18.394990484311101
 20
-74.928105348163754
 30
0.0
 11
-18.86279918884885
 21
-74.928105348163754
 31
0.0
 12
-18.875620527459361
 22
-74.962480687287297
 32
0.0
 13
-18.875620527459361
 23
-74.962480687287297
 33
0.0
210
0.0
220
0.0
230
-1.0
  0
SOLID
  5
142D
  8
SAPA_FOGBAND
  6
CONTINUOUS
 10
18.384001882288171
 20
-74.962480687287297
 30
0.0
 11
18.38023224875116
 21
-74.974273127393488
 31
0.0
 12
18.877603523729061
 22
-74.974273127393488
 32
0.0
 13
18.877603523729061
 23
-74.974273127393488
 33
0.0
210
0.0
220
0.0
230
1.0
  0
SOLID
  5
142E
  8
SAPA_FOGBAND
  6
CONTINUOUS
 10
-18.384001882288171
 20
-74.962480687287297
 30
0.0
 11
-18.875620527459361
 21
-74.962480687287297
 31
0.0
 12
-18.877603523729061
 22
-74.974273127393488
 32
0.0
 13
-18.877603523729061
 23
-74.974273127393488
 33
0.0
210
0.0
220
0.0
230
-1.0
  0
SOLID
  5
142F
  8
SAPA_FOGBAND
  6
CONTINUOUS
 10
18.38023224875116
 20
-74.974273127393488
 30
0.0
 11
18.375927236262321
 21
-75.010278860999819
 31
0.0
 12
18.883658185426409
 22
-75.010278860999819
 32
0.0
 13
18.883658185426409
 23
-75.010278860999819
 33
0.0
210
0.0
220
0.0
230
1.0
  0
SOLID
  5
1430
  8
SAPA_FOGBAND
  6
CONTINUOUS
 10
-18.38023224875116
 20
-74.974273127393488
 30
0.0
 11
-18.877603523729061
 21
-74.974273127393488
 31
0.0
 12
-18.883658185426409
 22
-75.010278860999819
 32
0.0
 13
-18.883658185426409
 23
-75.010278860999819
 33
0.0
210
0.0
220
0.0
230
-1.0
  0
SOLID
  5
1431
  8
SAPA_FOGBAND
  6
CONTINUOUS
 10
18.375927236262321
 20
-75.010278860999819
 30
0.0
 11
18.374478023402471
 21
-75.02239960915233
 31
0.0
 12
18.88336965781529
 22
-75.02239960915233
 32
0.0
 13
18.88336965781529
 23
-75.02239960915233
 33
0.0
  0
SOLID
  5
1432
  8
SAPA_FOGBAND
  6
CONTINUOUS
 10
-18.375927236262321
 20
-75.010278860999819
 30
0.0
 11
-18.883658185426409
 21
-75.010278860999819
 31
0.0
 12
-18.88336965781529
 22
-75.02239960915233
 32
0.0
 13
-18.88336965781529
 23
-75.02239960915233
 33
0.0
210
0.0
220
0.0
230
-1.0
  0
SOLID
  5
1433
  8
SAPA_FOGBAND
  6
CONTINUOUS
 10
18.374478023402471
 20
-75.02239960915233
 30
0.0
 11
18.377076738662019
 21
-75.058734396216906
 31
0.0
 12
18.88250472858978
 22
-75.058734396216906
 32
0.0
 13
18.88250472858978
 23
-75.058734396216906
 33
0.0
210
0.0
220
0.0
230
1.0
  0
SOLID
  5
1434
  8
SAPA_FOGBAND
  6
CONTINUOUS
 10
-18.374478023402471
 20
-75.02239960915233
 30
0.0
 11
-18.88336965781529
 21
-75.02239960915233
 31
0.0
 12
-18.88250472858978
 22
-75.058734396216906
 32
0.0
 13
-18.88250472858978
 23
-75.058734396216906
 33
0.0
210
0.0
220
0.0
230
-1.0
  0
SOLID
  5
1435
  8
SAPA_FOGBAND
  6
CONTINUOUS
 10
18.377076738662019
 20
-75.058734396216906
 30
0.0
 11
18.377935780961629
 21
-75.070745376997209
 31
0.0
 12
18.879891899652499
 22
-75.070745376997209
 32
0.0
 13
18.879891899652499
 23
-75.070745376997209
 33
0.0
210
0.0
220
0.0
230
1.0
  0
SOLID
  5
1436
  8
SAPA_FOGBAND
  6
CONTINUOUS
 10
-18.377076738662019
 20
-75.058734396216906
 30
0.0
 11
-18.88250472858978
 21
-75.058734396216906
 31
0.0
 12
-18.879891899652499
 22
-75.070745376997209
 32
0.0
 13
-18.879891899652499
 23
-75.070745376997209
 33
0.0
210
0.0
220
0.0
230
-1.0
  0
SOLID
  5
1437
  8
SAPA_FOGBAND
  6
CONTINUOUS
 10
18.377935780961629
 20
-75.070745376997209
 30
0.0
 11
18.38740794746516
 21
-75.106095983646128
 31
0.0
 12
18.872201845884859
 22
-75.106095983646128
 32
0.0
 13
18.872201845884859
 23
-75.106095983646128
 33
0.0
210
0.0
220
0.0
230
1.0
  0
SOLID
  5
1438
  8
SAPA_FOGBAND
  6
CONTINUOUS
 10
-18.377935780961629
 20
-75.070745376997209
 30
0.0
 11
-18.879891899652499
 21
-75.070745376997209
 31
0.0
 12
-18.872201845884859
 22
-75.106095983646128
 32
0.0
 13
-18.872201845884859
 23
-75.106095983646128
 33
0.0
210
0.0
220
0.0
230
-1.0
  0
SOLID
  5
1439
  8
SAPA_FOGBAND
  6
CONTINUOUS
 10
18.38740794746516
 20
-75.106095983646128
 30
0.0
 11
18.390480549061351
 21
-75.117563088914522
 31
0.0
 12
18.867291345047391
 22
-75.117563088914522
 32
0.0
 13
18.867291345047391
 23
-75.117563088914522
 33
0.0
210
0.0
220
0.0
230
1.0
  0
SOLID
  5
143A
  8
SAPA_FOGBAND
  6
CONTINUOUS
 10
-18.38740794746516
 20
-75.106095983646128
 30
0.0
 11
-18.872201845884859
 21
-75.106095983646128
 31
0.0
 12
-18.867291345047391
 22
-75.117563088914522
 32
0.0
 13
-18.867291345047391
 23
-75.117563088914522
 33
0.0
210
0.0
220
0.0
230
-1.0
  0
SOLID
  5
143B
  8
SAPA_FOGBAND
  6
CONTINUOUS
 10
18.390480549061351
 20
-75.117563088914522
 30
0.0
 11
18.40655407764482
 21
-75.150651852118401
 31
0.0
 12
18.853121910336501
 22
-75.150651852118401
 32
0.0
 13
18.853121910336501
 23
-75.150651852118401
 33
0.0
210
0.0
220
0.0
230
1.0
  0
SOLID
  5
143C
  8
SAPA_FOGBAND
  6
CONTINUOUS
 10
-18.390480549061351
 20
-75.117563088914522
 30
0.0
 11
-18.867291345047391
 21
-75.117563088914522
 31
0.0
 12
-18.853121910336501
 22
-75.150651852118401
 32
0.0
 13
-18.853121910336501
 23
-75.150651852118401
 33
0.0
210
0.0
220
0.0
230
-1.0
  0
SOLID
  5
143D
  8
SAPA_FOGBAND
  6
CONTINUOUS
 10
18.40655407764482
 20
-75.150651852118401
 30
0.0
 11
18.41165892709742
 21
-75.161160630813228
 31
0.0
 12
18.846009363721858
 22
-75.161160630813228
 32
0.0
 13
18.846009363721858
 23
-75.161160630813228
 33
0.0
210
0.0
220
0.0
230
1.0
  0
SOLID
  5
143E
  8
SAPA_FOGBAND
  6
CONTINUOUS
 10
-18.40655407764482
 20
-75.150651852118401
 30
0.0
 11
-18.853121910336501
 21
-75.150651852118401
 31
0.0
 12
-18.846009363721858
 22
-75.161160630813228
 32
0.0
 13
-18.846009363721858
 23
-75.161160630813228
 33
0.0
210
0.0
220
0.0
230
-1.0
  0
SOLID
  5
143F
  8
SAPA_FOGBAND
  6
CONTINUOUS
 10
18.41165892709742
 20
-75.161160630813228
 30
0.0
 11
18.433840420081658
 21
-75.190791636457945
 31
0.0
 12
18.825954520527699
 22
-75.190791636457945
 32
0.0
 13
18.825954520527699
 23
-75.190791636457945
 33
0.0
210
0.0
220
0.0
230
1.0
  0
SOLID
  5
1440
  8
SAPA_FOGBAND
  6
CONTINUOUS
 10
-18.41165892709742
 20
-75.161160630813228
 30
0.0
 11
-18.846009363721858
 21
-75.161160630813228
 31
0.0
 12
-18.825954520527699
 22
-75.190791636457945
 32
0.0
 13
-18.825954520527699
 23
-75.190791636457945
 33
0.0
210
0.0
220
0.0
230
-1.0
  0
SOLID
  5
1441
  8
SAPA_FOGBAND
  6
CONTINUOUS
 10
18.433840420081658
 20
-75.190791636457945
 30
0.0
 11
18.440705473307911
 21
-75.199962273936805
 31
0.0
 12
18.816783883048839
 22
-75.199962273936805
 32
0.0
 13
18.816783883048839
 23
-75.199962273936805
 33
0.0
  0
SOLID
  5
1442
  8
SAPA_FOGBAND
  6
CONTINUOUS
 10
-18.433840420081658
 20
-75.190791636457945
 30
0.0
 11
-18.825954520527699
 21
-75.190791636457945
 31
0.0
 12
-18.816783883048839
 22
-75.199962273936805
 32
0.0
 13
-18.816783883048839
 23
-75.199962273936805
 33
0.0
210
0.0
220
0.0
230
-1.0
  0
SOLID
  5
1443
  8
SAPA_FOGBAND
  6
CONTINUOUS
 10
18.440705473307911
 20
-75.199962273936805
 30
0.0
 11
18.468318941486949
 21
-75.225064580275543
 31
0.0
 12
18.791681576710111
 22
-75.225064580275543
 32
0.0
 13
18.791681576710111
 23
-75.225064580275543
 33
0.0
  0
SOLID
  5
1444
  8
SAPA_FOGBAND
  6
CONTINUOUS
 10
-18.440705473307911
 20
-75.199962273936805
 30
0.0
 11
-18.816783883048839
 21
-75.199962273936805
 31
0.0
 12
-18.791681576710111
 22
-75.225064580275543
 32
0.0
 13
-18.791681576710111
 23
-75.225064580275543
 33
0.0
210
0.0
220
0.0
230
-1.0
  0
SOLID
  5
1445
  8
SAPA_FOGBAND
  6
CONTINUOUS
 10
18.468318941486949
 20
-75.225064580275543
 30
0.0
 11
18.476570369832721
 21
-75.232565625806103
 31
0.0
 12
18.780598791354691
 22
-75.232565625806103
 32
0.0
 13
18.780598791354691
 23
-75.232565625806103
 33
0.0
210
0.0
220
0.0
230
1.0
  0
SOLID
  5
1446
  8
SAPA_FOGBAND
  6
CONTINUOUS
 10
-18.468318941486949
 20
-75.225064580275543
 30
0.0
 11
-18.791681576710111
 21
-75.225064580275543
 31
0.0
 12
-18.780598791354691
 22
-75.232565625806103
 32
0.0
 13
-18.780598791354691
 23
-75.232565625806103
 33
0.0
210
0.0
220
0.0
230
-1.0
  0
SOLID
  5
1447
  8
SAPA_FOGBAND
  6
CONTINUOUS
 10
18.476570369832721
 20
-75.232565625806103
 30
0.0
 11
18.508835042506782
 21
-75.252231970084338
 31
0.0
 12
18.751541792370571
 22
-75.252231970084338
 32
0.0
 13
18.751541792370571
 23
-75.252231970084338
 33
0.0
210
0.0
220
0.0
230
1.0
  0
SOLID
  5
1448
  8
SAPA_FOGBAND
  6
CONTINUOUS
 10
-18.476570369832721
 20
-75.232565625806103
 30
0.0
 11
-18.780598791354691
 21
-75.232565625806103
 31
0.0
 12
-18.751541792370571
 22
-75.252231970084338
 32
0.0
 13
-18.751541792370571
 23
-75.252231970084338
 33
0.0
210
0.0
220
0.0
230
-1.0
  0
SOLID
  5
1449
  8
SAPA_FOGBAND
  6
CONTINUOUS
 10
18.508835042506782
 20
-75.252231970084338
 30
0.0
 11
18.51795736586638
 21
-75.25779231633733
 31
0.0
 12
18.73855715436272
 22
-75.25779231633733
 32
0.0
 13
18.73855715436272
 23
-75.25779231633733
 33
0.0
210
0.0
220
0.0
230
1.0
  0
SOLID
  5
144A
  8
SAPA_FOGBAND
  6
CONTINUOUS
 10
-18.508835042506782
 20
-75.252231970084338
 30
0.0
 11
-18.751541792370571
 21
-75.252231970084338
 31
0.0
 12
-18.73855715436272
 22
-75.25779231633733
 32
0.0
 13
-18.73855715436272
 23
-75.25779231633733
 33
0.0
210
0.0
220
0.0
230
-1.0
  0
SOLID
  5
144B
  8
SAPA_FOGBAND
  6
CONTINUOUS
 10
18.51795736586638
 20
-75.25779231633733
 30
0.0
 11
18.5542047875247
 21
-75.2713119056327
 31
0.0
 12
18.706985923898291
 22
-75.2713119056327
 32
0.0
 13
18.706985923898291
 23
-75.2713119056327
 33
0.0
210
0.0
220
0.0
230
1.0
  0
SOLID
  5
144C
  8
SAPA_FOGBAND
  6
CONTINUOUS
 10
-18.51795736586638
 20
-75.25779231633733
 30
0.0
 11
-18.73855715436272
 21
-75.25779231633733
 31
0.0
 12
-18.706985923898291
 22
-75.2713119056327
 32
0.0
 13
-18.706985923898291
 23
-75.2713119056327
 33
0.0
210
0.0
220
0.0
230
-1.0
  0
SOLID
  5
144D
  8
SAPA_FOGBAND
  6
CONTINUOUS
 10
18.5542047875247
 20
-75.2713119056327
 30
0.0
 11
18.563370627539449
 21
-75.274730587207202
 31
0.0
 12
18.691270498330439
 22
-75.274730587207202
 32
0.0
 13
18.691270498330439
 23
-75.274730587207202
 33
0.0
210
0.0
220
0.0
230
1.0
  0
SOLID
  5
144E
  8
SAPA_FOGBAND
  6
CONTINUOUS
 10
-18.5542047875247
 20
-75.2713119056327
 30
0.0
 11
-18.706985923898291
 21
-75.2713119056327
 31
0.0
 12
-18.691270498330439
 22
-75.274730587207202
 32
0.0
 13
-18.691270498330439
 23
-75.274730587207202
 33
0.0
210
0.0
220
0.0
230
-1.0
  0
SOLID
  5
144F
  8
SAPA_FOGBAND
  6
CONTINUOUS
 10
18.563370627539449
 20
-75.274730587207202
 30
0.0
 11
18.604309448630438
 21
-75.28161478833762
 31
0.0
 12
18.659624336469061
 22
-75.28161478833762
 32
0.0
 13
18.659624336469061
 23
-75.28161478833762
 33
0.0
  0
SOLID
  5
1450
  8
SAPA_FOGBAND
  6
CONTINUOUS
 10
-18.563370627539449
 20
-75.274730587207202
 30
0.0
 11
-18.691270498330439
 21
-75.274730587207202
 31
0.0
 12
-18.659624336469061
 22
-75.28161478833762
 32
0.0
 13
-18.659624336469061
 23
-75.28161478833762
 33
0.0
210
0.0
220
0.0
230
-1.0
  0
SOLID
  5
1451
  8
SAPA_FOGBAND
  6
CONTINUOUS
 10
-18.604309448630438
 20
-75.28161478833762
 30
0.0
 11
-18.659624336469061
 21
-75.28161478833762
 31
0.0
 12
-18.611168801251981
 22
-75.282768245174253
 32
0.0
 13
-18.611168801251981
 23
-75.282768245174253
 33
0.0
210
0.0
220
0.0
230
-1.0
  0
LINE
  5
1452
  8
SAPA_FOGBAND
  6
CONTINUOUS
 10
18.62328954940449
 20
-74.773588083150315
 30
0.0
 11
18.594369982301401
 21
-74.777045840709476
 31
0.0
  0
LINE
  5
1453
  8
SAPA_FOGBAND
  6
CONTINUOUS
 10
18.671635317249361
 20
-74.777045840709476
 30
0.0
 11
18.62328954940449
 21
-74.773588083150315
 31
0.0
  0
LINE
  5
1454
  8
SAPA_FOGBAND
  6
CONTINUOUS
 10
18.594369982301401
 20
-74.777045840709476
 30
0.0
 11
18.575163067645651
 21
-74.779342308498997
 31
0.0
  0
LINE
  5
1455
  8
SAPA_FOGBAND
  6
CONTINUOUS
 10
18.671635317249361
 20
-74.777045840709476
 30
0.0
 11
18.680205851717801
 21
-74.779342308498997
 31
0.0
  0
LINE
  5
1456
  8
SAPA_FOGBAND
  6
CONTINUOUS
 10
18.575163067645651
 20
-74.779342308498997
 30
0.0
 11
18.54310359385018
 21
-74.789590608809192
 31
0.0
  0
LINE
  5
1457
  8
SAPA_FOGBAND
  6
CONTINUOUS
 10
18.680205851717801
 20
-74.779342308498997
 30
0.0
 11
18.718453029166682
 21
-74.789590608809192
 31
0.0
  0
LINE
  5
1458
  8
SAPA_FOGBAND
  6
CONTINUOUS
 10
18.54310359385018
 20
-74.789590608809192
 30
0.0
 11
18.52899528841591
 21
-74.794100544058935
 31
0.0
  0
LINE
  5
1459
  8
SAPA_FOGBAND
  6
CONTINUOUS
 10
18.718453029166682
 20
-74.789590608809192
 30
0.0
 11
18.72773712498724
 21
-74.794100544058935
 31
0.0
  0
LINE
  5
145A
  8
SAPA_FOGBAND
  6
CONTINUOUS
 10
18.52899528841591
 20
-74.794100544058935
 30
0.0
 11
18.498469314594882
 21
-74.810768986845275
 31
0.0
  0
LINE
  5
145B
  8
SAPA_FOGBAND
  6
CONTINUOUS
 10
18.72773712498724
 20
-74.794100544058935
 30
0.0
 11
18.76205057106538
 21
-74.810768986845275
 31
0.0
  0
LINE
  5
145C
  8
SAPA_FOGBAND
  6
CONTINUOUS
 10
18.498469314594882
 20
-74.810768986845275
 30
0.0
 11
18.486454835545629
 21
-74.817329388744795
 31
0.0
  0
LINE
  5
145D
  8
SAPA_FOGBAND
  6
CONTINUOUS
 10
18.76205057106538
 20
-74.810768986845275
 30
0.0
 11
18.77081424201641
 21
-74.817329388744795
 31
0.0
  0
LINE
  5
145E
  8
SAPA_FOGBAND
  6
CONTINUOUS
 10
18.486454835545629
 20
-74.817329388744795
 30
0.0
 11
18.45922100973198
 21
-74.839815533055756
 31
0.0
  0
LINE
  5
145F
  8
SAPA_FOGBAND
  6
CONTINUOUS
 10
18.77081424201641
 20
-74.817329388744795
 30
0.0
 11
18.800852214188961
 21
-74.839815533055756
 31
0.0
  0
LINE
  5
1460
  8
SAPA_FOGBAND
  6
CONTINUOUS
 10
18.45922100973198
 20
-74.839815533055756
 30
0.0
 11
18.449079231839601
 21
-74.848189291587445
 31
0.0
  0
LINE
  5
1461
  8
SAPA_FOGBAND
  6
CONTINUOUS
 10
18.800852214188961
 20
-74.839815533055756
 30
0.0
 11
18.80846446522915
 21
-74.848189291587445
 31
0.0
  0
LINE
  5
1462
  8
SAPA_FOGBAND
  6
CONTINUOUS
 10
18.449079231839601
 20
-74.848189291587445
 30
0.0
 11
18.426380632663129
 21
-74.875680429580569
 31
0.0
  0
LINE
  5
1463
  8
SAPA_FOGBAND
  6
CONTINUOUS
 10
18.80846446522915
 20
-74.848189291587445
 30
0.0
 11
18.833455566058259
 21
-74.875680429580569
 31
0.0
  0
LINE
  5
1464
  8
SAPA_FOGBAND
  6
CONTINUOUS
 10
18.426380632663129
 20
-74.875680429580569
 30
0.0
 11
18.418219328996951
 21
-74.88556489529347
 31
0.0
  0
LINE
  5
1465
  8
SAPA_FOGBAND
  6
CONTINUOUS
 10
18.833455566058259
 20
-74.875680429580569
 30
0.0
 11
18.839480462318019
 21
-74.88556489529347
 31
0.0
  0
LINE
  5
1466
  8
SAPA_FOGBAND
  6
CONTINUOUS
 10
18.418219328996951
 20
-74.88556489529347
 30
0.0
 11
18.401017646018548
 21
-74.917067425614221
 31
0.0
  0
LINE
  5
1467
  8
SAPA_FOGBAND
  6
CONTINUOUS
 10
18.839480462318019
 20
-74.88556489529347
 30
0.0
 11
18.858682256589489
 21
-74.917067425614221
 31
0.0
  0
LINE
  5
1468
  8
SAPA_FOGBAND
  6
CONTINUOUS
 10
18.401017646018548
 20
-74.917067425614221
 30
0.0
 11
18.394990484311101
 21
-74.928105348163754
 31
0.0
  0
LINE
  5
1469
  8
SAPA_FOGBAND
  6
CONTINUOUS
 10
18.858682256589489
 20
-74.917067425614221
 30
0.0
 11
18.86279918884885
 21
-74.928105348163754
 31
0.0
  0
LINE
  5
146A
  8
SAPA_FOGBAND
  6
CONTINUOUS
 10
18.394990484311101
 20
-74.928105348163754
 30
0.0
 11
18.384001882288171
 21
-74.962480687287297
 31
0.0
  0
LINE
  5
146B
  8
SAPA_FOGBAND
  6
CONTINUOUS
 10
18.86279918884885
 20
-74.928105348163754
 30
0.0
 11
18.875620527459361
 21
-74.962480687287297
 31
0.0
  0
LINE
  5
146C
  8
SAPA_FOGBAND
  6
CONTINUOUS
 10
18.384001882288171
 20
-74.962480687287297
 30
0.0
 11
18.38023224875116
 21
-74.974273127393488
 31
0.0
  0
LINE
  5
146D
  8
SAPA_FOGBAND
  6
CONTINUOUS
 10
18.875620527459361
 20
-74.962480687287297
 30
0.0
 11
18.877603523729061
 21
-74.974273127393488
 31
0.0
  0
LINE
  5
146E
  8
SAPA_FOGBAND
  6
CONTINUOUS
 10
18.38023224875116
 20
-74.974273127393488
 30
0.0
 11
18.375927236262321
 21
-75.010278860999819
 31
0.0
  0
LINE
  5
146F
  8
SAPA_FOGBAND
  6
CONTINUOUS
 10
18.877603523729061
 20
-74.974273127393488
 30
0.0
 11
18.883658185426409
 21
-75.010278860999819
 31
0.0
  0
LINE
  5
1470
  8
SAPA_FOGBAND
  6
CONTINUOUS
 10
18.375927236262321
 20
-75.010278860999819
 30
0.0
 11
18.374478023402471
 21
-75.02239960915233
 31
0.0
  0
LINE
  5
1471
  8
SAPA_FOGBAND
  6
CONTINUOUS
 10
18.883658185426409
 20
-75.010278860999819
 30
0.0
 11
18.88336965781529
 21
-75.02239960915233
 31
0.0
  0
LINE
  5
1472
  8
SAPA_FOGBAND
  6
CONTINUOUS
 10
18.374478023402471
 20
-75.02239960915233
 30
0.0
 11
18.377076738662019
 21
-75.058734396216906
 31
0.0
  0
LINE
  5
1473
  8
SAPA_FOGBAND
  6
CONTINUOUS
 10
18.88336965781529
 20
-75.02239960915233
 30
0.0
 11
18.88250472858978
 21
-75.058734396216906
 31
0.0
  0
LINE
  5
1474
  8
SAPA_FOGBAND
  6
CONTINUOUS
 10
18.377076738662019
 20
-75.058734396216906
 30
0.0
 11
18.377935780961629
 21
-75.070745376997209
 31
0.0
  0
LINE
  5
1475
  8
SAPA_FOGBAND
  6
CONTINUOUS
 10
18.88250472858978
 20
-75.058734396216906
 30
0.0
 11
18.879891899652499
 21
-75.070745376997209
 31
0.0
  0
LINE
  5
1476
  8
SAPA_FOGBAND
  6
CONTINUOUS
 10
18.377935780961629
 20
-75.070745376997209
 30
0.0
 11
18.38740794746516
 21
-75.106095983646128
 31
0.0
  0
LINE
  5
1477
  8
SAPA_FOGBAND
  6
CONTINUOUS
 10
18.879891899652499
 20
-75.070745376997209
 30
0.0
 11
18.872201845884859
 21
-75.106095983646128
 31
0.0
  0
LINE
  5
1478
  8
SAPA_FOGBAND
  6
CONTINUOUS
 10
18.38740794746516
 20
-75.106095983646128
 30
0.0
 11
18.390480549061351
 21
-75.117563088914522
 31
0.0
  0
LINE
  5
1479
  8
SAPA_FOGBAND
  6
CONTINUOUS
 10
18.872201845884859
 20
-75.106095983646128
 30
0.0
 11
18.867291345047391
 21
-75.117563088914522
 31
0.0
  0
LINE
  5
147A
  8
SAPA_FOGBAND
  6
CONTINUOUS
 10
18.390480549061351
 20
-75.117563088914522
 30
0.0
 11
18.40655407764482
 21
-75.150651852118401
 31
0.0
  0
LINE
  5
147B
  8
SAPA_FOGBAND
  6
CONTINUOUS
 10
18.867291345047391
 20
-75.117563088914522
 30
0.0
 11
18.853121910336501
 21
-75.150651852118401
 31
0.0
  0
LINE
  5
147C
  8
SAPA_FOGBAND
  6
CONTINUOUS
 10
18.40655407764482
 20
-75.150651852118401
 30
0.0
 11
18.41165892709742
 21
-75.161160630813228
 31
0.0
  0
LINE
  5
147D
  8
SAPA_FOGBAND
  6
CONTINUOUS
 10
18.853121910336501
 20
-75.150651852118401
 30
0.0
 11
18.846009363721858
 21
-75.161160630813228
 31
0.0
  0
LINE
  5
147E
  8
SAPA_FOGBAND
  6
CONTINUOUS
 10
18.41165892709742
 20
-75.161160630813228
 30
0.0
 11
18.433840420081658
 21
-75.190791636457945
 31
0.0
  0
LINE
  5
147F
  8
SAPA_FOGBAND
  6
CONTINUOUS
 10
18.846009363721858
 20
-75.161160630813228
 30
0.0
 11
18.825954520527699
 21
-75.190791636457945
 31
0.0
  0
LINE
  5
1480
  8
SAPA_FOGBAND
  6
CONTINUOUS
 10
18.433840420081658
 20
-75.190791636457945
 30
0.0
 11
18.440705473307911
 21
-75.199962273936805
 31
0.0
  0
LINE
  5
1481
  8
SAPA_FOGBAND
  6
CONTINUOUS
 10
18.825954520527699
 20
-75.190791636457945
 30
0.0
 11
18.816783883048839
 21
-75.199962273936805
 31
0.0
  0
LINE
  5
1482
  8
SAPA_FOGBAND
  6
CONTINUOUS
 10
18.440705473307911
 20
-75.199962273936805
 30
0.0
 11
18.468318941486949
 21
-75.225064580275543
 31
0.0
  0
LINE
  5
1483
  8
SAPA_FOGBAND
  6
CONTINUOUS
 10
18.816783883048839
 20
-75.199962273936805
 30
0.0
 11
18.791681576710111
 21
-75.225064580275543
 31
0.0
  0
LINE
  5
1484
  8
SAPA_FOGBAND
  6
CONTINUOUS
 10
18.468318941486949
 20
-75.225064580275543
 30
0.0
 11
18.476570369832721
 21
-75.232565625806103
 31
0.0
  0
LINE
  5
1485
  8
SAPA_FOGBAND
  6
CONTINUOUS
 10
18.791681576710111
 20
-75.225064580275543
 30
0.0
 11
18.780598791354691
 21
-75.232565625806103
 31
0.0
  0
LINE
  5
1486
  8
SAPA_FOGBAND
  6
CONTINUOUS
 10
18.476570369832721
 20
-75.232565625806103
 30
0.0
 11
18.508835042506782
 21
-75.252231970084338
 31
0.0
  0
LINE
  5
1487
  8
SAPA_FOGBAND
  6
CONTINUOUS
 10
18.780598791354691
 20
-75.232565625806103
 30
0.0
 11
18.751541792370571
 21
-75.252231970084338
 31
0.0
  0
LINE
  5
1488
  8
SAPA_FOGBAND
  6
CONTINUOUS
 10
18.508835042506782
 20
-75.252231970084338
 30
0.0
 11
18.51795736586638
 21
-75.25779231633733
 31
0.0
  0
LINE
  5
1489
  8
SAPA_FOGBAND
  6
CONTINUOUS
 10
18.751541792370571
 20
-75.252231970084338
 30
0.0
 11
18.73855715436272
 21
-75.25779231633733
 31
0.0
  0
LINE
  5
148A
  8
SAPA_FOGBAND
  6
CONTINUOUS
 10
18.51795736586638
 20
-75.25779231633733
 30
0.0
 11
18.5542047875247
 21
-75.2713119056327
 31
0.0
  0
LINE
  5
148B
  8
SAPA_FOGBAND
  6
CONTINUOUS
 10
18.73855715436272
 20
-75.25779231633733
 30
0.0
 11
18.706985923898291
 21
-75.2713119056327
 31
0.0
  0
LINE
  5
148C
  8
SAPA_FOGBAND
  6
CONTINUOUS
 10
18.5542047875247
 20
-75.2713119056327
 30
0.0
 11
18.563370627539449
 21
-75.274730587207202
 31
0.0
  0
LINE
  5
148D
  8
SAPA_FOGBAND
  6
CONTINUOUS
 10
18.706985923898291
 20
-75.2713119056327
 30
0.0
 11
18.691270498330439
 21
-75.274730587207202
 31
0.0
  0
LINE
  5
148E
  8
SAPA_FOGBAND
  6
CONTINUOUS
 10
18.563370627539449
 20
-75.274730587207202
 30
0.0
 11
18.604309448630438
 21
-75.28161478833762
 31
0.0
  0
LINE
  5
148F
  8
SAPA_FOGBAND
  6
CONTINUOUS
 10
18.691270498330439
 20
-75.274730587207202
 30
0.0
 11
18.659624336469061
 21
-75.28161478833762
 31
0.0
  0
LINE
  5
1490
  8
SAPA_FOGBAND
  6
CONTINUOUS
 10
18.659624336469061
 20
-75.28161478833762
 30
0.0
 11
18.611168801251981
 21
-75.282768245174253
 31
0.0
  0
LINE
  5
1491
  8
SAPA_FOGBAND
  6
CONTINUOUS
 10
18.611168801251981
 20
-75.282768245174253
 30
0.0
 11
18.604309448630438
 21
-75.28161478833762
 31
0.0
  0
ENDBLK
  5
1493
  8
0
  0
BLOCK
  8
0
  2
*U46
 70
     1
 10
0.0
 20
0.0
 30
0.0
  3
*U46
  1

  0
SOLID
  5
14FF
  8
SAPA_FOGBAND
  6
CONTINUOUS
 10
-18.629356795612811
 20
-74.773515879681014
 30
0.0
 11
-18.809634359385999
 21
-74.848189291587445
 31
0.0
 12
-18.449079231839612
 22
-74.848189291587445
 32
0.0
 13
-18.449079231839612
 23
-74.848189291587445
 33
0.0
210
0.0
220
0.0
230
1.0
  0
SOLID
  5
1500
  8
SAPA_FOGBAND
  6
CONTINUOUS
 10
-18.809634359385999
 20
-74.848189291587445
 30
0.0
 11
-18.884307771292448
 21
-75.028466855360648
 31
0.0
 12
-18.374405819933159
 22
-75.028466855360648
 32
0.0
 13
-18.374405819933159
 23
-75.028466855360648
 33
0.0
210
0.0
220
0.0
230
1.0
  0
SOLID
  5
1501
  8
SAPA_FOGBAND
  6
CONTINUOUS
 10
18.809634359385999
 20
-74.848189291587445
 30
0.0
 11
18.449079231839612
 21
-74.848189291587445
 31
0.0
 12
18.374405819933159
 22
-75.028466855360648
 32
0.0
 13
18.374405819933159
 23
-75.028466855360648
 33
0.0
210
0.0
220
0.0
230
-1.0
  0
SOLID
  5
1502
  8
SAPA_FOGBAND
  6
CONTINUOUS
 10
-18.884307771292448
 20
-75.028466855360648
 30
0.0
 11
-18.809634359385999
 21
-75.208744419133851
 31
0.0
 12
-18.449079231839612
 22
-75.208744419133851
 32
0.0
 13
-18.449079231839612
 23
-75.208744419133851
 33
0.0
210
0.0
220
0.0
230
1.0
  0
SOLID
  5
1503
  8
SAPA_FOGBAND
  6
CONTINUOUS
 10
18.884307771292448
 20
-75.028466855360648
 30
0.0
 11
18.374405819933159
 21
-75.028466855360648
 31
0.0
 12
18.449079231839612
 22
-75.208744419133851
 32
0.0
 13
18.449079231839612
 23
-75.208744419133851
 33
0.0
210
0.0
220
0.0
230
-1.0
  0
SOLID
  5
1504
  8
SAPA_FOGBAND
  6
CONTINUOUS
 10
18.809634359385999
 20
-75.208744419133851
 30
0.0
 11
18.449079231839612
 21
-75.208744419133851
 31
0.0
 12
18.629356795612811
 22
-75.283417831040282
 32
0.0
 13
18.629356795612811
 23
-75.283417831040282
 33
0.0
210
0.0
220
0.0
230
-1.0
  0
LINE
  5
1505
  8
SAPA_FOGBAND
  6
CONTINUOUS
 10
-18.629356795612811
 20
-74.773515879681014
 30
0.0
 11
-18.809634359385999
 21
-74.848189291587445
 31
0.0
  0
LINE
  5
1506
  8
SAPA_FOGBAND
  6
CONTINUOUS
 10
-18.449079231839612
 20
-74.848189291587445
 30
0.0
 11
-18.629356795612811
 21
-74.773515879681014
 31
0.0
  0
LINE
  5
1507
  8
SAPA_FOGBAND
  6
CONTINUOUS
 10
-18.809634359385999
 20
-74.848189291587445
 30
0.0
 11
-18.884307771292448
 21
-75.028466855360648
 31
0.0
  0
LINE
  5
1508
  8
SAPA_FOGBAND
  6
CONTINUOUS
 10
-18.449079231839612
 20
-74.848189291587445
 30
0.0
 11
-18.374405819933159
 21
-75.028466855360648
 31
0.0
  0
LINE
  5
1509
  8
SAPA_FOGBAND
  6
CONTINUOUS
 10
-18.884307771292448
 20
-75.028466855360648
 30
0.0
 11
-18.809634359385999
 21
-75.208744419133851
 31
0.0
  0
LINE
  5
150A
  8
SAPA_FOGBAND
  6
CONTINUOUS
 10
-18.374405819933159
 20
-75.028466855360648
 30
0.0
 11
-18.449079231839612
 21
-75.208744419133851
 31
0.0
  0
LINE
  5
150B
  8
SAPA_FOGBAND
  6
CONTINUOUS
 10
-18.449079231839612
 20
-75.208744419133851
 30
0.0
 11
-18.629356795612811
 21
-75.283417831040282
 31
0.0
  0
LINE
  5
150C
  8
SAPA_FOGBAND
  6
CONTINUOUS
 10
-18.629356795612811
 20
-75.283417831040282
 30
0.0
 11
-18.809634359385999
 21
-75.208744419133851
 31
0.0
  0
ENDBLK
  5
150E
  8
0
  0
BLOCK
  8
0
  2
*U47
 70
     1
 10
0.0
 20
0.0
 30
0.0
  3
*U47
  1

  0
SOLID
  5
157A
  8
SAPA_FOGBAND
  6
CONTINUOUS
 10
18.62328954940449
 20
-74.773588083150315
 30
0.0
 11
18.594369982301401
 21
-74.777045840709476
 31
0.0
 12
18.671635317249361
 22
-74.777045840709476
 32
0.0
 13
18.671635317249361
 23
-74.777045840709476
 33
0.0
210
0.0
220
0.0
230
1.0
  0
SOLID
  5
157B
  8
SAPA_FOGBAND
  6
CONTINUOUS
 10
18.594369982301401
 20
-74.777045840709476
 30
0.0
 11
18.575163067645651
 21
-74.779342308498997
 31
0.0
 12
18.680205851717801
 22
-74.779342308498997
 32
0.0
 13
18.680205851717801
 23
-74.779342308498997
 33
0.0
210
0.0
220
0.0
230
1.0
  0
SOLID
  5
157C
  8
SAPA_FOGBAND
  6
CONTINUOUS
 10
-18.594369982301401
 20
-74.777045840709476
 30
0.0
 11
-18.671635317249361
 21
-74.777045840709476
 31
0.0
 12
-18.680205851717801
 22
-74.779342308498997
 32
0.0
 13
-18.680205851717801
 23
-74.779342308498997
 33
0.0
210
0.0
220
0.0
230
-1.0
  0
SOLID
  5
157D
  8
SAPA_FOGBAND
  6
CONTINUOUS
 10
18.575163067645651
 20
-74.779342308498997
 30
0.0
 11
18.54310359385018
 21
-74.789590608809192
 31
0.0
 12
18.718453029166682
 22
-74.789590608809192
 32
0.0
 13
18.718453029166682
 23
-74.789590608809192
 33
0.0
210
0.0
220
0.0
230
1.0
  0
SOLID
  5
157E
  8
SAPA_FOGBAND
  6
CONTINUOUS
 10
-18.575163067645651
 20
-74.779342308498997
 30
0.0
 11
-18.680205851717801
 21
-74.779342308498997
 31
0.0
 12
-18.718453029166682
 22
-74.789590608809192
 32
0.0
 13
-18.718453029166682
 23
-74.789590608809192
 33
0.0
210
0.0
220
0.0
230
-1.0
  0
SOLID
  5
157F
  8
SAPA_FOGBAND
  6
CONTINUOUS
 10
18.54310359385018
 20
-74.789590608809192
 30
0.0
 11
18.52899528841591
 21
-74.794100544058935
 31
0.0
 12
18.72773712498724
 22
-74.794100544058935
 32
0.0
 13
18.72773712498724
 23
-74.794100544058935
 33
0.0
210
0.0
220
0.0
230
1.0
  0
SOLID
  5
1580
  8
SAPA_FOGBAND
  6
CONTINUOUS
 10
-18.54310359385018
 20
-74.789590608809192
 30
0.0
 11
-18.718453029166682
 21
-74.789590608809192
 31
0.0
 12
-18.72773712498724
 22
-74.794100544058935
 32
0.0
 13
-18.72773712498724
 23
-74.794100544058935
 33
0.0
210
0.0
220
0.0
230
-1.0
  0
SOLID
  5
1581
  8
SAPA_FOGBAND
  6
CONTINUOUS
 10
18.52899528841591
 20
-74.794100544058935
 30
0.0
 11
18.498469314594882
 21
-74.810768986845275
 31
0.0
 12
18.76205057106538
 22
-74.810768986845275
 32
0.0
 13
18.76205057106538
 23
-74.810768986845275
 33
0.0
210
0.0
220
0.0
230
1.0
  0
SOLID
  5
1582
  8
SAPA_FOGBAND
  6
CONTINUOUS
 10
-18.52899528841591
 20
-74.794100544058935
 30
0.0
 11
-18.72773712498724
 21
-74.794100544058935
 31
0.0
 12
-18.76205057106538
 22
-74.810768986845275
 32
0.0
 13
-18.76205057106538
 23
-74.810768986845275
 33
0.0
210
0.0
220
0.0
230
-1.0
  0
SOLID
  5
1583
  8
SAPA_FOGBAND
  6
CONTINUOUS
 10
18.498469314594882
 20
-74.810768986845275
 30
0.0
 11
18.486454835545629
 21
-74.817329388744795
 31
0.0
 12
18.77081424201641
 22
-74.817329388744795
 32
0.0
 13
18.77081424201641
 23
-74.817329388744795
 33
0.0
210
0.0
220
0.0
230
1.0
  0
SOLID
  5
1584
  8
SAPA_FOGBAND
  6
CONTINUOUS
 10
-18.498469314594882
 20
-74.810768986845275
 30
0.0
 11
-18.76205057106538
 21
-74.810768986845275
 31
0.0
 12
-18.77081424201641
 22
-74.817329388744795
 32
0.0
 13
-18.77081424201641
 23
-74.817329388744795
 33
0.0
210
0.0
220
0.0
230
-1.0
  0
SOLID
  5
1585
  8
SAPA_FOGBAND
  6
CONTINUOUS
 10
18.486454835545629
 20
-74.817329388744795
 30
0.0
 11
18.45922100973198
 21
-74.839815533055756
 31
0.0
 12
18.800852214188961
 22
-74.839815533055756
 32
0.0
 13
18.800852214188961
 23
-74.839815533055756
 33
0.0
210
0.0
220
0.0
230
1.0
  0
SOLID
  5
1586
  8
SAPA_FOGBAND
  6
CONTINUOUS
 10
-18.486454835545629
 20
-74.817329388744795
 30
0.0
 11
-18.77081424201641
 21
-74.817329388744795
 31
0.0
 12
-18.800852214188961
 22
-74.839815533055756
 32
0.0
 13
-18.800852214188961
 23
-74.839815533055756
 33
0.0
210
0.0
220
0.0
230
-1.0
  0
SOLID
  5
1587
  8
SAPA_FOGBAND
  6
CONTINUOUS
 10
18.45922100973198
 20
-74.839815533055756
 30
0.0
 11
18.449079231839601
 21
-74.848189291587445
 31
0.0
 12
18.80846446522915
 22
-74.848189291587445
 32
0.0
 13
18.80846446522915
 23
-74.848189291587445
 33
0.0
  0
SOLID
  5
1588
  8
SAPA_FOGBAND
  6
CONTINUOUS
 10
-18.45922100973198
 20
-74.839815533055756
 30
0.0
 11
-18.800852214188961
 21
-74.839815533055756
 31
0.0
 12
-18.80846446522915
 22
-74.848189291587445
 32
0.0
 13
-18.80846446522915
 23
-74.848189291587445
 33
0.0
210
0.0
220
0.0
230
-1.0
  0
SOLID
  5
1589
  8
SAPA_FOGBAND
  6
CONTINUOUS
 10
18.449079231839601
 20
-74.848189291587445
 30
0.0
 11
18.426380632663129
 21
-74.875680429580569
 31
0.0
 12
18.833455566058259
 22
-74.875680429580569
 32
0.0
 13
18.833455566058259
 23
-74.875680429580569
 33
0.0
  0
SOLID
  5
158A
  8
SAPA_FOGBAND
  6
CONTINUOUS
 10
-18.449079231839601
 20
-74.848189291587445
 30
0.0
 11
-18.80846446522915
 21
-74.848189291587445
 31
0.0
 12
-18.833455566058259
 22
-74.875680429580569
 32
0.0
 13
-18.833455566058259
 23
-74.875680429580569
 33
0.0
210
0.0
220
0.0
230
-1.0
  0
SOLID
  5
158B
  8
SAPA_FOGBAND
  6
CONTINUOUS
 10
18.426380632663129
 20
-74.875680429580569
 30
0.0
 11
18.418219328996951
 21
-74.88556489529347
 31
0.0
 12
18.839480462318019
 22
-74.88556489529347
 32
0.0
 13
18.839480462318019
 23
-74.88556489529347
 33
0.0
210
0.0
220
0.0
230
1.0
  0
SOLID
  5
158C
  8
SAPA_FOGBAND
  6
CONTINUOUS
 10
-18.426380632663129
 20
-74.875680429580569
 30
0.0
 11
-18.833455566058259
 21
-74.875680429580569
 31
0.0
 12
-18.839480462318019
 22
-74.88556489529347
 32
0.0
 13
-18.839480462318019
 23
-74.88556489529347
 33
0.0
210
0.0
220
0.0
230
-1.0
  0
SOLID
  5
158D
  8
SAPA_FOGBAND
  6
CONTINUOUS
 10
18.418219328996951
 20
-74.88556489529347
 30
0.0
 11
18.401017646018548
 21
-74.917067425614221
 31
0.0
 12
18.858682256589489
 22
-74.917067425614221
 32
0.0
 13
18.858682256589489
 23
-74.917067425614221
 33
0.0
210
0.0
220
0.0
230
1.0
  0
SOLID
  5
158E
  8
SAPA_FOGBAND
  6
CONTINUOUS
 10
-18.418219328996951
 20
-74.88556489529347
 30
0.0
 11
-18.839480462318019
 21
-74.88556489529347
 31
0.0
 12
-18.858682256589489
 22
-74.917067425614221
 32
0.0
 13
-18.858682256589489
 23
-74.917067425614221
 33
0.0
210
0.0
220
0.0
230
-1.0
  0
SOLID
  5
158F
  8
SAPA_FOGBAND
  6
CONTINUOUS
 10
18.401017646018548
 20
-74.917067425614221
 30
0.0
 11
18.394990484311101
 21
-74.928105348163754
 31
0.0
 12
18.86279918884885
 22
-74.928105348163754
 32
0.0
 13
18.86279918884885
 23
-74.928105348163754
 33
0.0
  0
SOLID
  5
1590
  8
SAPA_FOGBAND
  6
CONTINUOUS
 10
-18.401017646018548
 20
-74.917067425614221
 30
0.0
 11
-18.858682256589489
 21
-74.917067425614221
 31
0.0
 12
-18.86279918884885
 22
-74.928105348163754
 32
0.0
 13
-18.86279918884885
 23
-74.928105348163754
 33
0.0
210
0.0
220
0.0
230
-1.0
  0
SOLID
  5
1591
  8
SAPA_FOGBAND
  6
CONTINUOUS
 10
18.394990484311101
 20
-74.928105348163754
 30
0.0
 11
18.384001882288171
 21
-74.962480687287297
 31
0.0
 12
18.875620527459361
 22
-74.962480687287297
 32
0.0
 13
18.875620527459361
 23
-74.962480687287297
 33
0.0
  0
SOLID
  5
1592
  8
SAPA_FOGBAND
  6
CONTINUOUS
 10
-18.394990484311101
 20
-74.928105348163754
 30
0.0
 11
-18.86279918884885
 21
-74.928105348163754
 31
0.0
 12
-18.875620527459361
 22
-74.962480687287297
 32
0.0
 13
-18.875620527459361
 23
-74.962480687287297
 33
0.0
210
0.0
220
0.0
230
-1.0
  0
SOLID
  5
1593
  8
SAPA_FOGBAND
  6
CONTINUOUS
 10
18.384001882288171
 20
-74.962480687287297
 30
0.0
 11
18.38023224875116
 21
-74.974273127393488
 31
0.0
 12
18.877603523729061
 22
-74.974273127393488
 32
0.0
 13
18.877603523729061
 23
-74.974273127393488
 33
0.0
210
0.0
220
0.0
230
1.0
  0
SOLID
  5
1594
  8
SAPA_FOGBAND
  6
CONTINUOUS
 10
-18.384001882288171
 20
-74.962480687287297
 30
0.0
 11
-18.875620527459361
 21
-74.962480687287297
 31
0.0
 12
-18.877603523729061
 22
-74.974273127393488
 32
0.0
 13
-18.877603523729061
 23
-74.974273127393488
 33
0.0
210
0.0
220
0.0
230
-1.0
  0
SOLID
  5
1595
  8
SAPA_FOGBAND
  6
CONTINUOUS
 10
18.38023224875116
 20
-74.974273127393488
 30
0.0
 11
18.375927236262321
 21
-75.010278860999819
 31
0.0
 12
18.883658185426409
 22
-75.010278860999819
 32
0.0
 13
18.883658185426409
 23
-75.010278860999819
 33
0.0
210
0.0
220
0.0
230
1.0
  0
SOLID
  5
1596
  8
SAPA_FOGBAND
  6
CONTINUOUS
 10
-18.38023224875116
 20
-74.974273127393488
 30
0.0
 11
-18.877603523729061
 21
-74.974273127393488
 31
0.0
 12
-18.883658185426409
 22
-75.010278860999819
 32
0.0
 13
-18.883658185426409
 23
-75.010278860999819
 33
0.0
210
0.0
220
0.0
230
-1.0
  0
SOLID
  5
1597
  8
SAPA_FOGBAND
  6
CONTINUOUS
 10
18.375927236262321
 20
-75.010278860999819
 30
0.0
 11
18.374478023402471
 21
-75.02239960915233
 31
0.0
 12
18.88336965781529
 22
-75.02239960915233
 32
0.0
 13
18.88336965781529
 23
-75.02239960915233
 33
0.0
  0
SOLID
  5
1598
  8
SAPA_FOGBAND
  6
CONTINUOUS
 10
-18.375927236262321
 20
-75.010278860999819
 30
0.0
 11
-18.883658185426409
 21
-75.010278860999819
 31
0.0
 12
-18.88336965781529
 22
-75.02239960915233
 32
0.0
 13
-18.88336965781529
 23
-75.02239960915233
 33
0.0
210
0.0
220
0.0
230
-1.0
  0
SOLID
  5
1599
  8
SAPA_FOGBAND
  6
CONTINUOUS
 10
18.374478023402471
 20
-75.02239960915233
 30
0.0
 11
18.377076738662019
 21
-75.058734396216906
 31
0.0
 12
18.88250472858978
 22
-75.058734396216906
 32
0.0
 13
18.88250472858978
 23
-75.058734396216906
 33
0.0
210
0.0
220
0.0
230
1.0
  0
SOLID
  5
159A
  8
SAPA_FOGBAND
  6
CONTINUOUS
 10
-18.374478023402471
 20
-75.02239960915233
 30
0.0
 11
-18.88336965781529
 21
-75.02239960915233
 31
0.0
 12
-18.88250472858978
 22
-75.058734396216906
 32
0.0
 13
-18.88250472858978
 23
-75.058734396216906
 33
0.0
210
0.0
220
0.0
230
-1.0
  0
SOLID
  5
159B
  8
SAPA_FOGBAND
  6
CONTINUOUS
 10
18.377076738662019
 20
-75.058734396216906
 30
0.0
 11
18.377935780961629
 21
-75.070745376997209
 31
0.0
 12
18.879891899652499
 22
-75.070745376997209
 32
0.0
 13
18.879891899652499
 23
-75.070745376997209
 33
0.0
210
0.0
220
0.0
230
1.0
  0
SOLID
  5
159C
  8
SAPA_FOGBAND
  6
CONTINUOUS
 10
-18.377076738662019
 20
-75.058734396216906
 30
0.0
 11
-18.88250472858978
 21
-75.058734396216906
 31
0.0
 12
-18.879891899652499
 22
-75.070745376997209
 32
0.0
 13
-18.879891899652499
 23
-75.070745376997209
 33
0.0
210
0.0
220
0.0
230
-1.0
  0
SOLID
  5
159D
  8
SAPA_FOGBAND
  6
CONTINUOUS
 10
18.377935780961629
 20
-75.070745376997209
 30
0.0
 11
18.38740794746516
 21
-75.106095983646128
 31
0.0
 12
18.872201845884859
 22
-75.106095983646128
 32
0.0
 13
18.872201845884859
 23
-75.106095983646128
 33
0.0
210
0.0
220
0.0
230
1.0
  0
SOLID
  5
159E
  8
SAPA_FOGBAND
  6
CONTINUOUS
 10
-18.377935780961629
 20
-75.070745376997209
 30
0.0
 11
-18.879891899652499
 21
-75.070745376997209
 31
0.0
 12
-18.872201845884859
 22
-75.106095983646128
 32
0.0
 13
-18.872201845884859
 23
-75.106095983646128
 33
0.0
210
0.0
220
0.0
230
-1.0
  0
SOLID
  5
159F
  8
SAPA_FOGBAND
  6
CONTINUOUS
 10
18.38740794746516
 20
-75.106095983646128
 30
0.0
 11
18.390480549061351
 21
-75.117563088914522
 31
0.0
 12
18.867291345047391
 22
-75.117563088914522
 32
0.0
 13
18.867291345047391
 23
-75.117563088914522
 33
0.0
210
0.0
220
0.0
230
1.0
  0
SOLID
  5
15A0
  8
SAPA_FOGBAND
  6
CONTINUOUS
 10
-18.38740794746516
 20
-75.106095983646128
 30
0.0
 11
-18.872201845884859
 21
-75.106095983646128
 31
0.0
 12
-18.867291345047391
 22
-75.117563088914522
 32
0.0
 13
-18.867291345047391
 23
-75.117563088914522
 33
0.0
210
0.0
220
0.0
230
-1.0
  0
SOLID
  5
15A1
  8
SAPA_FOGBAND
  6
CONTINUOUS
 10
18.390480549061351
 20
-75.117563088914522
 30
0.0
 11
18.40655407764482
 21
-75.150651852118401
 31
0.0
 12
18.853121910336501
 22
-75.150651852118401
 32
0.0
 13
18.853121910336501
 23
-75.150651852118401
 33
0.0
210
0.0
220
0.0
230
1.0
  0
SOLID
  5
15A2
  8
SAPA_FOGBAND
  6
CONTINUOUS
 10
-18.390480549061351
 20
-75.117563088914522
 30
0.0
 11
-18.867291345047391
 21
-75.117563088914522
 31
0.0
 12
-18.853121910336501
 22
-75.150651852118401
 32
0.0
 13
-18.853121910336501
 23
-75.150651852118401
 33
0.0
210
0.0
220
0.0
230
-1.0
  0
SOLID
  5
15A3
  8
SAPA_FOGBAND
  6
CONTINUOUS
 10
18.40655407764482
 20
-75.150651852118401
 30
0.0
 11
18.41165892709742
 21
-75.161160630813228
 31
0.0
 12
18.846009363721858
 22
-75.161160630813228
 32
0.0
 13
18.846009363721858
 23
-75.161160630813228
 33
0.0
210
0.0
220
0.0
230
1.0
  0
SOLID
  5
15A4
  8
SAPA_FOGBAND
  6
CONTINUOUS
 10
-18.40655407764482
 20
-75.150651852118401
 30
0.0
 11
-18.853121910336501
 21
-75.150651852118401
 31
0.0
 12
-18.846009363721858
 22
-75.161160630813228
 32
0.0
 13
-18.846009363721858
 23
-75.161160630813228
 33
0.0
210
0.0
220
0.0
230
-1.0
  0
SOLID
  5
15A5
  8
SAPA_FOGBAND
  6
CONTINUOUS
 10
18.41165892709742
 20
-75.161160630813228
 30
0.0
 11
18.433840420081658
 21
-75.190791636457945
 31
0.0
 12
18.825954520527699
 22
-75.190791636457945
 32
0.0
 13
18.825954520527699
 23
-75.190791636457945
 33
0.0
210
0.0
220
0.0
230
1.0
  0
SOLID
  5
15A6
  8
SAPA_FOGBAND
  6
CONTINUOUS
 10
-18.41165892709742
 20
-75.161160630813228
 30
0.0
 11
-18.846009363721858
 21
-75.161160630813228
 31
0.0
 12
-18.825954520527699
 22
-75.190791636457945
 32
0.0
 13
-18.825954520527699
 23
-75.190791636457945
 33
0.0
210
0.0
220
0.0
230
-1.0
  0
SOLID
  5
15A7
  8
SAPA_FOGBAND
  6
CONTINUOUS
 10
18.433840420081658
 20
-75.190791636457945
 30
0.0
 11
18.440705473307911
 21
-75.199962273936805
 31
0.0
 12
18.816783883048839
 22
-75.199962273936805
 32
0.0
 13
18.816783883048839
 23
-75.199962273936805
 33
0.0
  0
SOLID
  5
15A8
  8
SAPA_FOGBAND
  6
CONTINUOUS
 10
-18.433840420081658
 20
-75.190791636457945
 30
0.0
 11
-18.825954520527699
 21
-75.190791636457945
 31
0.0
 12
-18.816783883048839
 22
-75.199962273936805
 32
0.0
 13
-18.816783883048839
 23
-75.199962273936805
 33
0.0
210
0.0
220
0.0
230
-1.0
  0
SOLID
  5
15A9
  8
SAPA_FOGBAND
  6
CONTINUOUS
 10
18.440705473307911
 20
-75.199962273936805
 30
0.0
 11
18.468318941486949
 21
-75.225064580275543
 31
0.0
 12
18.791681576710111
 22
-75.225064580275543
 32
0.0
 13
18.791681576710111
 23
-75.225064580275543
 33
0.0
  0
SOLID
  5
15AA
  8
SAPA_FOGBAND
  6
CONTINUOUS
 10
-18.440705473307911
 20
-75.199962273936805
 30
0.0
 11
-18.816783883048839
 21
-75.199962273936805
 31
0.0
 12
-18.791681576710111
 22
-75.225064580275543
 32
0.0
 13
-18.791681576710111
 23
-75.225064580275543
 33
0.0
210
0.0
220
0.0
230
-1.0
  0
SOLID
  5
15AB
  8
SAPA_FOGBAND
  6
CONTINUOUS
 10
18.468318941486949
 20
-75.225064580275543
 30
0.0
 11
18.476570369832721
 21
-75.232565625806103
 31
0.0
 12
18.780598791354691
 22
-75.232565625806103
 32
0.0
 13
18.780598791354691
 23
-75.232565625806103
 33
0.0
210
0.0
220
0.0
230
1.0
  0
SOLID
  5
15AC
  8
SAPA_FOGBAND
  6
CONTINUOUS
 10
-18.468318941486949
 20
-75.225064580275543
 30
0.0
 11
-18.791681576710111
 21
-75.225064580275543
 31
0.0
 12
-18.780598791354691
 22
-75.232565625806103
 32
0.0
 13
-18.780598791354691
 23
-75.232565625806103
 33
0.0
210
0.0
220
0.0
230
-1.0
  0
SOLID
  5
15AD
  8
SAPA_FOGBAND
  6
CONTINUOUS
 10
18.476570369832721
 20
-75.232565625806103
 30
0.0
 11
18.508835042506782
 21
-75.252231970084338
 31
0.0
 12
18.751541792370571
 22
-75.252231970084338
 32
0.0
 13
18.751541792370571
 23
-75.252231970084338
 33
0.0
210
0.0
220
0.0
230
1.0
  0
SOLID
  5
15AE
  8
SAPA_FOGBAND
  6
CONTINUOUS
 10
-18.476570369832721
 20
-75.232565625806103
 30
0.0
 11
-18.780598791354691
 21
-75.232565625806103
 31
0.0
 12
-18.751541792370571
 22
-75.252231970084338
 32
0.0
 13
-18.751541792370571
 23
-75.252231970084338
 33
0.0
210
0.0
220
0.0
230
-1.0
  0
SOLID
  5
15AF
  8
SAPA_FOGBAND
  6
CONTINUOUS
 10
18.508835042506782
 20
-75.252231970084338
 30
0.0
 11
18.51795736586638
 21
-75.25779231633733
 31
0.0
 12
18.73855715436272
 22
-75.25779231633733
 32
0.0
 13
18.73855715436272
 23
-75.25779231633733
 33
0.0
210
0.0
220
0.0
230
1.0
  0
SOLID
  5
15B0
  8
SAPA_FOGBAND
  6
CONTINUOUS
 10
-18.508835042506782
 20
-75.252231970084338
 30
0.0
 11
-18.751541792370571
 21
-75.252231970084338
 31
0.0
 12
-18.73855715436272
 22
-75.25779231633733
 32
0.0
 13
-18.73855715436272
 23
-75.25779231633733
 33
0.0
210
0.0
220
0.0
230
-1.0
  0
SOLID
  5
15B1
  8
SAPA_FOGBAND
  6
CONTINUOUS
 10
18.51795736586638
 20
-75.25779231633733
 30
0.0
 11
18.5542047875247
 21
-75.2713119056327
 31
0.0
 12
18.706985923898291
 22
-75.2713119056327
 32
0.0
 13
18.706985923898291
 23
-75.2713119056327
 33
0.0
210
0.0
220
0.0
230
1.0
  0
SOLID
  5
15B2
  8
SAPA_FOGBAND
  6
CONTINUOUS
 10
-18.51795736586638
 20
-75.25779231633733
 30
0.0
 11
-18.73855715436272
 21
-75.25779231633733
 31
0.0
 12
-18.706985923898291
 22
-75.2713119056327
 32
0.0
 13
-18.706985923898291
 23
-75.2713119056327
 33
0.0
210
0.0
220
0.0
230
-1.0
  0
SOLID
  5
15B3
  8
SAPA_FOGBAND
  6
CONTINUOUS
 10
18.5542047875247
 20
-75.2713119056327
 30
0.0
 11
18.563370627539449
 21
-75.274730587207202
 31
0.0
 12
18.691270498330439
 22
-75.274730587207202
 32
0.0
 13
18.691270498330439
 23
-75.274730587207202
 33
0.0
210
0.0
220
0.0
230
1.0
  0
SOLID
  5
15B4
  8
SAPA_FOGBAND
  6
CONTINUOUS
 10
-18.5542047875247
 20
-75.2713119056327
 30
0.0
 11
-18.706985923898291
 21
-75.2713119056327
 31
0.0
 12
-18.691270498330439
 22
-75.274730587207202
 32
0.0
 13
-18.691270498330439
 23
-75.274730587207202
 33
0.0
210
0.0
220
0.0
230
-1.0
  0
SOLID
  5
15B5
  8
SAPA_FOGBAND
  6
CONTINUOUS
 10
18.563370627539449
 20
-75.274730587207202
 30
0.0
 11
18.604309448630438
 21
-75.28161478833762
 31
0.0
 12
18.659624336469061
 22
-75.28161478833762
 32
0.0
 13
18.659624336469061
 23
-75.28161478833762
 33
0.0
  0
SOLID
  5
15B6
  8
SAPA_FOGBAND
  6
CONTINUOUS
 10
-18.563370627539449
 20
-75.274730587207202
 30
0.0
 11
-18.691270498330439
 21
-75.274730587207202
 31
0.0
 12
-18.659624336469061
 22
-75.28161478833762
 32
0.0
 13
-18.659624336469061
 23
-75.28161478833762
 33
0.0
210
0.0
220
0.0
230
-1.0
  0
SOLID
  5
15B7
  8
SAPA_FOGBAND
  6
CONTINUOUS
 10
-18.604309448630438
 20
-75.28161478833762
 30
0.0
 11
-18.659624336469061
 21
-75.28161478833762
 31
0.0
 12
-18.611168801251981
 22
-75.282768245174253
 32
0.0
 13
-18.611168801251981
 23
-75.282768245174253
 33
0.0
210
0.0
220
0.0
230
-1.0
  0
LINE
  5
15B8
  8
SAPA_FOGBAND
  6
CONTINUOUS
 10
18.62328954940449
 20
-74.773588083150315
 30
0.0
 11
18.594369982301401
 21
-74.777045840709476
 31
0.0
  0
LINE
  5
15B9
  8
SAPA_FOGBAND
  6
CONTINUOUS
 10
18.671635317249361
 20
-74.777045840709476
 30
0.0
 11
18.62328954940449
 21
-74.773588083150315
 31
0.0
  0
LINE
  5
15BA
  8
SAPA_FOGBAND
  6
CONTINUOUS
 10
18.594369982301401
 20
-74.777045840709476
 30
0.0
 11
18.575163067645651
 21
-74.779342308498997
 31
0.0
  0
LINE
  5
15BB
  8
SAPA_FOGBAND
  6
CONTINUOUS
 10
18.671635317249361
 20
-74.777045840709476
 30
0.0
 11
18.680205851717801
 21
-74.779342308498997
 31
0.0
  0
LINE
  5
15BC
  8
SAPA_FOGBAND
  6
CONTINUOUS
 10
18.575163067645651
 20
-74.779342308498997
 30
0.0
 11
18.54310359385018
 21
-74.789590608809192
 31
0.0
  0
LINE
  5
15BD
  8
SAPA_FOGBAND
  6
CONTINUOUS
 10
18.680205851717801
 20
-74.779342308498997
 30
0.0
 11
18.718453029166682
 21
-74.789590608809192
 31
0.0
  0
LINE
  5
15BE
  8
SAPA_FOGBAND
  6
CONTINUOUS
 10
18.54310359385018
 20
-74.789590608809192
 30
0.0
 11
18.52899528841591
 21
-74.794100544058935
 31
0.0
  0
LINE
  5
15BF
  8
SAPA_FOGBAND
  6
CONTINUOUS
 10
18.718453029166682
 20
-74.789590608809192
 30
0.0
 11
18.72773712498724
 21
-74.794100544058935
 31
0.0
  0
LINE
  5
15C0
  8
SAPA_FOGBAND
  6
CONTINUOUS
 10
18.52899528841591
 20
-74.794100544058935
 30
0.0
 11
18.498469314594882
 21
-74.810768986845275
 31
0.0
  0
LINE
  5
15C1
  8
SAPA_FOGBAND
  6
CONTINUOUS
 10
18.72773712498724
 20
-74.794100544058935
 30
0.0
 11
18.76205057106538
 21
-74.810768986845275
 31
0.0
  0
LINE
  5
15C2
  8
SAPA_FOGBAND
  6
CONTINUOUS
 10
18.498469314594882
 20
-74.810768986845275
 30
0.0
 11
18.486454835545629
 21
-74.817329388744795
 31
0.0
  0
LINE
  5
15C3
  8
SAPA_FOGBAND
  6
CONTINUOUS
 10
18.76205057106538
 20
-74.810768986845275
 30
0.0
 11
18.77081424201641
 21
-74.817329388744795
 31
0.0
  0
LINE
  5
15C4
  8
SAPA_FOGBAND
  6
CONTINUOUS
 10
18.486454835545629
 20
-74.817329388744795
 30
0.0
 11
18.45922100973198
 21
-74.839815533055756
 31
0.0
  0
LINE
  5
15C5
  8
SAPA_FOGBAND
  6
CONTINUOUS
 10
18.77081424201641
 20
-74.817329388744795
 30
0.0
 11
18.800852214188961
 21
-74.839815533055756
 31
0.0
  0
LINE
  5
15C6
  8
SAPA_FOGBAND
  6
CONTINUOUS
 10
18.45922100973198
 20
-74.839815533055756
 30
0.0
 11
18.449079231839601
 21
-74.848189291587445
 31
0.0
  0
LINE
  5
15C7
  8
SAPA_FOGBAND
  6
CONTINUOUS
 10
18.800852214188961
 20
-74.839815533055756
 30
0.0
 11
18.80846446522915
 21
-74.848189291587445
 31
0.0
  0
LINE
  5
15C8
  8
SAPA_FOGBAND
  6
CONTINUOUS
 10
18.449079231839601
 20
-74.848189291587445
 30
0.0
 11
18.426380632663129
 21
-74.875680429580569
 31
0.0
  0
LINE
  5
15C9
  8
SAPA_FOGBAND
  6
CONTINUOUS
 10
18.80846446522915
 20
-74.848189291587445
 30
0.0
 11
18.833455566058259
 21
-74.875680429580569
 31
0.0
  0
LINE
  5
15CA
  8
SAPA_FOGBAND
  6
CONTINUOUS
 10
18.426380632663129
 20
-74.875680429580569
 30
0.0
 11
18.418219328996951
 21
-74.88556489529347
 31
0.0
  0
LINE
  5
15CB
  8
SAPA_FOGBAND
  6
CONTINUOUS
 10
18.833455566058259
 20
-74.875680429580569
 30
0.0
 11
18.839480462318019
 21
-74.88556489529347
 31
0.0
  0
LINE
  5
15CC
  8
SAPA_FOGBAND
  6
CONTINUOUS
 10
18.418219328996951
 20
-74.88556489529347
 30
0.0
 11
18.401017646018548
 21
-74.917067425614221
 31
0.0
  0
LINE
  5
15CD
  8
SAPA_FOGBAND
  6
CONTINUOUS
 10
18.839480462318019
 20
-74.88556489529347
 30
0.0
 11
18.858682256589489
 21
-74.917067425614221
 31
0.0
  0
LINE
  5
15CE
  8
SAPA_FOGBAND
  6
CONTINUOUS
 10
18.401017646018548
 20
-74.917067425614221
 30
0.0
 11
18.394990484311101
 21
-74.928105348163754
 31
0.0
  0
LINE
  5
15CF
  8
SAPA_FOGBAND
  6
CONTINUOUS
 10
18.858682256589489
 20
-74.917067425614221
 30
0.0
 11
18.86279918884885
 21
-74.928105348163754
 31
0.0
  0
LINE
  5
15D0
  8
SAPA_FOGBAND
  6
CONTINUOUS
 10
18.394990484311101
 20
-74.928105348163754
 30
0.0
 11
18.384001882288171
 21
-74.962480687287297
 31
0.0
  0
LINE
  5
15D1
  8
SAPA_FOGBAND
  6
CONTINUOUS
 10
18.86279918884885
 20
-74.928105348163754
 30
0.0
 11
18.875620527459361
 21
-74.962480687287297
 31
0.0
  0
LINE
  5
15D2
  8
SAPA_FOGBAND
  6
CONTINUOUS
 10
18.384001882288171
 20
-74.962480687287297
 30
0.0
 11
18.38023224875116
 21
-74.974273127393488
 31
0.0
  0
LINE
  5
15D3
  8
SAPA_FOGBAND
  6
CONTINUOUS
 10
18.875620527459361
 20
-74.962480687287297
 30
0.0
 11
18.877603523729061
 21
-74.974273127393488
 31
0.0
  0
LINE
  5
15D4
  8
SAPA_FOGBAND
  6
CONTINUOUS
 10
18.38023224875116
 20
-74.974273127393488
 30
0.0
 11
18.375927236262321
 21
-75.010278860999819
 31
0.0
  0
LINE
  5
15D5
  8
SAPA_FOGBAND
  6
CONTINUOUS
 10
18.877603523729061
 20
-74.974273127393488
 30
0.0
 11
18.883658185426409
 21
-75.010278860999819
 31
0.0
  0
LINE
  5
15D6
  8
SAPA_FOGBAND
  6
CONTINUOUS
 10
18.375927236262321
 20
-75.010278860999819
 30
0.0
 11
18.374478023402471
 21
-75.02239960915233
 31
0.0
  0
LINE
  5
15D7
  8
SAPA_FOGBAND
  6
CONTINUOUS
 10
18.883658185426409
 20
-75.010278860999819
 30
0.0
 11
18.88336965781529
 21
-75.02239960915233
 31
0.0
  0
LINE
  5
15D8
  8
SAPA_FOGBAND
  6
CONTINUOUS
 10
18.374478023402471
 20
-75.02239960915233
 30
0.0
 11
18.377076738662019
 21
-75.058734396216906
 31
0.0
  0
LINE
  5
15D9
  8
SAPA_FOGBAND
  6
CONTINUOUS
 10
18.88336965781529
 20
-75.02239960915233
 30
0.0
 11
18.88250472858978
 21
-75.058734396216906
 31
0.0
  0
LINE
  5
15DA
  8
SAPA_FOGBAND
  6
CONTINUOUS
 10
18.377076738662019
 20
-75.058734396216906
 30
0.0
 11
18.377935780961629
 21
-75.070745376997209
 31
0.0
  0
LINE
  5
15DB
  8
SAPA_FOGBAND
  6
CONTINUOUS
 10
18.88250472858978
 20
-75.058734396216906
 30
0.0
 11
18.879891899652499
 21
-75.070745376997209
 31
0.0
  0
LINE
  5
15DC
  8
SAPA_FOGBAND
  6
CONTINUOUS
 10
18.377935780961629
 20
-75.070745376997209
 30
0.0
 11
18.38740794746516
 21
-75.106095983646128
 31
0.0
  0
LINE
  5
15DD
  8
SAPA_FOGBAND
  6
CONTINUOUS
 10
18.879891899652499
 20
-75.070745376997209
 30
0.0
 11
18.872201845884859
 21
-75.106095983646128
 31
0.0
  0
LINE
  5
15DE
  8
SAPA_FOGBAND
  6
CONTINUOUS
 10
18.38740794746516
 20
-75.106095983646128
 30
0.0
 11
18.390480549061351
 21
-75.117563088914522
 31
0.0
  0
LINE
  5
15DF
  8
SAPA_FOGBAND
  6
CONTINUOUS
 10
18.872201845884859
 20
-75.106095983646128
 30
0.0
 11
18.867291345047391
 21
-75.117563088914522
 31
0.0
  0
LINE
  5
15E0
  8
SAPA_FOGBAND
  6
CONTINUOUS
 10
18.390480549061351
 20
-75.117563088914522
 30
0.0
 11
18.40655407764482
 21
-75.150651852118401
 31
0.0
  0
LINE
  5
15E1
  8
SAPA_FOGBAND
  6
CONTINUOUS
 10
18.867291345047391
 20
-75.117563088914522
 30
0.0
 11
18.853121910336501
 21
-75.150651852118401
 31
0.0
  0
LINE
  5
15E2
  8
SAPA_FOGBAND
  6
CONTINUOUS
 10
18.40655407764482
 20
-75.150651852118401
 30
0.0
 11
18.41165892709742
 21
-75.161160630813228
 31
0.0
  0
LINE
  5
15E3
  8
SAPA_FOGBAND
  6
CONTINUOUS
 10
18.853121910336501
 20
-75.150651852118401
 30
0.0
 11
18.846009363721858
 21
-75.161160630813228
 31
0.0
  0
LINE
  5
15E4
  8
SAPA_FOGBAND
  6
CONTINUOUS
 10
18.41165892709742
 20
-75.161160630813228
 30
0.0
 11
18.433840420081658
 21
-75.190791636457945
 31
0.0
  0
LINE
  5
15E5
  8
SAPA_FOGBAND
  6
CONTINUOUS
 10
18.846009363721858
 20
-75.161160630813228
 30
0.0
 11
18.825954520527699
 21
-75.190791636457945
 31
0.0
  0
LINE
  5
15E6
  8
SAPA_FOGBAND
  6
CONTINUOUS
 10
18.433840420081658
 20
-75.190791636457945
 30
0.0
 11
18.440705473307911
 21
-75.199962273936805
 31
0.0
  0
LINE
  5
15E7
  8
SAPA_FOGBAND
  6
CONTINUOUS
 10
18.825954520527699
 20
-75.190791636457945
 30
0.0
 11
18.816783883048839
 21
-75.199962273936805
 31
0.0
  0
LINE
  5
15E8
  8
SAPA_FOGBAND
  6
CONTINUOUS
 10
18.440705473307911
 20
-75.199962273936805
 30
0.0
 11
18.468318941486949
 21
-75.225064580275543
 31
0.0
  0
LINE
  5
15E9
  8
SAPA_FOGBAND
  6
CONTINUOUS
 10
18.816783883048839
 20
-75.199962273936805
 30
0.0
 11
18.791681576710111
 21
-75.225064580275543
 31
0.0
  0
LINE
  5
15EA
  8
SAPA_FOGBAND
  6
CONTINUOUS
 10
18.468318941486949
 20
-75.225064580275543
 30
0.0
 11
18.476570369832721
 21
-75.232565625806103
 31
0.0
  0
LINE
  5
15EB
  8
SAPA_FOGBAND
  6
CONTINUOUS
 10
18.791681576710111
 20
-75.225064580275543
 30
0.0
 11
18.780598791354691
 21
-75.232565625806103
 31
0.0
  0
LINE
  5
15EC
  8
SAPA_FOGBAND
  6
CONTINUOUS
 10
18.476570369832721
 20
-75.232565625806103
 30
0.0
 11
18.508835042506782
 21
-75.252231970084338
 31
0.0
  0
LINE
  5
15ED
  8
SAPA_FOGBAND
  6
CONTINUOUS
 10
18.780598791354691
 20
-75.232565625806103
 30
0.0
 11
18.751541792370571
 21
-75.252231970084338
 31
0.0
  0
LINE
  5
15EE
  8
SAPA_FOGBAND
  6
CONTINUOUS
 10
18.508835042506782
 20
-75.252231970084338
 30
0.0
 11
18.51795736586638
 21
-75.25779231633733
 31
0.0
  0
LINE
  5
15EF
  8
SAPA_FOGBAND
  6
CONTINUOUS
 10
18.751541792370571
 20
-75.252231970084338
 30
0.0
 11
18.73855715436272
 21
-75.25779231633733
 31
0.0
  0
LINE
  5
15F0
  8
SAPA_FOGBAND
  6
CONTINUOUS
 10
18.51795736586638
 20
-75.25779231633733
 30
0.0
 11
18.5542047875247
 21
-75.2713119056327
 31
0.0
  0
LINE
  5
15F1
  8
SAPA_FOGBAND
  6
CONTINUOUS
 10
18.73855715436272
 20
-75.25779231633733
 30
0.0
 11
18.706985923898291
 21
-75.2713119056327
 31
0.0
  0
LINE
  5
15F2
  8
SAPA_FOGBAND
  6
CONTINUOUS
 10
18.5542047875247
 20
-75.2713119056327
 30
0.0
 11
18.563370627539449
 21
-75.274730587207202
 31
0.0
  0
LINE
  5
15F3
  8
SAPA_FOGBAND
  6
CONTINUOUS
 10
18.706985923898291
 20
-75.2713119056327
 30
0.0
 11
18.691270498330439
 21
-75.274730587207202
 31
0.0
  0
LINE
  5
15F4
  8
SAPA_FOGBAND
  6
CONTINUOUS
 10
18.563370627539449
 20
-75.274730587207202
 30
0.0
 11
18.604309448630438
 21
-75.28161478833762
 31
0.0
  0
LINE
  5
15F5
  8
SAPA_FOGBAND
  6
CONTINUOUS
 10
18.691270498330439
 20
-75.274730587207202
 30
0.0
 11
18.659624336469061
 21
-75.28161478833762
 31
0.0
  0
LINE
  5
15F6
  8
SAPA_FOGBAND
  6
CONTINUOUS
 10
18.659624336469061
 20
-75.28161478833762
 30
0.0
 11
18.611168801251981
 21
-75.282768245174253
 31
0.0
  0
LINE
  5
15F7
  8
SAPA_FOGBAND
  6
CONTINUOUS
 10
18.611168801251981
 20
-75.282768245174253
 30
0.0
 11
18.604309448630438
 21
-75.28161478833762
 31
0.0
  0
ENDBLK
  5
15F9
  8
0
  0
ENDSEC
  0
SECTION
  2
ENTITIES
  0
INSERT
  5
6EE
  8
0
  2
*U28
 10
0.0
 20
0.0
 30
0.0
  0
INSERT
  5
6EF
  8
0
  2
*U29
 10
0.0
 20
0.0
 30
0.0
  0
INSERT
  5
6F0
  8
0
  2
*U30
 10
0.0
 20
0.0
 30
0.0
  0
POLYLINE
  5
710
  8
SAPA_LIGHT
 66
     1
 10
0.0
 20
0.0
 30
0.0
 70
     1
  0
VERTEX
  5
C81
  8
SAPA_LIGHT
 10
-24.999999999999829
 20
-45.499999999010313
 30
0.0
  0
VERTEX
  5
C82
  8
SAPA_LIGHT
 10
-25.000000000000231
 20
64.499999999998863
 30
0.0
  0
VERTEX
  5
C83
  8
SAPA_LIGHT
 10
24.999999999999769
 20
64.499999999998863
 30
0.0
  0
VERTEX
  5
C84
  8
SAPA_LIGHT
 10
24.999999999999769
 20
-45.499999999010313
 30
0.0
  0
VERTEX
  5
C85
  8
SAPA_LIGHT
 10
4.9999999999997717
 20
-45.499999999010313
 30
0.0
  0
VERTEX
  5
C86
  8
SAPA_LIGHT
 10
4.9999999999995453
 20
-72.499999999011948
 30
0.0
  0
VERTEX
  5
C87
  8
SAPA_LIGHT
 10
25.000000000000341
 20
-72.499999999011948
 30
0.0
  0
VERTEX
  5
C88
  8
SAPA_LIGHT
 10
25.000000000000341
 20
-106.5011113138323
 30
0.0
  0
VERTEX
  5
C89
  8
SAPA_LIGHT
 10
-24.999999999999648
 20
-106.5011113138323
 30
0.0
  0
VERTEX
  5
C8A
  8
SAPA_LIGHT
 10
-24.999999999999751
 20
-72.499999999011948
 30
0.0
  0
VERTEX
  5
C8B
  8
SAPA_LIGHT
 10
-5.0000000000001981
 20
-72.499999999011948
 30
0.0
  0
VERTEX
  5
C8C
  8
SAPA_LIGHT
 10
-5.0000000000002274
 20
-45.499999999010313
 30
0.0
  0
SEQEND
  5
C8D
  8
SAPA_LIGHT
  0
POLYLINE
  5
7B1
  8
SAPA_LIGHT
 66
     1
 10
0.0
 20
0.0
 30
0.0
  0
VERTEX
  5
C8E
  8
SAPA_LIGHT
 10
-40.885840942752218
 20
-43.69269819402075
 30
0.0
  0
VERTEX
  5
C8F
  8
SAPA_LIGHT
 10
-11.000000000000581
 20
-46.307370476454892
 30
0.0
  0
VERTEX
  5
C90
  8
SAPA_LIGHT
 10
-13.35320505418724
 20
-73.204627324928197
 30
0.0
  0
VERTEX
  5
C91
  8
SAPA_LIGHT
 10
-43.239045996939353
 20
-70.589955042499469
 30
0.0
  0
SEQEND
  5
C92
  8
SAPA_LIGHT
  0
POLYLINE
  5
7B2
  8
SAPA_LIGHT
 66
     1
 10
0.0
 20
0.0
 30
0.0
  0
VERTEX
  5
C93
  8
SAPA_LIGHT
 10
40.885840942752218
 20
-43.69269819402075
 30
0.0
  0
VERTEX
  5
C94
  8
SAPA_LIGHT
 10
11.000000000000581
 20
-46.307370476454892
 30
0.0
  0
VERTEX
  5
C95
  8
SAPA_LIGHT
 10
13.35320505418724
 20
-73.204627324928197
 30
0.0
  0
VERTEX
  5
C96
  8
SAPA_LIGHT
 10
43.239045996939353
 20
-70.589955042499469
 30
0.0
  0
SEQEND
  5
C97
  8
SAPA_LIGHT
  0
POLYLINE
  5
B77
  8
SAPA_PROFIL
 66
     1
 10
0.0
 20
0.0
 30
0.0
 70
     1
  0
VERTEX
  5
1161
  8
SAPA_PROFIL
 10
21.94001927505278
 20
-82.368098611940013
 30
0.0
  0
VERTEX
  5
1162
  8
SAPA_PROFIL
 10
22.671514732675028
 20
-81.298981538608913
 30
0.0
  0
VERTEX
  5
1163
  8
SAPA_PROFIL
 10
24.037481937550378
 20
-81.298981538608913
 30
0.0
  0
VERTEX
  5
1164
  8
SAPA_PROFIL
 10
24.037481937550378
 20
-78.501111313832325
 30
0.0
 42
-0.4142135623730951
  0
VERTEX
  5
1165
  8
SAPA_PROFIL
 10
24.537481937550378
 20
-78.001111313832325
 30
0.0
  0
VERTEX
  5
1166
  8
SAPA_PROFIL
 10
24.999999999999289
 20
-78.001111313832325
 30
0.0
  0
VERTEX
  5
1167
  8
SAPA_PROFIL
 10
24.999999999999289
 20
-106.0011113138323
 30
0.0
 42
-0.4142135623730951
  0
VERTEX
  5
1168
  8
SAPA_PROFIL
 10
24.499999999999289
 20
-106.5011113138323
 30
0.0
  0
VERTEX
  5
1169
  8
SAPA_PROFIL
 10
-24.500000000000512
 20
-106.5011113138323
 30
0.0
 42
-0.4142135623730951
  0
VERTEX
  5
116A
  8
SAPA_PROFIL
 10
-25.000000000000512
 20
-106.0011113138323
 30
0.0
  0
VERTEX
  5
116B
  8
SAPA_PROFIL
 10
-25.000000000000512
 20
-78.001111313832325
 30
0.0
  0
VERTEX
  5
116C
  8
SAPA_PROFIL
 10
-24.537481937551579
 20
-78.001111313832325
 30
0.0
 42
-0.4142135623730951
  0
VERTEX
  5
116D
  8
SAPA_PROFIL
 10
-24.037481937551579
 20
-78.501111313832325
 30
0.0
  0
VERTEX
  5
116E
  8
SAPA_PROFIL
 10
-24.037481937551579
 20
-81.298981538608913
 30
0.0
  0
VERTEX
  5
116F
  8
SAPA_PROFIL
 10
-22.671514732676261
 20
-81.298981538608913
 30
0.0
  0
VERTEX
  5
1170
  8
SAPA_PROFIL
 10
-21.940019275053999
 20
-82.368098611940013
 30
0.0
 42
-0.4142135623730888
  0
VERTEX
  5
1171
  8
SAPA_PROFIL
 10
-22.123031976946208
 20
-83.051111313832266
 30
0.0
  0
VERTEX
  5
1172
  8
SAPA_PROFIL
 10
-23.7000000000005
 20
-84.06059830352649
 30
0.0
  0
VERTEX
  5
1173
  8
SAPA_PROFIL
 10
-23.7000000000005
 20
-104.10111131383231
 30
0.0
 42
0.4142135623730951
  0
VERTEX
  5
1174
  8
SAPA_PROFIL
 10
-22.7000000000005
 20
-105.10111131383231
 30
0.0
  0
VERTEX
  5
1175
  8
SAPA_PROFIL
 10
22.699999999999282
 20
-105.10111131383231
 30
0.0
 42
0.4142135623730951
  0
VERTEX
  5
1176
  8
SAPA_PROFIL
 10
23.699999999999282
 20
-104.10111131383231
 30
0.0
  0
VERTEX
  5
1177
  8
SAPA_PROFIL
 10
23.699999999999282
 20
-84.06059830352649
 30
0.0
  0
VERTEX
  5
1178
  8
SAPA_PROFIL
 10
22.12303197694499
 20
-83.051111313832266
 30
0.0
 42
-0.4142135623731117
  0
SEQEND
  5
1179
  8
SAPA_PROFIL
  0
LINE
  5
B78
  8
SAPA_PROFIL
 10
-23.300000000000072
 20
-76.49999999901047
 30
0.0
 11
-20.85000000000025
 21
-76.49999999901047
 31
0.0
  0
ARC
  5
B79
  8
SAPA_PROFIL
 10
-23.300000000000072
 20
-76.99999999901047
 30
0.0
 40
0.5
 50
90.0
 51
180.0
  0
LINE
  5
B7A
  8
SAPA_PROFIL
 10
-23.800000000000519
 20
-80.699999999010274
 30
0.0
 11
-23.800000000000072
 21
-76.99999999901047
 31
0.0
  0
ARC
  5
B7B
  8
SAPA_PROFIL
 10
-23.500000000000341
 20
-80.699999999010274
 30
0.0
 40
0.3000000000001819
 50
180.0
 51
270.0
  0
LINE
  5
B7C
  8
SAPA_PROFIL
 10
-22.473205080757339
 20
-80.99999999901047
 30
0.0
 11
-23.500000000000341
 21
-80.99999999901047
 31
0.0
  0
ARC
  5
B7D
  8
SAPA_PROFIL
 10
-22.473205080757449
 20
-81.299999999010396
 30
0.0
 40
0.2999999999999225
 50
29.9999999999722
 51
89.999999999978314
  0
LINE
  5
B7E
  8
SAPA_PROFIL
 10
-21.325961894323768
 20
-82.687083486550804
 30
0.0
 11
-22.213397459622112
 21
-81.149999999010575
 31
0.0
  0
ARC
  5
B7F
  8
SAPA_PROFIL
 10
-21.585769515458949
 20
-82.837083486550924
 30
0.0
 40
0.2999999999999183
 50
300.00000000001972
 51
30.000000000031779
  0
LINE
  5
B80
  8
SAPA_PROFIL
 10
-21.967911113762401
 20
-83.404123202713436
 30
0.0
 11
-21.435769515458901
 21
-83.096891107686133
 31
0.0
  0
ARC
  5
B81
  8
SAPA_PROFIL
 10
-21.46791111376243
 20
-84.270148606497614
 30
0.0
 40
0.9999999999997509
 50
120.00000000000639
 51
220.0000000000266
  0
LINE
  5
B82
  8
SAPA_PROFIL
 10
-18.115270605417091
 20
-89.821393803853425
 30
0.0
 11
-22.233955556880911
 21
-84.912936216184335
 31
0.0
  0
ARC
  5
B83
  8
SAPA_PROFIL
 10
-17.732248383857339
 20
-89.499999999010456
 30
0.0
 40
0.5000000000000142
 50
219.99999999995401
 51
269.99999999994299
  0
LINE
  5
B84
  8
SAPA_PROFIL
 10
-9.7002075382096091
 20
-89.999999999010484
 30
0.0
 11
-17.732248383857829
 21
-89.999999999010484
 31
0.0
  0
ARC
  5
B85
  8
SAPA_PROFIL
 10
-9.7002075382096837
 20
-88.999999999010342
 30
0.0
 40
1.000000000000131
 50
270.00000000000409
 51
340.00000000000529
  0
LINE
  5
B86
  8
SAPA_PROFIL
 10
-7.4196339112453407
 20
-85.657979855684516
 30
0.0
 11
-8.7605149174236203
 21
-89.342020142335954
 31
0.0
  0
ARC
  5
B87
  8
SAPA_PROFIL
 10
-6.4799412904592639
 20
-85.999999999010171
 30
0.0
 40
1.0000000000001561
 50
90.000000000004917
 51
160.00000000000401
  0
LINE
  5
B88
  8
SAPA_PROFIL
 10
6.4799412904591227
 20
-84.999999999010015
 30
0.0
 11
-6.4799412904593501
 21
-84.999999999010015
 31
0.0
  0
ARC
  5
B89
  8
SAPA_PROFIL
 10
6.4799412904590374
 20
-85.999999999010171
 30
0.0
 40
1.000000000000153
 50
19.999999999995971
 51
89.999999999995069
  0
LINE
  5
B8A
  8
SAPA_PROFIL
 10
8.7605149174238477
 20
-89.342020142335954
 30
0.0
 11
7.4196339112451142
 21
-85.657979855684516
 31
0.0
  0
ARC
  5
B8B
  8
SAPA_PROFIL
 10
9.7002075382099111
 20
-88.999999999010342
 30
0.0
 40
1.000000000000127
 50
199.99999999999471
 51
269.99999999999579
  0
LINE
  5
B8C
  8
SAPA_PROFIL
 10
17.732248383857609
 20
-89.999999999010484
 30
0.0
 11
9.7002075382098383
 21
-89.999999999010484
 31
0.0
  0
ARC
  5
B8D
  8
SAPA_PROFIL
 10
17.732248383857339
 20
-89.499999999009972
 30
0.0
 40
0.5000000000004964
 50
270.00000000003092
 51
320.00000000002029
  0
LINE
  5
B8E
  8
SAPA_PROFIL
 10
22.233955556881138
 20
-84.912936216184335
 30
0.0
 11
18.115270605417319
 21
-89.821393803853425
 31
0.0
  0
ARC
  5
B8F
  8
SAPA_PROFIL
 10
21.46791111376243
 20
-84.270148606497798
 30
0.0
 40
0.9999999999998065
 50
319.99999999999051
 51
60.00000000001053
  0
LINE
  5
B90
  8
SAPA_PROFIL
 10
21.435769515459128
 20
-83.096891107686133
 30
0.0
 11
21.96791111376217
 21
-83.404123202713436
 31
0.0
  0
ARC
  5
B91
  8
SAPA_PROFIL
 10
21.585769515458939
 20
-82.837083486550696
 30
0.0
 40
0.2999999999999962
 50
150.00000000002649
 51
240.00000000004141
  0
LINE
  5
B92
  8
SAPA_PROFIL
 10
22.213397459621891
 20
-81.149999999010575
 30
0.0
 11
21.325961894323541
 21
-82.687083486550804
 31
0.0
  0
ARC
  5
B93
  8
SAPA_PROFIL
 10
22.473205080757229
 20
-81.299999999010396
 30
0.0
 40
0.2999999999999261
 50
90.000000000023064
 51
150.00000000002851
  0
LINE
  5
B94
  8
SAPA_PROFIL
 10
23.500000000000568
 20
-80.99999999901047
 30
0.0
 11
22.473205080757111
 21
-80.99999999901047
 31
0.0
  0
ARC
  5
B95
  8
SAPA_PROFIL
 10
23.500000000000341
 20
-80.699999999010515
 30
0.0
 40
0.2999999999999545
 50
270.00000000004343
 51
0.0000000000434252
  0
LINE
  5
B96
  8
SAPA_PROFIL
 10
23.800000000000299
 20
-76.99999999901047
 30
0.0
 11
23.800000000000299
 21
-80.699999999010274
 31
0.0
  0
ARC
  5
B97
  8
SAPA_PROFIL
 10
23.300000000000299
 20
-76.99999999901047
 30
0.0
 40
0.5
 50
0.0
 51
90.0
  0
LINE
  5
B98
  8
SAPA_PROFIL
 10
20.850000000000019
 20
-76.49999999901047
 30
0.0
 11
23.300000000000299
 21
-76.49999999901047
 31
0.0
  0
ARC
  5
B99
  8
SAPA_PROFIL
 10
20.849999999999909
 20
-76.799999999010154
 30
0.0
 40
0.2999999999996829
 50
89.999999999978314
 51
134.99999999999039
  0
LINE
  5
B9A
  8
SAPA_PROFIL
 10
20.237867965644121
 20
-76.98786796465447
 30
0.0
 11
20.637867965644201
 21
-76.587867964654379
 31
0.0
  0
ARC
  5
B9B
  8
SAPA_PROFIL
 10
20.450000000000291
 20
-77.199999999010373
 30
0.0
 40
0.3000000000000966
 50
135.00000000003641
 51
270.00000000001899
  0
LINE
  5
B9C
  8
SAPA_PROFIL
 10
21.300000000000299
 20
-77.49999999901047
 30
0.0
 11
20.45000000000039
 21
-77.49999999901047
 31
0.0
  0
ARC
  5
B9D
  8
SAPA_PROFIL
 10
21.300000000000239
 20
-77.999999999010527
 30
0.0
 40
0.500000000000057
 50
0.0000000000065138
 51
89.999999999993491
  0
LINE
  5
B9E
  8
SAPA_PROFIL
 10
21.799999999999841
 20
-78.390808928730621
 30
0.0
 11
21.800000000000288
 21
-77.999999999010456
 31
0.0
  0
ARC
  5
B9F
  8
SAPA_PROFIL
 10
21.500000000000099
 20
-78.390808928730578
 30
0.0
 40
0.2999999999997442
 50
319.99999999999528
 51
359.99999999999193
  0
LINE
  5
BA0
  8
SAPA_PROFIL
 10
20.211721773134862
 20
-80.392836281916061
 30
0.0
 11
21.729813332935581
 21
-78.583645211636394
 31
0.0
  0
ARC
  5
BA1
  8
SAPA_PROFIL
 10
19.981908440199369
 20
-80.199999999010288
 30
0.0
 40
0.2999999999997129
 50
270.00000000000409
 51
320.00000000000409
  0
LINE
  5
BA2
  8
SAPA_PROFIL
 10
16.450000000000379
 20
-80.499999999010456
 30
0.0
 11
19.98190844019939
 21
-80.499999999010015
 31
0.0
  0
ARC
  5
BA3
  8
SAPA_PROFIL
 10
16.450000000000379
 20
-80.199999999010288
 30
0.0
 40
0.3000000000001819
 50
180.0
 51
270.0
  0
LINE
  5
BA4
  8
SAPA_PROFIL
 10
16.150000000000201
 20
-77.799999999010197
 30
0.0
 11
16.150000000000201
 21
-80.199999999010288
 31
0.0
  0
ARC
  5
BA5
  8
SAPA_PROFIL
 10
16.450000000000159
 20
-77.799999999010424
 30
0.0
 40
0.2999999999999545
 50
89.999999999956557
 51
179.99999999995649
  0
LINE
  5
BA6
  8
SAPA_PROFIL
 10
16.850000000000019
 20
-77.49999999901047
 30
0.0
 11
16.450000000000379
 21
-77.49999999901047
 31
0.0
  0
ARC
  5
BA7
  8
SAPA_PROFIL
 10
16.850000000000179
 20
-77.199999999010373
 30
0.0
 40
0.3000000000000748
 50
269.9999999999701
 51
44.999999999973127
  0
LINE
  5
BA8
  8
SAPA_PROFIL
 10
16.662132034356201
 20
-76.587867964654379
 30
0.0
 11
17.062132034356289
 21
-76.98786796465447
 31
0.0
  0
ARC
  5
BA9
  8
SAPA_PROFIL
 10
16.450000000000468
 20
-76.799999999010225
 30
0.0
 40
0.2999999999997556
 50
45.000000000014857
 51
90.000000000015575
  0
LINE
  5
BAA
  8
SAPA_PROFIL
 10
14.650000000000199
 20
-76.499999999010015
 30
0.0
 11
16.450000000000379
 21
-76.49999999901047
 31
0.0
  0
ARC
  5
BAB
  8
SAPA_PROFIL
 10
14.650000000000171
 20
-76.999999999009987
 30
0.0
 40
0.4999999999999716
 50
89.999999999996746
 51
180.00000000000321
  0
LINE
  5
BAC
  8
SAPA_PROFIL
 10
14.150000000000199
 20
-81.499999999010925
 30
0.0
 11
14.150000000000199
 21
-76.999999999010015
 31
0.0
  0
ARC
  5
BAD
  8
SAPA_PROFIL
 10
14.650000000000199
 20
-81.499999999010925
 30
0.0
 40
0.5
 50
180.0
 51
270.0
  0
LINE
  5
BAE
  8
SAPA_PROFIL
 10
18.650000000000201
 20
-81.999999999010015
 30
0.0
 11
14.650000000000199
 21
-81.999999999010925
 31
0.0
  0
ARC
  5
BAF
  8
SAPA_PROFIL
 10
18.650000000000091
 20
-82.499999999010114
 30
0.0
 40
0.5000000000001137
 50
0.0000000000130276
 51
89.999999999986969
  0
LINE
  5
BB0
  8
SAPA_PROFIL
 10
19.150000000000201
 20
-84.516956646213657
 30
0.0
 11
19.150000000000201
 21
-82.499999999010015
 31
0.0
  0
ARC
  5
BB1
  8
SAPA_PROFIL
 10
18.649999999999981
 20
-84.516956646213444
 30
0.0
 40
0.5000000000002222
 50
319.9999999999684
 51
359.99999999997561
  0
LINE
  5
BB2
  8
SAPA_PROFIL
 10
16.949501460029861
 20
-87.321393803853425
 30
0.0
 11
19.03302222155946
 21
-84.838350451057053
 31
0.0
  0
ARC
  5
BB3
  8
SAPA_PROFIL
 10
16.566479238470581
 20
-86.9999999990102
 30
0.0
 40
0.4999999999998153
 50
270.0000000000029
 51
319.99999999998869
  0
LINE
  5
BB4
  8
SAPA_PROFIL
 10
10.568533728391341
 20
-87.499999999010484
 30
0.0
 11
16.566479238470599
 21
-87.499999999010015
 31
0.0
  0
ARC
  5
BB5
  8
SAPA_PROFIL
 10
10.568533728391261
 20
-86.999999999010242
 30
0.0
 40
0.5000000000002258
 50
200.0000000000079
 51
270.00000000000921
  0
LINE
  5
BB6
  8
SAPA_PROFIL
 10
8.6380638705314823
 20
-83.157979855684516
 30
0.0
 11
10.09868741799812
 21
-87.171010070673219
 31
0.0
  0
ARC
  5
BB7
  8
SAPA_PROFIL
 10
7.6983712497453922
 20
-83.499999999010186
 30
0.0
 40
1.0000000000001701
 50
19.999999999996469
 51
89.999999999994287
  0
LINE
  5
BB8
  8
SAPA_PROFIL
 10
6.6500000000002037
 20
-82.499999999010015
 30
0.0
 11
7.6983712497454908
 21
-82.499999999010015
 31
0.0
  0
ARC
  5
BB9
  8
SAPA_PROFIL
 10
6.6499999999998911
 20
-82.199999999010146
 30
0.0
 40
0.2999999999998692
 50
180.00000000002709
 51
270.00000000005969
  0
LINE
  5
BBA
  8
SAPA_PROFIL
 10
6.3500000000000218
 20
-81.799999999010197
 30
0.0
 11
6.3500000000000218
 21
-82.199999999010288
 31
0.0
  0
ARC
  5
BBB
  8
SAPA_PROFIL
 10
6.0499999999998693
 20
-81.799999999010168
 30
0.0
 40
0.3000000000001535
 50
359.99999999999449
 51
90.000000000005414
  0
LINE
  5
BBC
  8
SAPA_PROFIL
 10
5.6500000000002037
 20
-81.499999999010015
 30
0.0
 11
6.04999999999984
 21
-81.499999999010015
 31
0.0
  0
ARC
  5
BBD
  8
SAPA_PROFIL
 10
5.6500000000001762
 20
-81.799999999010168
 30
0.0
 40
0.3000000000001535
 50
89.999999999994586
 51
180.0000000000054
  0
LINE
  5
BBE
  8
SAPA_PROFIL
 10
5.3500000000000218
 20
-82.199999999010288
 30
0.0
 11
5.3500000000000218
 21
-81.799999999010197
 31
0.0
  0
ARC
  5
BBF
  8
SAPA_PROFIL
 10
5.0500000000001251
 20
-82.199999999010103
 30
0.0
 40
0.2999999999998977
 50
269.99999999994583
 51
359.99999999996749
  0
LINE
  5
BC0
  8
SAPA_PROFIL
 10
0.6242640687120229
 20
-82.499999999010015
 30
0.0
 11
5.04999999999984
 21
-82.499999999010015
 31
0.0
  0
ARC
  5
BC1
  8
SAPA_PROFIL
 10
0.6242640687125385
 20
-82.799999999010112
 30
0.0
 40
0.3000000000000977
 50
90.000000000098439
 51
135.00000000008109
  0
LINE
  5
BC2
  8
SAPA_PROFIL
 10
0.0000000000001137
 20
-82.999999999010015
 30
0.0
 11
0.4121320343562048
 21
-82.587867964654379
 31
0.0
  0
LINE
  5
BC3
  8
SAPA_PROFIL
 10
-0.4121320343559774
 20
-82.587867964654379
 30
0.0
 11
0.0000000000001137
 21
-82.999999999010015
 31
0.0
  0
ARC
  5
BC4
  8
SAPA_PROFIL
 10
-0.6242640687123112
 20
-82.799999999010112
 30
0.0
 40
0.3000000000000966
 50
44.999999999918842
 51
89.999999999901505
  0
LINE
  5
BC5
  8
SAPA_PROFIL
 10
-5.0500000000000682
 20
-82.499999999010015
 30
0.0
 11
-0.6242640687117956
 21
-82.499999999010015
 31
0.0
  0
ARC
  5
BC6
  8
SAPA_PROFIL
 10
-5.0500000000001251
 20
-82.199999999010345
 30
0.0
 40
0.2999999999996703
 50
179.99999999998909
 51
270.0000000000108
  0
LINE
  5
BC7
  8
SAPA_PROFIL
 10
-5.3499999999997954
 20
-81.799999999010197
 30
0.0
 11
-5.3499999999997954
 21
-82.199999999010288
 31
0.0
  0
ARC
  5
BC8
  8
SAPA_PROFIL
 10
-5.649999999999948
 20
-81.799999999010168
 30
0.0
 40
0.3000000000001535
 50
359.99999999999449
 51
90.000000000005414
  0
LINE
  5
BC9
  8
SAPA_PROFIL
 10
-6.0500000000000682
 20
-81.499999999010015
 30
0.0
 11
-5.6499999999999773
 21
-81.499999999010015
 31
0.0
  0
ARC
  5
BCA
  8
SAPA_PROFIL
 10
-6.0499999999998693
 20
-81.799999999009941
 30
0.0
 40
0.2999999999999261
 50
90.000000000037971
 51
180.0000000000488
  0
LINE
  5
BCB
  8
SAPA_PROFIL
 10
-6.3499999999997954
 20
-82.199999999010288
 30
0.0
 11
-6.3499999999997954
 21
-81.799999999010197
 31
0.0
  0
ARC
  5
BCC
  8
SAPA_PROFIL
 10
-6.6499999999996637
 20
-82.199999999010146
 30
0.0
 40
0.2999999999998692
 50
269.9999999999402
 51
359.99999999997289
  0
LINE
  5
BCD
  8
SAPA_PROFIL
 10
-7.6983712497457191
 20
-82.499999999010015
 30
0.0
 11
-6.6499999999999773
 21
-82.499999999010015
 31
0.0
  0
ARC
  5
BCE
  8
SAPA_PROFIL
 10
-7.6983712497456187
 20
-83.499999999010186
 30
0.0
 40
1.0000000000001701
 50
90.000000000005699
 51
160.0000000000035
  0
LINE
  5
BCF
  8
SAPA_PROFIL
 10
-10.098687417998351
 20
-87.171010070673219
 30
0.0
 11
-8.6380638705317097
 21
-83.157979855684516
 31
0.0
  0
ARC
  5
BD0
  8
SAPA_PROFIL
 10
-10.568533728391261
 20
-86.999999999010569
 30
0.0
 40
0.4999999999999006
 50
270.00000000001688
 51
340.00000000001842
  0
LINE
  5
BD1
  8
SAPA_PROFIL
 10
-16.56647923847083
 20
-87.499999999010015
 30
0.0
 11
-10.56853372839111
 21
-87.499999999010484
 31
0.0
  0
ARC
  5
BD2
  8
SAPA_PROFIL
 10
-16.566479238470809
 20
-86.9999999990102
 30
0.0
 40
0.4999999999998141
 50
220.00000000001131
 51
269.99999999999721
  0
LINE
  5
BD3
  8
SAPA_PROFIL
 10
-19.033022221559229
 20
-84.838350451057053
 30
0.0
 11
-16.949501460030088
 21
-87.321393803853425
 31
0.0
  0
ARC
  5
BD4
  8
SAPA_PROFIL
 10
-18.64999999999975
 20
-84.516956646213444
 30
0.0
 40
0.5000000000002239
 50
180.00000000002439
 51
220.00000000003149
  0
LINE
  5
BD5
  8
SAPA_PROFIL
 10
-19.149999999999981
 20
-82.499999999010015
 30
0.0
 11
-19.149999999999981
 21
-84.516956646213657
 31
0.0
  0
ARC
  5
BD6
  8
SAPA_PROFIL
 10
-18.64999999999986
 20
-82.499999999010114
 30
0.0
 40
0.5000000000001137
 50
90.000000000013017
 51
179.99999999998701
  0
LINE
  5
BD7
  8
SAPA_PROFIL
 10
-14.649999999999981
 20
-81.999999999010925
 30
0.0
 11
-18.649999999999981
 21
-81.999999999010015
 31
0.0
  0
ARC
  5
BD8
  8
SAPA_PROFIL
 10
-14.649999999999981
 20
-81.499999999010925
 30
0.0
 40
0.5
 50
270.0
 51
0.0
  0
LINE
  5
BD9
  8
SAPA_PROFIL
 10
-14.15000000000043
 20
-76.999999999010015
 30
0.0
 11
-14.149999999999981
 21
-81.499999999010925
 31
0.0
  0
ARC
  5
BDA
  8
SAPA_PROFIL
 10
-14.6500000000004
 20
-76.999999999009987
 30
0.0
 40
0.4999999999999716
 50
359.99999999999682
 51
90.000000000003226
  0
LINE
  5
BDB
  8
SAPA_PROFIL
 10
-16.450000000000159
 20
-76.49999999901047
 30
0.0
 11
-14.65000000000043
 21
-76.499999999010015
 31
0.0
  0
ARC
  5
BDC
  8
SAPA_PROFIL
 10
-16.450000000000241
 20
-76.799999999010225
 30
0.0
 40
0.2999999999997557
 50
89.999999999984396
 51
134.99999999998511
  0
LINE
  5
BDD
  8
SAPA_PROFIL
 10
-17.062132034356068
 20
-76.98786796465447
 30
0.0
 11
-16.662132034355981
 21
-76.587867964654379
 31
0.0
  0
ARC
  5
BDE
  8
SAPA_PROFIL
 10
-16.850000000000179
 20
-77.199999999010487
 30
0.0
 40
0.2999999999999829
 50
134.99999999998269
 51
269.99999999998641
  0
LINE
  5
BDF
  8
SAPA_PROFIL
 10
-16.450000000000159
 20
-77.49999999901047
 30
0.0
 11
-16.85000000000025
 21
-77.49999999901047
 31
0.0
  0
ARC
  5
BE0
  8
SAPA_PROFIL
 10
-16.450000000000159
 20
-77.799999999010197
 30
0.0
 40
0.2999999999997271
 50
0.0
 51
90.0
  0
LINE
  5
BE1
  8
SAPA_PROFIL
 10
-16.14999999999997
 20
-80.199999999010288
 30
0.0
 11
-16.150000000000428
 21
-77.799999999010197
 31
0.0
  0
ARC
  5
BE2
  8
SAPA_PROFIL
 10
-16.450000000000159
 20
-80.199999999010288
 30
0.0
 40
0.3000000000001819
 50
270.0
 51
0.0
  0
LINE
  5
BE3
  8
SAPA_PROFIL
 10
-19.98190844019916
 20
-80.499999999010015
 30
0.0
 11
-16.450000000000159
 21
-80.499999999010456
 31
0.0
  0
ARC
  5
BE4
  8
SAPA_PROFIL
 10
-19.981908440199369
 20
-80.199999999009805
 30
0.0
 40
0.3000000000001951
 50
220.0000000000386
 51
270.00000000003928
  0
LINE
  5
BE5
  8
SAPA_PROFIL
 10
-21.729813332935809
 20
-78.583645211636394
 30
0.0
 11
-20.211721773135078
 21
-80.392836281916061
 31
0.0
  0
ARC
  5
BE6
  8
SAPA_PROFIL
 10
-21.50000000000032
 20
-78.390808928730578
 30
0.0
 40
0.2999999999997449
 50
180.0000000000081
 51
220.0000000000046
  0
LINE
  5
BE7
  8
SAPA_PROFIL
 10
-21.800000000000072
 20
-77.999999999010456
 30
0.0
 11
-21.800000000000072
 21
-78.390808928730621
 31
0.0
  0
ARC
  5
BE8
  8
SAPA_PROFIL
 10
-21.300000000000011
 20
-77.999999999010527
 30
0.0
 40
0.500000000000057
 50
90.000000000006494
 51
179.99999999999349
  0
LINE
  5
BE9
  8
SAPA_PROFIL
 10
-20.450000000000159
 20
-77.49999999901047
 30
0.0
 11
-21.300000000000072
 21
-77.49999999901047
 31
0.0
  0
ARC
  5
BEA
  8
SAPA_PROFIL
 10
-20.450000000000291
 20
-77.199999999010458
 30
0.0
 40
0.3000000000000044
 50
270.00000000002439
 51
45.000000000005748
  0
LINE
  5
BEB
  8
SAPA_PROFIL
 10
-20.637867965643981
 20
-76.587867964654379
 30
0.0
 11
-20.237867965644341
 21
-76.98786796465447
 31
0.0
  0
ARC
  5
BEC
  8
SAPA_PROFIL
 10
-20.849999999999909
 20
-76.799999999010694
 30
0.0
 40
0.3000000000002245
 50
45.000000000051813
 51
90.000000000065114
  0
POLYLINE
  5
BED
  8
SAPA_PROFIL
 66
     1
 10
0.0
 20
0.0
 30
0.0
 70
     1
  0
VERTEX
  5
117A
  8
SAPA_PROFIL
 10
-20.85000000000025
 20
-76.49999999901047
 30
0.0
 42
-0.1989123673797145
  0
VERTEX
  5
117B
  8
SAPA_PROFIL
 10
-20.637867965643981
 20
-76.587867964654379
 30
0.0
  0
VERTEX
  5
117C
  8
SAPA_PROFIL
 10
-20.237867965644341
 20
-76.98786796465447
 30
0.0
 42
-0.668178637919182
  0
VERTEX
  5
117D
  8
SAPA_PROFIL
 10
-20.450000000000159
 20
-77.49999999901047
 30
0.0
  0
VERTEX
  5
117E
  8
SAPA_PROFIL
 10
-21.300000000000072
 20
-77.49999999901047
 30
0.0
 42
0.4142135623730284
  0
VERTEX
  5
117F
  8
SAPA_PROFIL
 10
-21.800000000000072
 20
-77.999999999010456
 30
0.0
  0
VERTEX
  5
1180
  8
SAPA_PROFIL
 10
-21.800000000000072
 20
-78.390808928730621
 30
0.0
 42
0.17632698070845
  0
VERTEX
  5
1181
  8
SAPA_PROFIL
 10
-21.729813332935809
 20
-78.583645211636394
 30
0.0
  0
VERTEX
  5
1182
  8
SAPA_PROFIL
 10
-20.211721773135078
 20
-80.392836281916061
 30
0.0
 42
0.2216946626429421
  0
VERTEX
  5
1183
  8
SAPA_PROFIL
 10
-19.98190844019916
 20
-80.499999999010015
 30
0.0
  0
VERTEX
  5
1184
  8
SAPA_PROFIL
 10
-16.450000000000159
 20
-80.499999999010456
 30
0.0
 42
0.4142135623730951
  0
VERTEX
  5
1185
  8
SAPA_PROFIL
 10
-16.14999999999997
 20
-80.199999999010288
 30
0.0
  0
VERTEX
  5
1186
  8
SAPA_PROFIL
 10
-16.150000000000428
 20
-77.799999999010197
 30
0.0
 42
0.4142135623730951
  0
VERTEX
  5
1187
  8
SAPA_PROFIL
 10
-16.450000000000159
 20
-77.49999999901047
 30
0.0
  0
VERTEX
  5
1188
  8
SAPA_PROFIL
 10
-16.85000000000025
 20
-77.49999999901047
 30
0.0
 42
-0.6681786379193188
  0
VERTEX
  5
1189
  8
SAPA_PROFIL
 10
-17.062132034356068
 20
-76.98786796465447
 30
0.0
  0
VERTEX
  5
118A
  8
SAPA_PROFIL
 10
-16.662132034355981
 20
-76.587867964654379
 30
0.0
 42
-0.198912367379658
  0
VERTEX
  5
118B
  8
SAPA_PROFIL
 10
-16.450000000000159
 20
-76.49999999901047
 30
0.0
  0
VERTEX
  5
118C
  8
SAPA_PROFIL
 10
-14.65000000000043
 20
-76.499999999010015
 30
0.0
 42
-0.4142135623731284
  0
VERTEX
  5
118D
  8
SAPA_PROFIL
 10
-14.15000000000043
 20
-76.999999999010015
 30
0.0
  0
VERTEX
  5
118E
  8
SAPA_PROFIL
 10
-14.149999999999981
 20
-81.499999999010925
 30
0.0
 42
-0.4142135623730951
  0
VERTEX
  5
118F
  8
SAPA_PROFIL
 10
-14.649999999999981
 20
-81.999999999010925
 30
0.0
  0
VERTEX
  5
1190
  8
SAPA_PROFIL
 10
-18.649999999999981
 20
-81.999999999010015
 30
0.0
 42
0.4142135623729619
  0
VERTEX
  5
1191
  8
SAPA_PROFIL
 10
-19.149999999999981
 20
-82.499999999010015
 30
0.0
  0
VERTEX
  5
1192
  8
SAPA_PROFIL
 10
-19.149999999999981
 20
-84.516956646213657
 30
0.0
 42
0.1763269807084973
  0
VERTEX
  5
1193
  8
SAPA_PROFIL
 10
-19.033022221559229
 20
-84.838350451057053
 30
0.0
  0
VERTEX
  5
1194
  8
SAPA_PROFIL
 10
-16.949501460030088
 20
-87.321393803853425
 30
0.0
 42
0.2216946626428772
  0
VERTEX
  5
1195
  8
SAPA_PROFIL
 10
-16.56647923847083
 20
-87.499999999010015
 30
0.0
  0
VERTEX
  5
1196
  8
SAPA_PROFIL
 10
-10.56853372839111
 20
-87.499999999010484
 30
0.0
 42
0.315298788878991
  0
VERTEX
  5
1197
  8
SAPA_PROFIL
 10
-10.098687417998351
 20
-87.171010070673219
 30
0.0
  0
VERTEX
  5
1198
  8
SAPA_PROFIL
 10
-8.6380638705317097
 20
-83.157979855684516
 30
0.0
 42
-0.3152987888789731
  0
VERTEX
  5
1199
  8
SAPA_PROFIL
 10
-7.6983712497457191
 20
-82.499999999010015
 30
0.0
  0
VERTEX
  5
119A
  8
SAPA_PROFIL
 10
-6.6499999999999773
 20
-82.499999999010015
 30
0.0
 42
0.4142135623732616
  0
VERTEX
  5
119B
  8
SAPA_PROFIL
 10
-6.3499999999997954
 20
-82.199999999010288
 30
0.0
  0
VERTEX
  5
119C
  8
SAPA_PROFIL
 10
-6.3499999999997954
 20
-81.799999999010197
 30
0.0
 42
-0.4142135623731506
  0
VERTEX
  5
119D
  8
SAPA_PROFIL
 10
-6.0500000000000682
 20
-81.499999999010015
 30
0.0
  0
VERTEX
  5
119E
  8
SAPA_PROFIL
 10
-5.6499999999999773
 20
-81.499999999010015
 30
0.0
 42
-0.4142135623731505
  0
VERTEX
  5
119F
  8
SAPA_PROFIL
 10
-5.3499999999997954
 20
-81.799999999010197
 30
0.0
  0
VERTEX
  5
11A0
  8
SAPA_PROFIL
 10
-5.3499999999997954
 20
-82.199999999010288
 30
0.0
 42
0.4142135623732061
  0
VERTEX
  5
11A1
  8
SAPA_PROFIL
 10
-5.0500000000000682
 20
-82.499999999010015
 30
0.0
  0
VERTEX
  5
11A2
  8
SAPA_PROFIL
 10
-0.6242640687117956
 20
-82.499999999010015
 30
0.0
 42
-0.198912367379577
  0
VERTEX
  5
11A3
  8
SAPA_PROFIL
 10
-0.4121320343559774
 20
-82.587867964654379
 30
0.0
  0
VERTEX
  5
11A4
  8
SAPA_PROFIL
 10
0.0000000000001137
 20
-82.999999999010015
 30
0.0
  0
VERTEX
  5
11A5
  8
SAPA_PROFIL
 10
0.4121320343562048
 20
-82.587867964654379
 30
0.0
 42
-0.1989123673795771
  0
VERTEX
  5
11A6
  8
SAPA_PROFIL
 10
0.6242640687120229
 20
-82.499999999010015
 30
0.0
  0
VERTEX
  5
11A7
  8
SAPA_PROFIL
 10
5.04999999999984
 20
-82.499999999010015
 30
0.0
 42
0.4142135623732059
  0
VERTEX
  5
11A8
  8
SAPA_PROFIL
 10
5.3500000000000218
 20
-82.199999999010288
 30
0.0
  0
VERTEX
  5
11A9
  8
SAPA_PROFIL
 10
5.3500000000000218
 20
-81.799999999010197
 30
0.0
 42
-0.4142135623731506
  0
VERTEX
  5
11AA
  8
SAPA_PROFIL
 10
5.6500000000002037
 20
-81.499999999010015
 30
0.0
  0
VERTEX
  5
11AB
  8
SAPA_PROFIL
 10
6.04999999999984
 20
-81.499999999010015
 30
0.0
 42
-0.4142135623731505
  0
VERTEX
  5
11AC
  8
SAPA_PROFIL
 10
6.3500000000000218
 20
-81.799999999010197
 30
0.0
  0
VERTEX
  5
11AD
  8
SAPA_PROFIL
 10
6.3500000000000218
 20
-82.199999999010288
 30
0.0
 42
0.4142135623732615
  0
VERTEX
  5
11AE
  8
SAPA_PROFIL
 10
6.6500000000002037
 20
-82.499999999010015
 30
0.0
  0
VERTEX
  5
11AF
  8
SAPA_PROFIL
 10
7.6983712497454908
 20
-82.499999999010015
 30
0.0
 42
-0.3152987888789731
  0
VERTEX
  5
11B0
  8
SAPA_PROFIL
 10
8.6380638705314823
 20
-83.157979855684516
 30
0.0
  0
VERTEX
  5
11B1
  8
SAPA_PROFIL
 10
10.09868741799812
 20
-87.171010070673219
 30
0.0
 42
0.315298788878991
  0
VERTEX
  5
11B2
  8
SAPA_PROFIL
 10
10.568533728391341
 20
-87.499999999010484
 30
0.0
  0
VERTEX
  5
11B3
  8
SAPA_PROFIL
 10
16.566479238470599
 20
-87.499999999010015
 30
0.0
 42
0.2216946626428772
  0
VERTEX
  5
11B4
  8
SAPA_PROFIL
 10
16.949501460029861
 20
-87.321393803853425
 30
0.0
  0
VERTEX
  5
11B5
  8
SAPA_PROFIL
 10
19.03302222155946
 20
-84.838350451057053
 30
0.0
 42
0.1763269807084973
  0
VERTEX
  5
11B6
  8
SAPA_PROFIL
 10
19.150000000000201
 20
-84.516956646213657
 30
0.0
  0
VERTEX
  5
11B7
  8
SAPA_PROFIL
 10
19.150000000000201
 20
-82.499999999010015
 30
0.0
 42
0.4142135623729619
  0
VERTEX
  5
11B8
  8
SAPA_PROFIL
 10
18.650000000000201
 20
-81.999999999010015
 30
0.0
  0
VERTEX
  5
11B9
  8
SAPA_PROFIL
 10
14.650000000000199
 20
-81.999999999010925
 30
0.0
 42
-0.4142135623730951
  0
VERTEX
  5
11BA
  8
SAPA_PROFIL
 10
14.150000000000199
 20
-81.499999999010925
 30
0.0
  0
VERTEX
  5
11BB
  8
SAPA_PROFIL
 10
14.150000000000199
 20
-76.999999999010015
 30
0.0
 42
-0.4142135623731285
  0
VERTEX
  5
11BC
  8
SAPA_PROFIL
 10
14.650000000000199
 20
-76.499999999010015
 30
0.0
  0
VERTEX
  5
11BD
  8
SAPA_PROFIL
 10
16.450000000000379
 20
-76.49999999901047
 30
0.0
 42
-0.198912367379658
  0
VERTEX
  5
11BE
  8
SAPA_PROFIL
 10
16.662132034356201
 20
-76.587867964654379
 30
0.0
  0
VERTEX
  5
11BF
  8
SAPA_PROFIL
 10
17.062132034356289
 20
-76.98786796465447
 30
0.0
 42
-0.6681786379193188
  0
VERTEX
  5
11C0
  8
SAPA_PROFIL
 10
16.850000000000019
 20
-77.49999999901047
 30
0.0
  0
VERTEX
  5
11C1
  8
SAPA_PROFIL
 10
16.450000000000379
 20
-77.49999999901047
 30
0.0
 42
0.4142135623730951
  0
VERTEX
  5
11C2
  8
SAPA_PROFIL
 10
16.150000000000201
 20
-77.799999999010197
 30
0.0
  0
VERTEX
  5
11C3
  8
SAPA_PROFIL
 10
16.150000000000201
 20
-80.199999999010288
 30
0.0
 42
0.4142135623730951
  0
VERTEX
  5
11C4
  8
SAPA_PROFIL
 10
16.450000000000379
 20
-80.499999999010456
 30
0.0
  0
VERTEX
  5
11C5
  8
SAPA_PROFIL
 10
19.98190844019939
 20
-80.499999999010015
 30
0.0
 42
0.221694662642942
  0
VERTEX
  5
11C6
  8
SAPA_PROFIL
 10
20.211721773134862
 20
-80.392836281916061
 30
0.0
  0
VERTEX
  5
11C7
  8
SAPA_PROFIL
 10
21.729813332935581
 20
-78.583645211636394
 30
0.0
 42
0.1763269807084499
  0
VERTEX
  5
11C8
  8
SAPA_PROFIL
 10
21.799999999999841
 20
-78.390808928730621
 30
0.0
  0
VERTEX
  5
11C9
  8
SAPA_PROFIL
 10
21.800000000000288
 20
-77.999999999010456
 30
0.0
 42
0.4142135623730284
  0
VERTEX
  5
11CA
  8
SAPA_PROFIL
 10
21.300000000000299
 20
-77.49999999901047
 30
0.0
  0
VERTEX
  5
11CB
  8
SAPA_PROFIL
 10
20.45000000000039
 20
-77.49999999901047
 30
0.0
 42
-0.668178637919182
  0
VERTEX
  5
11CC
  8
SAPA_PROFIL
 10
20.237867965644121
 20
-76.98786796465447
 30
0.0
  0
VERTEX
  5
11CD
  8
SAPA_PROFIL
 10
20.637867965644201
 20
-76.587867964654379
 30
0.0
 42
-0.1989123673797144
  0
VERTEX
  5
11CE
  8
SAPA_PROFIL
 10
20.850000000000019
 20
-76.49999999901047
 30
0.0
  0
VERTEX
  5
11CF
  8
SAPA_PROFIL
 10
23.300000000000299
 20
-76.49999999901047
 30
0.0
 42
-0.4142135623730951
  0
VERTEX
  5
11D0
  8
SAPA_PROFIL
 10
23.800000000000299
 20
-76.99999999901047
 30
0.0
  0
VERTEX
  5
11D1
  8
SAPA_PROFIL
 10
23.800000000000299
 20
-80.699999999010274
 30
0.0
 42
-0.4142135623730951
  0
VERTEX
  5
11D2
  8
SAPA_PROFIL
 10
23.500000000000568
 20
-80.99999999901047
 30
0.0
  0
VERTEX
  5
11D3
  8
SAPA_PROFIL
 10
22.473205080757111
 20
-80.99999999901047
 30
0.0
 42
0.2679491924311428
  0
VERTEX
  5
11D4
  8
SAPA_PROFIL
 10
22.213397459621891
 20
-81.149999999010575
 30
0.0
  0
VERTEX
  5
11D5
  8
SAPA_PROFIL
 10
21.325961894323541
 20
-82.687083486550804
 30
0.0
 42
0.4142135623731709
  0
VERTEX
  5
11D6
  8
SAPA_PROFIL
 10
21.435769515459128
 20
-83.096891107686133
 30
0.0
  0
VERTEX
  5
11D7
  8
SAPA_PROFIL
 10
21.96791111376217
 20
-83.404123202713436
 30
0.0
 42
-0.4663076581551056
  0
VERTEX
  5
11D8
  8
SAPA_PROFIL
 10
22.233955556881138
 20
-84.912936216184335
 30
0.0
  0
VERTEX
  5
11D9
  8
SAPA_PROFIL
 10
18.115270605417319
 20
-89.821393803853425
 30
0.0
 42
-0.2216946626428921
  0
VERTEX
  5
11DA
  8
SAPA_PROFIL
 10
17.732248383857609
 20
-89.999999999010484
 30
0.0
  0
VERTEX
  5
11DB
  8
SAPA_PROFIL
 10
9.7002075382098383
 20
-89.999999999010484
 30
0.0
 42
-0.3152987888789878
  0
VERTEX
  5
11DC
  8
SAPA_PROFIL
 10
8.7605149174238477
 20
-89.342020142335954
 30
0.0
  0
VERTEX
  5
11DD
  8
SAPA_PROFIL
 10
7.4196339112451142
 20
-85.657979855684516
 30
0.0
 42
0.3152987888789804
  0
VERTEX
  5
11DE
  8
SAPA_PROFIL
 10
6.4799412904591227
 20
-84.999999999010015
 30
0.0
  0
VERTEX
  5
11DF
  8
SAPA_PROFIL
 10
-6.4799412904593501
 20
-84.999999999010015
 30
0.0
 42
0.3152987888789804
  0
VERTEX
  5
11E0
  8
SAPA_PROFIL
 10
-7.4196339112453407
 20
-85.657979855684516
 30
0.0
  0
VERTEX
  5
11E1
  8
SAPA_PROFIL
 10
-8.7605149174236203
 20
-89.342020142335954
 30
0.0
 42
-0.3152987888789877
  0
VERTEX
  5
11E2
  8
SAPA_PROFIL
 10
-9.7002075382096091
 20
-89.999999999010484
 30
0.0
  0
VERTEX
  5
11E3
  8
SAPA_PROFIL
 10
-17.732248383857829
 20
-89.999999999010484
 30
0.0
 42
-0.2216946626428921
  0
VERTEX
  5
11E4
  8
SAPA_PROFIL
 10
-18.115270605417091
 20
-89.821393803853425
 30
0.0
  0
VERTEX
  5
11E5
  8
SAPA_PROFIL
 10
-22.233955556880911
 20
-84.912936216184335
 30
0.0
 42
-0.4663076581551056
  0
VERTEX
  5
11E6
  8
SAPA_PROFIL
 10
-21.967911113762401
 20
-83.404123202713436
 30
0.0
  0
VERTEX
  5
11E7
  8
SAPA_PROFIL
 10
-21.435769515458901
 20
-83.096891107686133
 30
0.0
 42
0.414213562373157
  0
VERTEX
  5
11E8
  8
SAPA_PROFIL
 10
-21.325961894323768
 20
-82.687083486550804
 30
0.0
  0
VERTEX
  5
11E9
  8
SAPA_PROFIL
 10
-22.213397459622112
 20
-81.149999999010575
 30
0.0
 42
0.2679491924311554
  0
VERTEX
  5
11EA
  8
SAPA_PROFIL
 10
-22.473205080757339
 20
-80.99999999901047
 30
0.0
  0
VERTEX
  5
11EB
  8
SAPA_PROFIL
 10
-23.500000000000341
 20
-80.99999999901047
 30
0.0
 42
-0.4142135623730951
  0
VERTEX
  5
11EC
  8
SAPA_PROFIL
 10
-23.800000000000519
 20
-80.699999999010274
 30
0.0
  0
VERTEX
  5
11ED
  8
SAPA_PROFIL
 10
-23.800000000000072
 20
-76.99999999901047
 30
0.0
 42
-0.4142135623730951
  0
VERTEX
  5
11EE
  8
SAPA_PROFIL
 10
-23.300000000000072
 20
-76.49999999901047
 30
0.0
  0
SEQEND
  5
11EF
  8
SAPA_PROFIL
  0
POLYLINE
  5
BEE
  8
SAPA_PROFIL
 66
     1
 10
0.0
 20
0.0
 30
0.0
 70
     1
  0
VERTEX
  5
11F0
  8
SAPA_PROFIL
 10
-2.700000000000272
 20
-33.050000000001091
 30
0.0
  0
VERTEX
  5
11F1
  8
SAPA_PROFIL
 10
-2.0767196966983188
 20
-31.67376540642476
 30
0.0
 42
0.5450207798987328
  0
VERTEX
  5
11F2
  8
SAPA_PROFIL
 10
-2.350000000000136
 20
-31.25000000000114
 30
0.0
  0
VERTEX
  5
11F3
  8
SAPA_PROFIL
 10
-2.700000000000272
 20
-31.25000000000114
 30
0.0
  0
VERTEX
  5
11F4
  8
SAPA_PROFIL
 10
-2.700000000000272
 20
-31.00000000000114
 30
0.0
 42
-0.4142135623730951
  0
VERTEX
  5
11F5
  8
SAPA_PROFIL
 10
-1.700000000000272
 20
-30.00000000000114
 30
0.0
  0
VERTEX
  5
11F6
  8
SAPA_PROFIL
 10
1.6999999999998181
 20
-30.00000000000114
 30
0.0
 42
-0.4142135623730951
  0
VERTEX
  5
11F7
  8
SAPA_PROFIL
 10
2.6999999999998181
 20
-31.00000000000114
 30
0.0
  0
VERTEX
  5
11F8
  8
SAPA_PROFIL
 10
2.6999999999998181
 20
-32.150000000001
 30
0.0
  0
VERTEX
  5
11F9
  8
SAPA_PROFIL
 10
2.3499999999996808
 20
-32.150000000001
 30
0.0
 42
0.5450200690651551
  0
VERTEX
  5
11FA
  8
SAPA_PROFIL
 10
2.0767189999999109
 20
-32.573765000001011
 30
0.0
  0
VERTEX
  5
11FB
  8
SAPA_PROFIL
 10
2.6999999999998181
 20
-33.950000000000948
 30
0.0
  0
VERTEX
  5
11FC
  8
SAPA_PROFIL
 10
2.3499999999996808
 20
-33.950000000000948
 30
0.0
 42
0.5450200690651692
  0
VERTEX
  5
11FD
  8
SAPA_PROFIL
 10
2.0767189999999109
 20
-34.373765000000958
 30
0.0
  0
VERTEX
  5
11FE
  8
SAPA_PROFIL
 10
2.6999999999998181
 20
-35.750000000001137
 30
0.0
  0
VERTEX
  5
11FF
  8
SAPA_PROFIL
 10
2.3499999999996808
 20
-35.750000000001137
 30
0.0
 42
0.5450200690651619
  0
VERTEX
  5
1200
  8
SAPA_PROFIL
 10
2.0767189999999109
 20
-36.17376500000114
 30
0.0
  0
VERTEX
  5
1201
  8
SAPA_PROFIL
 10
2.6999999999998181
 20
-37.550000000001091
 30
0.0
  0
VERTEX
  5
1202
  8
SAPA_PROFIL
 10
2.3499999999996808
 20
-37.550000000001091
 30
0.0
 42
0.5450200690651619
  0
VERTEX
  5
1203
  8
SAPA_PROFIL
 10
2.0767189999999109
 20
-37.973765000001102
 30
0.0
  0
VERTEX
  5
1204
  8
SAPA_PROFIL
 10
2.6999999999998181
 20
-39.350000000001053
 30
0.0
  0
VERTEX
  5
1205
  8
SAPA_PROFIL
 10
2.3499999999996808
 20
-39.350000000001053
 30
0.0
 42
0.5450200690651692
  0
VERTEX
  5
1206
  8
SAPA_PROFIL
 10
2.0767189999999109
 20
-39.773765000001049
 30
0.0
  0
VERTEX
  5
1207
  8
SAPA_PROFIL
 10
2.6999999999998181
 20
-41.150000000001
 30
0.0
  0
VERTEX
  5
1208
  8
SAPA_PROFIL
 10
2.6999999999998181
 20
-41.450000000000948
 30
0.0
  0
VERTEX
  5
1209
  8
SAPA_PROFIL
 10
-2.42826763351104
 20
-41.450000000000948
 30
0.0
  0
VERTEX
  5
120A
  8
SAPA_PROFIL
 10
-2.0767196966983188
 20
-40.673765406424756
 30
0.0
 42
0.5450207798987328
  0
VERTEX
  5
120B
  8
SAPA_PROFIL
 10
-2.350000000000136
 20
-40.250000000001137
 30
0.0
  0
VERTEX
  5
120C
  8
SAPA_PROFIL
 10
-2.700000000000272
 20
-40.250000000001137
 30
0.0
  0
VERTEX
  5
120D
  8
SAPA_PROFIL
 10
-2.0767200000002499
 20
-38.873765000000958
 30
0.0
 42
0.5450205149791638
  0
VERTEX
  5
120E
  8
SAPA_PROFIL
 10
-2.350000000000136
 20
-38.450000000000962
 30
0.0
  0
VERTEX
  5
120F
  8
SAPA_PROFIL
 10
-2.700000000000272
 20
-38.450000000000962
 30
0.0
  0
VERTEX
  5
1210
  8
SAPA_PROFIL
 10
-2.0767196966983188
 20
-37.073765406424627
 30
0.0
 42
0.545020779898768
  0
VERTEX
  5
1211
  8
SAPA_PROFIL
 10
-2.350000000000136
 20
-36.650000000001
 30
0.0
  0
VERTEX
  5
1212
  8
SAPA_PROFIL
 10
-2.700000000000272
 20
-36.650000000001
 30
0.0
  0
VERTEX
  5
1213
  8
SAPA_PROFIL
 10
-2.0767196966983188
 20
-35.273765406424673
 30
0.0
 42
0.54502077989874
  0
VERTEX
  5
1214
  8
SAPA_PROFIL
 10
-2.350000000000136
 20
-34.850000000001053
 30
0.0
  0
VERTEX
  5
1215
  8
SAPA_PROFIL
 10
-2.700000000000272
 20
-34.850000000001053
 30
0.0
  0
VERTEX
  5
1216
  8
SAPA_PROFIL
 10
-2.0767196966983188
 20
-33.473765406424718
 30
0.0
 42
0.545020779898761
  0
VERTEX
  5
1217
  8
SAPA_PROFIL
 10
-2.350000000000136
 20
-33.050000000001091
 30
0.0
  0
SEQEND
  5
1218
  8
SAPA_PROFIL
  0
POLYLINE
  5
BEF
  8
SAPA_PROFIL
 66
     1
 10
0.0
 20
0.0
 30
0.0
 70
     1
  0
VERTEX
  5
1219
  8
SAPA_PROFIL
 10
-23.000000000000231
 20
58.024264068710863
 30
0.0
 42
0.1989123673796753
  0
VERTEX
  5
121A
  8
SAPA_PROFIL
 10
-22.912132034356091
 20
57.812132034355052
 30
0.0
  0
VERTEX
  5
121B
  8
SAPA_PROFIL
 10
-21.187867965644269
 20
56.087867965642999
 30
0.0
 42
-0.1989123673796753
  0
VERTEX
  5
121C
  8
SAPA_PROFIL
 10
-21.10000000000014
 20
55.875735931286947
 30
0.0
  0
VERTEX
  5
121D
  8
SAPA_PROFIL
 10
-21.10000000000014
 20
55.299999999999052
 30
0.0
 42
-0.4142135623730951
  0
VERTEX
  5
121E
  8
SAPA_PROFIL
 10
-21.400000000000318
 20
54.999999999998863
 30
0.0
  0
VERTEX
  5
121F
  8
SAPA_PROFIL
 10
-22.700000000000269
 20
54.999999999998863
 30
0.0
 42
0.4142135623730951
  0
VERTEX
  5
1220
  8
SAPA_PROFIL
 10
-23.000000000000231
 20
54.699999999998909
 30
0.0
  0
VERTEX
  5
1221
  8
SAPA_PROFIL
 10
-23.000000000000231
 20
29.99999999999886
 30
0.0
 42
0.4142135623730951
  0
VERTEX
  5
1222
  8
SAPA_PROFIL
 10
-22.000000000000231
 20
28.99999999999887
 30
0.0
  0
VERTEX
  5
1223
  8
SAPA_PROFIL
 10
-17.600000000000129
 20
28.99999999999887
 30
0.0
 42
-0.4142135623730951
  0
VERTEX
  5
1224
  8
SAPA_PROFIL
 10
-17.300000000000178
 20
28.699999999998909
 30
0.0
  0
VERTEX
  5
1225
  8
SAPA_PROFIL
 10
-17.300000000000178
 20
26.399999999998961
 30
0.0
 42
-0.4142135623730951
  0
VERTEX
  5
1226
  8
SAPA_PROFIL
 10
-17.600000000000129
 20
26.099999999999
 30
0.0
  0
VERTEX
  5
1227
  8
SAPA_PROFIL
 10
-18.100000000000129
 20
26.099999999999
 30
0.0
 42
-0.4142135623730951
  0
VERTEX
  5
1228
  8
SAPA_PROFIL
 10
-18.400000000000318
 20
26.399999999998961
 30
0.0
  0
VERTEX
  5
1229
  8
SAPA_PROFIL
 10
-18.400000000000318
 20
26.736626924633359
 30
0.0
 42
0.5535245743249297
  0
VERTEX
  5
122A
  8
SAPA_PROFIL
 10
-22.71055421153164
 20
24.96410760212348
 30
0.0
  0
VERTEX
  5
122B
  8
SAPA_PROFIL
 10
-22.42322330470347
 20
24.67677669529553
 30
0.0
 42
-0.4142135623729421
  0
VERTEX
  5
122C
  8
SAPA_PROFIL
 10
-22.42322330470347
 20
24.32322330470242
 30
0.0
  0
VERTEX
  5
122D
  8
SAPA_PROFIL
 10
-22.71055421153164
 20
24.035892397874481
 30
0.0
 42
0.5535245743249292
  0
VERTEX
  5
122E
  8
SAPA_PROFIL
 10
-18.400000000000318
 20
22.26337307536437
 30
0.0
  0
VERTEX
  5
122F
  8
SAPA_PROFIL
 10
-18.400000000000318
 20
22.599999999999
 30
0.0
 42
-0.4142135623730951
  0
VERTEX
  5
1230
  8
SAPA_PROFIL
 10
-18.100000000000129
 20
22.899999999998961
 30
0.0
  0
VERTEX
  5
1231
  8
SAPA_PROFIL
 10
-17.600000000000129
 20
22.899999999998961
 30
0.0
 42
-0.4142135623730951
  0
VERTEX
  5
1232
  8
SAPA_PROFIL
 10
-17.300000000000178
 20
22.599999999999
 30
0.0
  0
VERTEX
  5
1233
  8
SAPA_PROFIL
 10
-17.300000000000178
 20
21.49999999999886
 30
0.0
 42
-0.4142135623730951
  0
VERTEX
  5
1234
  8
SAPA_PROFIL
 10
-18.800000000000178
 20
19.99999999999886
 30
0.0
  0
VERTEX
  5
1235
  8
SAPA_PROFIL
 10
-21.63397459621569
 20
19.99999999999886
 30
0.0
 42
-0.267949192431143
  0
VERTEX
  5
1236
  8
SAPA_PROFIL
 10
-22.066987298107961
 20
20.24999999999886
 30
0.0
 42
0.767326987978956
  0
VERTEX
  5
1237
  8
SAPA_PROFIL
 10
-23.000000000000231
 20
19.99999999999886
 30
0.0
  0
VERTEX
  5
1238
  8
SAPA_PROFIL
 10
-23.000000000000231
 20
-15.00000000000113
 30
0.0
 42
0.4142135623730951
  0
VERTEX
  5
1239
  8
SAPA_PROFIL
 10
-22.000000000000231
 20
-16.00000000000114
 30
0.0
  0
VERTEX
  5
123A
  8
SAPA_PROFIL
 10
-17.600000000000129
 20
-16.00000000000114
 30
0.0
 42
-0.4142135623730951
  0
VERTEX
  5
123B
  8
SAPA_PROFIL
 10
-17.300000000000178
 20
-16.300000000001091
 30
0.0
  0
VERTEX
  5
123C
  8
SAPA_PROFIL
 10
-17.300000000000178
 20
-18.600000000001039
 30
0.0
 42
-0.4142135623730951
  0
VERTEX
  5
123D
  8
SAPA_PROFIL
 10
-17.600000000000129
 20
-18.900000000001
 30
0.0
  0
VERTEX
  5
123E
  8
SAPA_PROFIL
 10
-18.100000000000129
 20
-18.900000000001
 30
0.0
 42
-0.4142135623730951
  0
VERTEX
  5
123F
  8
SAPA_PROFIL
 10
-18.400000000000318
 20
-18.600000000001039
 30
0.0
  0
VERTEX
  5
1240
  8
SAPA_PROFIL
 10
-18.400000000000318
 20
-18.263373075366641
 30
0.0
 42
0.5535245743249297
  0
VERTEX
  5
1241
  8
SAPA_PROFIL
 10
-22.71055421153164
 20
-20.03589239787652
 30
0.0
  0
VERTEX
  5
1242
  8
SAPA_PROFIL
 10
-22.42322330470347
 20
-20.32322330470447
 30
0.0
 42
-0.4142135623730243
  0
VERTEX
  5
1243
  8
SAPA_PROFIL
 10
-22.423223304703701
 20
-20.67677669529758
 30
0.0
  0
VERTEX
  5
1244
  8
SAPA_PROFIL
 10
-22.71055421153164
 20
-20.96410760212553
 30
0.0
 42
0.5535245743249292
  0
VERTEX
  5
1245
  8
SAPA_PROFIL
 10
-18.400000000000318
 20
-22.73662692463563
 30
0.0
  0
VERTEX
  5
1246
  8
SAPA_PROFIL
 10
-18.400000000000318
 20
-22.400000000001
 30
0.0
 42
-0.4142135623730951
  0
VERTEX
  5
1247
  8
SAPA_PROFIL
 10
-18.100000000000129
 20
-22.100000000001049
 30
0.0
  0
VERTEX
  5
1248
  8
SAPA_PROFIL
 10
-17.600000000000129
 20
-22.100000000001049
 30
0.0
 42
-0.4142135623730951
  0
VERTEX
  5
1249
  8
SAPA_PROFIL
 10
-17.300000000000178
 20
-22.400000000001
 30
0.0
  0
VERTEX
  5
124A
  8
SAPA_PROFIL
 10
-17.300000000000178
 20
-23.50000000000114
 30
0.0
 42
-0.4142135623730951
  0
VERTEX
  5
124B
  8
SAPA_PROFIL
 10
-18.800000000000178
 20
-25.00000000000114
 30
0.0
  0
VERTEX
  5
124C
  8
SAPA_PROFIL
 10
-21.780384757729511
 20
-25.00000000000114
 30
0.0
 42
-0.2679491924311188
  0
VERTEX
  5
124D
  8
SAPA_PROFIL
 10
-22.040192378864958
 20
-24.850000000001049
 30
0.0
 42
0.7673269879789557
  0
VERTEX
  5
124E
  8
SAPA_PROFIL
 10
-22.600000000000129
 20
-25.00000000000114
 30
0.0
  0
VERTEX
  5
124F
  8
SAPA_PROFIL
 10
-22.599999999999909
 20
-27.00000000000114
 30
0.0
 42
0.4142137811865366
  0
VERTEX
  5
1250
  8
SAPA_PROFIL
 10
-21.600000747075459
 20
-28.00000000000114
 30
0.0
  0
VERTEX
  5
1251
  8
SAPA_PROFIL
 10
21.599999999999682
 20
-28.00000000000114
 30
0.0
 42
0.4142140000000124
  0
VERTEX
  5
1252
  8
SAPA_PROFIL
 10
22.599999999999682
 20
-27.00000000000114
 30
0.0
  0
VERTEX
  5
1253
  8
SAPA_PROFIL
 10
22.599999999999682
 20
-25.00000000000114
 30
0.0
 42
0.7673269879789457
  0
VERTEX
  5
1254
  8
SAPA_PROFIL
 10
22.0401923788645
 20
-24.850000000001049
 30
0.0
 42
-0.2679491924311191
  0
VERTEX
  5
1255
  8
SAPA_PROFIL
 10
21.780384757729049
 20
-25.00000000000114
 30
0.0
  0
VERTEX
  5
1256
  8
SAPA_PROFIL
 10
18.799999999999731
 20
-25.00000000000114
 30
0.0
 42
-0.4142135623730951
  0
VERTEX
  5
1257
  8
SAPA_PROFIL
 10
17.299999999999731
 20
-23.50000000000114
 30
0.0
  0
VERTEX
  5
1258
  8
SAPA_PROFIL
 10
17.299999999999731
 20
-22.400000000001
 30
0.0
 42
-0.4142135623730951
  0
VERTEX
  5
1259
  8
SAPA_PROFIL
 10
17.599999999999682
 20
-22.100000000001049
 30
0.0
  0
VERTEX
  5
125A
  8
SAPA_PROFIL
 10
18.099999999999682
 20
-22.100000000001049
 30
0.0
 42
-0.4142135623730951
  0
VERTEX
  5
125B
  8
SAPA_PROFIL
 10
18.39999999999986
 20
-22.400000000001
 30
0.0
  0
VERTEX
  5
125C
  8
SAPA_PROFIL
 10
18.39999999999986
 20
-22.73662692463563
 30
0.0
 42
0.5535245743249307
  0
VERTEX
  5
125D
  8
SAPA_PROFIL
 10
22.710554211531189
 20
-20.96410760212553
 30
0.0
  0
VERTEX
  5
125E
  8
SAPA_PROFIL
 10
22.423223304703239
 20
-20.67677669529758
 30
0.0
 42
-0.4142135623730951
  0
VERTEX
  5
125F
  8
SAPA_PROFIL
 10
22.423223304703239
 20
-20.32322330470447
 30
0.0
  0
VERTEX
  5
1260
  8
SAPA_PROFIL
 10
22.710554211531189
 20
-20.03589239787652
 30
0.0
 42
0.553524574324932
  0
VERTEX
  5
1261
  8
SAPA_PROFIL
 10
18.39999999999986
 20
-18.263373075366641
 30
0.0
  0
VERTEX
  5
1262
  8
SAPA_PROFIL
 10
18.39999999999986
 20
-18.600000000001039
 30
0.0
 42
-0.4142135623730951
  0
VERTEX
  5
1263
  8
SAPA_PROFIL
 10
18.099999999999682
 20
-18.900000000001
 30
0.0
  0
VERTEX
  5
1264
  8
SAPA_PROFIL
 10
17.599999999999682
 20
-18.900000000001
 30
0.0
 42
-0.4142135623730951
  0
VERTEX
  5
1265
  8
SAPA_PROFIL
 10
17.299999999999731
 20
-18.600000000001039
 30
0.0
  0
VERTEX
  5
1266
  8
SAPA_PROFIL
 10
17.299999999999731
 20
-16.300000000001091
 30
0.0
 42
-0.4142135623730951
  0
VERTEX
  5
1267
  8
SAPA_PROFIL
 10
17.599999999999682
 20
-16.00000000000114
 30
0.0
  0
VERTEX
  5
1268
  8
SAPA_PROFIL
 10
21.999999999999769
 20
-16.00000000000114
 30
0.0
 42
0.4142135623730951
  0
VERTEX
  5
1269
  8
SAPA_PROFIL
 10
22.999999999999769
 20
-15.00000000000113
 30
0.0
  0
VERTEX
  5
126A
  8
SAPA_PROFIL
 10
22.999999999999769
 20
19.99999999999886
 30
0.0
 42
0.7673269879789569
  0
VERTEX
  5
126B
  8
SAPA_PROFIL
 10
22.066987298107509
 20
20.24999999999886
 30
0.0
 42
-0.2679491924311163
  0
VERTEX
  5
126C
  8
SAPA_PROFIL
 10
21.633974596215239
 20
19.99999999999886
 30
0.0
  0
VERTEX
  5
126D
  8
SAPA_PROFIL
 10
18.799999999999731
 20
19.99999999999886
 30
0.0
 42
-0.4142135623730951
  0
VERTEX
  5
126E
  8
SAPA_PROFIL
 10
17.299999999999731
 20
21.49999999999886
 30
0.0
  0
VERTEX
  5
126F
  8
SAPA_PROFIL
 10
17.299999999999731
 20
22.599999999999
 30
0.0
 42
-0.4142135623730951
  0
VERTEX
  5
1270
  8
SAPA_PROFIL
 10
17.599999999999682
 20
22.899999999998961
 30
0.0
  0
VERTEX
  5
1271
  8
SAPA_PROFIL
 10
18.099999999999682
 20
22.899999999998961
 30
0.0
 42
-0.4142135623730951
  0
VERTEX
  5
1272
  8
SAPA_PROFIL
 10
18.39999999999986
 20
22.599999999999
 30
0.0
  0
VERTEX
  5
1273
  8
SAPA_PROFIL
 10
18.39999999999986
 20
22.26337307536437
 30
0.0
 42
0.5535245743249307
  0
VERTEX
  5
1274
  8
SAPA_PROFIL
 10
22.710554211531189
 20
24.035892397874481
 30
0.0
  0
VERTEX
  5
1275
  8
SAPA_PROFIL
 10
22.423223304703239
 20
24.32322330470242
 30
0.0
 42
-0.4142135623731068
  0
VERTEX
  5
1276
  8
SAPA_PROFIL
 10
22.423223304703011
 20
24.67677669529553
 30
0.0
  0
VERTEX
  5
1277
  8
SAPA_PROFIL
 10
22.710554211531189
 20
24.96410760212348
 30
0.0
 42
0.553524574324932
  0
VERTEX
  5
1278
  8
SAPA_PROFIL
 10
18.39999999999986
 20
26.736626924633359
 30
0.0
  0
VERTEX
  5
1279
  8
SAPA_PROFIL
 10
18.39999999999986
 20
26.399999999998961
 30
0.0
 42
-0.4142135623730951
  0
VERTEX
  5
127A
  8
SAPA_PROFIL
 10
18.099999999999682
 20
26.099999999999
 30
0.0
  0
VERTEX
  5
127B
  8
SAPA_PROFIL
 10
17.599999999999682
 20
26.099999999999
 30
0.0
 42
-0.4142135623730951
  0
VERTEX
  5
127C
  8
SAPA_PROFIL
 10
17.299999999999731
 20
26.399999999998961
 30
0.0
  0
VERTEX
  5
127D
  8
SAPA_PROFIL
 10
17.299999999999731
 20
28.699999999998909
 30
0.0
 42
-0.4142135623730951
  0
VERTEX
  5
127E
  8
SAPA_PROFIL
 10
17.599999999999682
 20
28.99999999999887
 30
0.0
  0
VERTEX
  5
127F
  8
SAPA_PROFIL
 10
21.999999999999769
 20
28.99999999999887
 30
0.0
 42
0.4142135623730951
  0
VERTEX
  5
1280
  8
SAPA_PROFIL
 10
22.999999999999769
 20
29.99999999999886
 30
0.0
  0
VERTEX
  5
1281
  8
SAPA_PROFIL
 10
22.999999999999769
 20
54.699999999998909
 30
0.0
 42
0.4142135623730951
  0
VERTEX
  5
1282
  8
SAPA_PROFIL
 10
22.699999999999822
 20
54.999999999998863
 30
0.0
  0
VERTEX
  5
1283
  8
SAPA_PROFIL
 10
21.39999999999986
 20
54.999999999998863
 30
0.0
 42
-0.4142135623730951
  0
VERTEX
  5
1284
  8
SAPA_PROFIL
 10
21.099999999999682
 20
55.299999999999052
 30
0.0
  0
VERTEX
  5
1285
  8
SAPA_PROFIL
 10
21.099999999999682
 20
55.875735931286947
 30
0.0
 42
-0.1989123673796752
  0
VERTEX
  5
1286
  8
SAPA_PROFIL
 10
21.187867965643822
 20
56.087867965642999
 30
0.0
  0
VERTEX
  5
1287
  8
SAPA_PROFIL
 10
22.91213203435586
 20
57.812132034355052
 30
0.0
 42
0.1989123673796057
  0
VERTEX
  5
1288
  8
SAPA_PROFIL
 10
22.999999999999769
 20
58.024264068710863
 30
0.0
  0
VERTEX
  5
1289
  8
SAPA_PROFIL
 10
22.999999999999769
 20
61.499999999998863
 30
0.0
 42
0.4142135623730951
  0
VERTEX
  5
128A
  8
SAPA_PROFIL
 10
21.999999999999769
 20
62.499999999998863
 30
0.0
  0
VERTEX
  5
128B
  8
SAPA_PROFIL
 10
-22.000000000000231
 20
62.499999999998863
 30
0.0
 42
0.4142135623730951
  0
VERTEX
  5
128C
  8
SAPA_PROFIL
 10
-23.000000000000231
 20
61.499999999998863
 30
0.0
  0
SEQEND
  5
128D
  8
SAPA_PROFIL
  0
POLYLINE
  5
BF0
  8
SAPA_PROFIL
 66
     1
 10
0.0
 20
0.0
 30
0.0
 70
     1
  0
VERTEX
  5
128E
  8
SAPA_PROFIL
 10
-6.0000000000002274
 20
-30.00000000000114
 30
0.0
 42
-0.4142135623730951
  0
VERTEX
  5
128F
  8
SAPA_PROFIL
 10
-5.0000000000002274
 20
-31.00000000000114
 30
0.0
  0
VERTEX
  5
1290
  8
SAPA_PROFIL
 10
-5.0000000000002274
 20
-52.200000000000948
 30
0.0
 42
0.4142135623730951
  0
VERTEX
  5
1291
  8
SAPA_PROFIL
 10
-4.700000000000272
 20
-52.50000000000113
 30
0.0
  0
VERTEX
  5
1292
  8
SAPA_PROFIL
 10
-3.0757360000002332
 20
-52.50000000000113
 30
0.0
  0
VERTEX
  5
1293
  8
SAPA_PROFIL
 10
-2.2378679656442269
 20
-51.562132034356871
 30
0.0
 42
0.668178637919305
  0
VERTEX
  5
1294
  8
SAPA_PROFIL
 10
-2.450000000000272
 20
-51.050000000001091
 30
0.0
  0
VERTEX
  5
1295
  8
SAPA_PROFIL
 10
-2.700000000000272
 20
-51.050000000001091
 30
0.0
  0
VERTEX
  5
1296
  8
SAPA_PROFIL
 10
-2.1767196966982278
 20
-49.673765406424756
 30
0.0
 42
0.5450207798987201
  0
VERTEX
  5
1297
  8
SAPA_PROFIL
 10
-2.450000000000272
 20
-49.250000000001137
 30
0.0
  0
VERTEX
  5
1298
  8
SAPA_PROFIL
 10
-2.700000000000272
 20
-49.250000000001137
 30
0.0
  0
VERTEX
  5
1299
  8
SAPA_PROFIL
 10
-2.1767196966982278
 20
-47.873765406424567
 30
0.0
 42
0.5450207798987201
  0
VERTEX
  5
129A
  8
SAPA_PROFIL
 10
-2.450000000000272
 20
-47.450000000000962
 30
0.0
  0
VERTEX
  5
129B
  8
SAPA_PROFIL
 10
-2.700000000000272
 20
-47.450000000000962
 30
0.0
  0
VERTEX
  5
129C
  8
SAPA_PROFIL
 10
-2.1767196966982278
 20
-46.07376540642462
 30
0.0
 42
0.5450207798987342
  0
VERTEX
  5
129D
  8
SAPA_PROFIL
 10
-2.450000000000272
 20
-45.650000000000993
 30
0.0
  0
VERTEX
  5
129E
  8
SAPA_PROFIL
 10
-2.700000000000272
 20
-45.650000000000993
 30
0.0
  0
VERTEX
  5
129F
  8
SAPA_PROFIL
 10
-2.1767196966982278
 20
-44.273765406424673
 30
0.0
 42
0.5450207798987201
  0
VERTEX
  5
12A0
  8
SAPA_PROFIL
 10
-2.450000000000272
 20
-43.850000000001039
 30
0.0
  0
VERTEX
  5
12A1
  8
SAPA_PROFIL
 10
-2.700000000000272
 20
-43.850000000001039
 30
0.0
  0
VERTEX
  5
12A2
  8
SAPA_PROFIL
 10
-2.4722372826161059
 20
-43.126282705194853
 30
0.0
 42
-0.2945484962563026
  0
VERTEX
  5
12A3
  8
SAPA_PROFIL
 10
-2.1988824689378812
 20
-42.950048040246656
 30
0.0
  0
VERTEX
  5
12A4
  8
SAPA_PROFIL
 10
-1.2642999377483191
 20
-42.950255222213173
 30
0.0
 42
0.3475954753796591
  0
VERTEX
  5
12A5
  8
SAPA_PROFIL
 10
-0.9723265106783856
 20
-42.719501178044077
 30
0.0
 42
-0.790522909611319
  0
VERTEX
  5
12A6
  8
SAPA_PROFIL
 10
0.973664089865224
 20
-42.71949097360357
 30
0.0
 42
0.3476065658631364
  0
VERTEX
  5
12A7
  8
SAPA_PROFIL
 10
1.2656518108867649
 20
-42.950241952335773
 30
0.0
  0
VERTEX
  5
12A8
  8
SAPA_PROFIL
 10
1.8499926620931999
 20
-42.950095231626847
 30
0.0
 42
-0.4102317530969976
  0
VERTEX
  5
12A9
  8
SAPA_PROFIL
 10
2.1500282985855388
 20
-43.245946879780369
 30
0.0
 42
0.0712587206050384
  0
VERTEX
  5
12AA
  8
SAPA_PROFIL
 10
2.1632556124550311
 20
-43.329990804708579
 30
0.0
  0
VERTEX
  5
12AB
  8
SAPA_PROFIL
 10
2.6999999999998181
 20
-44.750000000001137
 30
0.0
  0
VERTEX
  5
12AC
  8
SAPA_PROFIL
 10
2.4499999999998181
 20
-44.750000000001137
 30
0.0
 42
0.5450200690651619
  0
VERTEX
  5
12AD
  8
SAPA_PROFIL
 10
2.17671899999982
 20
-45.173765000001133
 30
0.0
  0
VERTEX
  5
12AE
  8
SAPA_PROFIL
 10
2.6999999999998181
 20
-46.550000000001091
 30
0.0
  0
VERTEX
  5
12AF
  8
SAPA_PROFIL
 10
2.4499999999998181
 20
-46.550000000000857
 30
0.0
 42
0.545020069065176
  0
VERTEX
  5
12B0
  8
SAPA_PROFIL
 10
2.17671899999982
 20
-46.973765000001087
 30
0.0
  0
VERTEX
  5
12B1
  8
SAPA_PROFIL
 10
2.6999999999998181
 20
-48.350000000001039
 30
0.0
  0
VERTEX
  5
12B2
  8
SAPA_PROFIL
 10
2.4499999999998181
 20
-48.350000000001039
 30
0.0
 42
0.5450200690651692
  0
VERTEX
  5
12B3
  8
SAPA_PROFIL
 10
2.17671899999982
 20
-48.773765000001049
 30
0.0
  0
VERTEX
  5
12B4
  8
SAPA_PROFIL
 10
2.6999999999998181
 20
-50.150000000001
 30
0.0
  0
VERTEX
  5
12B5
  8
SAPA_PROFIL
 10
2.1499999999998631
 20
-50.150000000001
 30
0.0
  0
VERTEX
  5
12B6
  8
SAPA_PROFIL
 10
2.1499999999998631
 20
-51.350000000001039
 30
0.0
 42
0.1989123673797004
  0
VERTEX
  5
12B7
  8
SAPA_PROFIL
 10
2.2378679999997071
 20
-51.562132000001156
 30
0.0
  0
VERTEX
  5
12B8
  8
SAPA_PROFIL
 10
3.075735999999778
 20
-52.50000000000113
 30
0.0
  0
VERTEX
  5
12B9
  8
SAPA_PROFIL
 10
4.6999999999998181
 20
-52.50000000000113
 30
0.0
 42
0.4142135623730951
  0
VERTEX
  5
12BA
  8
SAPA_PROFIL
 10
4.9999999999997717
 20
-52.200000000000948
 30
0.0
  0
VERTEX
  5
12BB
  8
SAPA_PROFIL
 10
4.9999999999997717
 20
-31.00000000000114
 30
0.0
 42
-0.4142135623730951
  0
VERTEX
  5
12BC
  8
SAPA_PROFIL
 10
5.9999999999997717
 20
-30.00000000000114
 30
0.0
  0
VERTEX
  5
12BD
  8
SAPA_PROFIL
 10
14.19999999999982
 20
-30.00000000000114
 30
0.0
 42
-0.4142135623730951
  0
VERTEX
  5
12BE
  8
SAPA_PROFIL
 10
14.69999999999982
 20
-30.50000000000114
 30
0.0
  0
VERTEX
  5
12BF
  8
SAPA_PROFIL
 10
14.69999999999982
 20
-33.700000000000962
 30
0.0
 42
-0.4142135623730951
  0
VERTEX
  5
12C0
  8
SAPA_PROFIL
 10
14.19999999999982
 20
-34.200000000000962
 30
0.0
  0
VERTEX
  5
12C1
  8
SAPA_PROFIL
 10
11.299999999999731
 20
-34.200000000000962
 30
0.0
 42
0.4142135623730951
  0
VERTEX
  5
12C2
  8
SAPA_PROFIL
 10
10.999999999999771
 20
-34.500000000001137
 30
0.0
  0
VERTEX
  5
12C3
  8
SAPA_PROFIL
 10
10.999999999999771
 20
-35.200000000000948
 30
0.0
 42
0.4142135623730951
  0
VERTEX
  5
12C4
  8
SAPA_PROFIL
 10
11.299999999999731
 20
-35.500000000001137
 30
0.0
  0
VERTEX
  5
12C5
  8
SAPA_PROFIL
 10
17.999999999999769
 20
-35.500000000001137
 30
0.0
  0
VERTEX
  5
12C6
  8
SAPA_PROFIL
 10
18.586384015500471
 20
-35.035076580641999
 30
0.0
 42
0.7105995019814511
  0
VERTEX
  5
12C7
  8
SAPA_PROFIL
 10
18.39999999999986
 20
-34.500000000001137
 30
0.0
  0
VERTEX
  5
12C8
  8
SAPA_PROFIL
 10
16.499999999999769
 20
-34.500000000001137
 30
0.0
 42
-0.4142135623730951
  0
VERTEX
  5
12C9
  8
SAPA_PROFIL
 10
16.199999999999822
 20
-34.200000000000962
 30
0.0
  0
VERTEX
  5
12CA
  8
SAPA_PROFIL
 10
16.199999999999822
 20
-30.300000000001091
 30
0.0
 42
-0.4142135623730951
  0
VERTEX
  5
12CB
  8
SAPA_PROFIL
 10
16.499999999999769
 20
-30.00000000000114
 30
0.0
  0
VERTEX
  5
12CC
  8
SAPA_PROFIL
 10
23.199999999999822
 20
-30.00000000000114
 30
0.0
 42
-0.4142135623730951
  0
VERTEX
  5
12CD
  8
SAPA_PROFIL
 10
23.499999999999769
 20
-30.300000000001091
 30
0.0
  0
VERTEX
  5
12CE
  8
SAPA_PROFIL
 10
23.499999999999769
 20
-34.200000000000962
 30
0.0
 42
-0.4142135623730951
  0
VERTEX
  5
12CF
  8
SAPA_PROFIL
 10
23.199999999999822
 20
-34.500000000001137
 30
0.0
  0
VERTEX
  5
12D0
  8
SAPA_PROFIL
 10
21.999999999999769
 20
-34.500000000001137
 30
0.0
 42
0.7105990647993611
  0
VERTEX
  5
12D1
  8
SAPA_PROFIL
 10
21.81361599999968
 20
-35.035076000001027
 30
0.0
  0
VERTEX
  5
12D2
  8
SAPA_PROFIL
 10
22.39999999999986
 20
-35.500000000001137
 30
0.0
  0
VERTEX
  5
12D3
  8
SAPA_PROFIL
 10
24.699999999999822
 20
-35.500000000001137
 30
0.0
 42
0.4142135623730951
  0
VERTEX
  5
12D4
  8
SAPA_PROFIL
 10
24.999999999999769
 20
-35.200000000000948
 30
0.0
  0
VERTEX
  5
12D5
  8
SAPA_PROFIL
 10
24.999999999999769
 20
63.999999999998863
 30
0.0
 42
0.4142135623730951
  0
VERTEX
  5
12D6
  8
SAPA_PROFIL
 10
24.499999999999769
 20
64.499999999998863
 30
0.0
  0
VERTEX
  5
12D7
  8
SAPA_PROFIL
 10
-24.500000000000231
 20
64.499999999998863
 30
0.0
 42
0.4142135623730951
  0
VERTEX
  5
12D8
  8
SAPA_PROFIL
 10
-25.000000000000231
 20
63.999999999998863
 30
0.0
  0
VERTEX
  5
12D9
  8
SAPA_PROFIL
 10
-25.000000000000231
 20
-35.200000000000948
 30
0.0
 42
0.4142135623730951
  0
VERTEX
  5
12DA
  8
SAPA_PROFIL
 10
-24.700000000000269
 20
-35.500000000001137
 30
0.0
  0
VERTEX
  5
12DB
  8
SAPA_PROFIL
 10
-22.400000000000318
 20
-35.500000000001137
 30
0.0
  0
VERTEX
  5
12DC
  8
SAPA_PROFIL
 10
-21.81361598449962
 20
-35.035076580641999
 30
0.0
 42
0.7105995019814511
  0
VERTEX
  5
12DD
  8
SAPA_PROFIL
 10
-22.000000000000231
 20
-34.500000000001137
 30
0.0
  0
VERTEX
  5
12DE
  8
SAPA_PROFIL
 10
-23.200000000000269
 20
-34.500000000001137
 30
0.0
 42
-0.4142135623730951
  0
VERTEX
  5
12DF
  8
SAPA_PROFIL
 10
-23.500000000000231
 20
-34.200000000000962
 30
0.0
  0
VERTEX
  5
12E0
  8
SAPA_PROFIL
 10
-23.500000000000231
 20
-30.300000000001091
 30
0.0
 42
-0.4142135623730951
  0
VERTEX
  5
12E1
  8
SAPA_PROFIL
 10
-23.200000000000269
 20
-30.00000000000114
 30
0.0
  0
VERTEX
  5
12E2
  8
SAPA_PROFIL
 10
-16.500000000000231
 20
-30.00000000000114
 30
0.0
 42
-0.4142135623730951
  0
VERTEX
  5
12E3
  8
SAPA_PROFIL
 10
-16.200000000000269
 20
-30.300000000001091
 30
0.0
  0
VERTEX
  5
12E4
  8
SAPA_PROFIL
 10
-16.200000000000269
 20
-34.200000000000962
 30
0.0
 42
-0.4142135623730951
  0
VERTEX
  5
12E5
  8
SAPA_PROFIL
 10
-16.500000000000231
 20
-34.500000000001137
 30
0.0
  0
VERTEX
  5
12E6
  8
SAPA_PROFIL
 10
-18.400000000000318
 20
-34.500000000001137
 30
0.0
 42
0.7105995019814511
  0
VERTEX
  5
12E7
  8
SAPA_PROFIL
 10
-18.586384015500919
 20
-35.035076580641999
 30
0.0
  0
VERTEX
  5
12E8
  8
SAPA_PROFIL
 10
-18.000000000000231
 20
-35.500000000001137
 30
0.0
  0
VERTEX
  5
12E9
  8
SAPA_PROFIL
 10
-11.30000000000018
 20
-35.500000000001137
 30
0.0
 42
0.4142135623730951
  0
VERTEX
  5
12EA
  8
SAPA_PROFIL
 10
-11.00000000000022
 20
-35.200000000000948
 30
0.0
  0
VERTEX
  5
12EB
  8
SAPA_PROFIL
 10
-11.00000000000022
 20
-34.500000000001137
 30
0.0
 42
0.4142135623730951
  0
VERTEX
  5
12EC
  8
SAPA_PROFIL
 10
-11.30000000000018
 20
-34.200000000000962
 30
0.0
  0
VERTEX
  5
12ED
  8
SAPA_PROFIL
 10
-14.200000000000269
 20
-34.200000000000962
 30
0.0
 42
-0.4142135623730951
  0
VERTEX
  5
12EE
  8
SAPA_PROFIL
 10
-14.700000000000269
 20
-33.700000000000962
 30
0.0
  0
VERTEX
  5
12EF
  8
SAPA_PROFIL
 10
-14.700000000000269
 20
-30.50000000000114
 30
0.0
 42
-0.4142135623730951
  0
VERTEX
  5
12F0
  8
SAPA_PROFIL
 10
-14.200000000000269
 20
-30.00000000000114
 30
0.0
  0
SEQEND
  5
12F1
  8
SAPA_PROFIL
  0
POLYLINE
  5
C04
  8
SAPA_GLAS
 66
     1
 10
0.0
 20
0.0
 30
0.0
  0
VERTEX
  5
1316
  8
SAPA_GLAS
 10
-41.408775399239062
 20
-49.669866382571172
 30
0.0
  0
VERTEX
  5
1317
  8
SAPA_GLAS
 10
-11.522934456486951
 20
-52.284538664999893
 30
0.0
  0
VERTEX
  5
1318
  8
SAPA_GLAS
 10
-11.00000000000011
 20
-46.307370476449478
 30
0.0
  0
VERTEX
  5
1319
  8
SAPA_GLAS
 10
-40.885840942752218
 20
-43.69269819402075
 30
0.0
  0
SEQEND
  5
131A
  8
SAPA_GLAS
  0
POLYLINE
  5
C05
  8
SAPA_GLAS
 66
     1
 10
0.0
 20
0.0
 30
0.0
  0
VERTEX
  5
131B
  8
SAPA_GLAS
 10
-22.79221757862263
 20
-66.355901708900319
 30
0.0
  0
VERTEX
  5
131C
  8
SAPA_GLAS
 10
-21.484881437405541
 20
-51.412981237522438
 30
0.0
  0
VERTEX
  5
131D
  8
SAPA_GLAS
 10
-11.522934456486951
 20
-52.284538664999893
 30
0.0
  0
VERTEX
  5
131E
  8
SAPA_GLAS
 10
-12.83027059770404
 20
-67.227459136377774
 30
0.0
  0
VERTEX
  5
131F
  8
SAPA_GLAS
 10
-22.79221757862263
 20
-66.355901708900319
 30
0.0
  0
SEQEND
  5
1320
  8
SAPA_GLAS
  0
POLYLINE
  5
C06
  8
SAPA_GLAS
 66
     1
 10
0.0
 20
0.0
 30
0.0
  0
VERTEX
  5
1321
  8
SAPA_GLAS
 10
-43.239045996939353
 20
-70.589955042499469
 30
0.0
  0
VERTEX
  5
1322
  8
SAPA_GLAS
 10
-13.35320505418724
 20
-73.204627324928197
 30
0.0
  0
VERTEX
  5
1323
  8
SAPA_GLAS
 10
-12.83027059770404
 20
-67.227459136377774
 30
0.0
  0
VERTEX
  5
1324
  8
SAPA_GLAS
 10
-42.716111540452523
 20
-64.612786853949046
 30
0.0
  0
SEQEND
  5
1325
  8
SAPA_GLAS
  0
POLYLINE
  5
C07
  8
SAPA_GLAS
 66
     1
 10
0.0
 20
0.0
 30
0.0
  0
VERTEX
  5
1326
  8
SAPA_GLAS
 10
41.408775399239062
 20
-49.669866382571172
 30
0.0
  0
VERTEX
  5
1327
  8
SAPA_GLAS
 10
11.522934456486951
 20
-52.284538664999893
 30
0.0
  0
VERTEX
  5
1328
  8
SAPA_GLAS
 10
11.00000000000011
 20
-46.307370476449478
 30
0.0
  0
VERTEX
  5
1329
  8
SAPA_GLAS
 10
40.885840942752218
 20
-43.69269819402075
 30
0.0
  0
SEQEND
  5
132A
  8
SAPA_GLAS
  0
POLYLINE
  5
C08
  8
SAPA_GLAS
 66
     1
 10
0.0
 20
0.0
 30
0.0
  0
VERTEX
  5
132B
  8
SAPA_GLAS
 10
22.79221757862263
 20
-66.355901708900319
 30
0.0
  0
VERTEX
  5
132C
  8
SAPA_GLAS
 10
21.484881437405541
 20
-51.412981237522438
 30
0.0
  0
VERTEX
  5
132D
  8
SAPA_GLAS
 10
11.522934456486951
 20
-52.284538664999893
 30
0.0
  0
VERTEX
  5
132E
  8
SAPA_GLAS
 10
12.83027059770404
 20
-67.227459136377774
 30
0.0
  0
VERTEX
  5
132F
  8
SAPA_GLAS
 10
22.79221757862263
 20
-66.355901708900319
 30
0.0
  0
SEQEND
  5
1330
  8
SAPA_GLAS
  0
POLYLINE
  5
C09
  8
SAPA_GLAS
 66
     1
 10
0.0
 20
0.0
 30
0.0
  0
VERTEX
  5
1331
  8
SAPA_GLAS
 10
43.239045996939353
 20
-70.589955042499469
 30
0.0
  0
VERTEX
  5
1332
  8
SAPA_GLAS
 10
13.35320505418724
 20
-73.204627324928197
 30
0.0
  0
VERTEX
  5
1333
  8
SAPA_GLAS
 10
12.83027059770404
 20
-67.227459136377774
 30
0.0
  0
VERTEX
  5
1334
  8
SAPA_GLAS
 10
42.716111540452523
 20
-64.612786853949046
 30
0.0
  0
SEQEND
  5
1335
  8
SAPA_GLAS
  0
POLYLINE
  5
C11
  8
SAPA_ISOLATOR
 66
     1
 10
0.0
 20
0.0
 30
0.0
 70
     1
  0
VERTEX
  5
1367
  8
SAPA_ISOLATOR
 10
3.0999999999994539
 20
-52.499999999010008
 30
0.0
  0
VERTEX
  5
1368
  8
SAPA_ISOLATOR
 10
4.4999999999995453
 20
-52.499999999010008
 30
0.0
 42
-0.4142135623730951
  0
VERTEX
  5
1369
  8
SAPA_ISOLATOR
 10
4.9999999999995453
 20
-52.999999999010008
 30
0.0
  0
VERTEX
  5
136A
  8
SAPA_ISOLATOR
 10
4.9999999999995453
 20
-82.499999999010015
 30
0.0
  0
VERTEX
  5
136B
  8
SAPA_ISOLATOR
 10
3.4999999999995448
 20
-82.499999999010015
 30
0.0
  0
VERTEX
  5
136C
  8
SAPA_ISOLATOR
 10
0.3535533839701657
 20
-79.353553389603334
 30
0.0
 42
0.4142135623730951
  0
VERTEX
  5
136D
  8
SAPA_ISOLATOR
 10
-0.3535533972165012
 20
-79.353553389603334
 30
0.0
  0
VERTEX
  5
136E
  8
SAPA_ISOLATOR
 10
-3.5000000000004539
 20
-82.499999999010015
 30
0.0
  0
VERTEX
  5
136F
  8
SAPA_ISOLATOR
 10
-5.0000000000004539
 20
-82.499999999010015
 30
0.0
  0
VERTEX
  5
1370
  8
SAPA_ISOLATOR
 10
-5.0000000000004539
 20
-52.999999999010008
 30
0.0
 42
-0.4142135623730951
  0
VERTEX
  5
1371
  8
SAPA_ISOLATOR
 10
-4.5000000000004539
 20
-52.499999999010008
 30
0.0
  0
VERTEX
  5
1372
  8
SAPA_ISOLATOR
 10
-3.1000000000003629
 20
-52.499999999010008
 30
0.0
  0
VERTEX
  5
1373
  8
SAPA_ISOLATOR
 10
-2.2500000000004539
 20
-51.649999999010099
 30
0.0
  0
VERTEX
  5
1374
  8
SAPA_ISOLATOR
 10
-2.2500000000004539
 20
-47.094967040794927
 30
0.0
 42
-0.0912836897734203
  0
VERTEX
  5
1375
  8
SAPA_ISOLATOR
 10
-1.031358332190393
 20
-44.97541000719275
 30
0.0
 42
-0.4609552212306286
  0
VERTEX
  5
1376
  8
SAPA_ISOLATOR
 10
1.0313583321897111
 20
-44.97541000719275
 30
0.0
 42
-0.0912836897734202
  0
VERTEX
  5
1377
  8
SAPA_ISOLATOR
 10
2.2499999999995448
 20
-47.094967040794927
 30
0.0
  0
VERTEX
  5
1378
  8
SAPA_ISOLATOR
 10
2.2499999999995448
 20
-51.649999999010099
 30
0.0
  0
SEQEND
  5
1379
  8
SAPA_ISOLATOR
  0
POLYLINE
  5
C12
  8
SAPA_ISOLATOR
 66
     1
 10
0.0
 20
0.0
 30
0.0
 70
     1
  0
VERTEX
  5
137A
  8
SAPA_ISOLATOR
 10
0.9142135546976533
 20
-78.499999998266048
 30
0.0
 42
0.1989123671061432
  0
VERTEX
  5
137B
  8
SAPA_ISOLATOR
 10
0.2071067742551804
 20
-78.207106780196682
 30
0.0
  0
VERTEX
  5
137C
  8
SAPA_ISOLATOR
 10
-0.2071067742558625
 20
-78.207106780196682
 30
0.0
 42
0.1989123671061405
  0
VERTEX
  5
137D
  8
SAPA_ISOLATOR
 10
-0.9142135546983354
 20
-78.499999998266048
 30
0.0
  0
VERTEX
  5
137E
  8
SAPA_ISOLATOR
 10
-3.1464466097791042
 20
-80.732233048648368
 30
0.0
 42
-0.6681786375387241
  0
VERTEX
  5
137F
  8
SAPA_ISOLATOR
 10
-4.0000000000004539
 20
-80.378679657683037
 30
0.0
  0
VERTEX
  5
1380
  8
SAPA_ISOLATOR
 10
-4.0000000000004539
 20
-67.999999999010015
 30
0.0
 42
-0.4142135623730951
  0
VERTEX
  5
1381
  8
SAPA_ISOLATOR
 10
-3.5000000000004539
 20
-67.499999999010015
 30
0.0
  0
VERTEX
  5
1382
  8
SAPA_ISOLATOR
 10
3.4999999999995448
 20
-67.499999999010015
 30
0.0
 42
-0.4142135623730951
  0
VERTEX
  5
1383
  8
SAPA_ISOLATOR
 10
3.9999999999995448
 20
-67.999999999010015
 30
0.0
  0
VERTEX
  5
1384
  8
SAPA_ISOLATOR
 10
3.9999999999995448
 20
-80.378679657683037
 30
0.0
 42
-0.6681786375387241
  0
VERTEX
  5
1385
  8
SAPA_ISOLATOR
 10
3.1464466097784221
 20
-80.732233048648368
 30
0.0
  0
SEQEND
  5
1386
  8
SAPA_ISOLATOR
  0
POLYLINE
  5
C13
  8
SAPA_ISOLATOR
 66
     1
 10
0.0
 20
0.0
 30
0.0
 70
     1
  0
VERTEX
  5
1387
  8
SAPA_ISOLATOR
 10
1.249999999999545
 20
-52.06421356138344
 30
0.0
  0
VERTEX
  5
1388
  8
SAPA_ISOLATOR
 10
2.6857864376265752
 20
-53.499999999010008
 30
0.0
  0
VERTEX
  5
1389
  8
SAPA_ISOLATOR
 10
3.4999999999995448
 20
-53.499999999010008
 30
0.0
 42
-0.4142135623730951
  0
VERTEX
  5
138A
  8
SAPA_ISOLATOR
 10
3.9999999999995448
 20
-53.999999999010022
 30
0.0
  0
VERTEX
  5
138B
  8
SAPA_ISOLATOR
 10
3.9999999999995448
 20
-65.999999999010015
 30
0.0
 42
-0.4142135623730951
  0
VERTEX
  5
138C
  8
SAPA_ISOLATOR
 10
3.4999999999995448
 20
-66.499999999010015
 30
0.0
  0
VERTEX
  5
138D
  8
SAPA_ISOLATOR
 10
-3.5000000000004539
 20
-66.499999999010015
 30
0.0
 42
-0.4142135623730951
  0
VERTEX
  5
138E
  8
SAPA_ISOLATOR
 10
-4.0000000000004539
 20
-65.999999999010015
 30
0.0
  0
VERTEX
  5
138F
  8
SAPA_ISOLATOR
 10
-4.0000000000004539
 20
-53.999999999010022
 30
0.0
 42
-0.4142135623730951
  0
VERTEX
  5
1390
  8
SAPA_ISOLATOR
 10
-3.5000000000004539
 20
-53.499999999010008
 30
0.0
  0
VERTEX
  5
1391
  8
SAPA_ISOLATOR
 10
-2.6857864376272569
 20
-53.499999999010008
 30
0.0
  0
VERTEX
  5
1392
  8
SAPA_ISOLATOR
 10
-1.2500000000004541
 20
-52.064213561382992
 30
0.0
  0
VERTEX
  5
1393
  8
SAPA_ISOLATOR
 10
-1.2500000000004541
 20
-46.769812025297142
 30
0.0
 42
-0.065831318015991
  0
VERTEX
  5
1394
  8
SAPA_ISOLATOR
 10
-0.3962382896033887
 20
-45.463605589831332
 30
0.0
 42
-0.3815575211595297
  0
VERTEX
  5
1395
  8
SAPA_ISOLATOR
 10
0.2236312415527664
 20
-45.380762060001857
 30
0.0
 42
-0.0681340277693807
  0
VERTEX
  5
1396
  8
SAPA_ISOLATOR
 10
1.249999999999545
 20
-46.769812025297142
 30
0.0
  0
SEQEND
  5
1397
  8
SAPA_ISOLATOR
  0
CIRCLE
  5
C2A
  8
SAPA_FOGBAND
 10
-18.629356795612811
 20
-75.028466855360648
 30
0.0
 40
0.2549509756796394
  0
INSERT
  5
C2B
  8
SAPA_FOGBAND
  6
CONTINUOUS
  2
*U46
 10
0.0
 20
0.0
 30
0.0
1001
ACAD
1002
{
1000
R14_HATCH_DATA
1000
C2B
1011
1.0
1021
0.0
1031
0.0
1021
0.0
1031
0.0
1011
0.0
1021
0.0
1031
0.0
1021
1.0
1031
0.0
1011
0.0
1021
0.0
1031
0.0
1021
0.0
1031
1.0
1040
0.0
1010
0.0
1020
0.0
1030
1.0
1000
SOLID
1070
     1
1070
     1
1071
        1
1071
        1
1071
        1
1070
     2
1040
-18.629356795612811
1040
-75.028466855360648
1040
0.2549509756796394
1040
0.0
1040
6.2831853071795862
1070
     1
1071
        1
1005
C2A
1070
     0
1070
     1
1071
        1
1040
-18.866095697183589
1040
-74.946615358031735
1040
0.0
1002
}
  0
POLYLINE
  5
C2C
  8
SAPA_FOGBAND
 66
     1
 10
0.0
 20
0.0
 30
0.0
 70
     1
  0
VERTEX
  5
150F
  8
SAPA_FOGBAND
 10
-17.72935679561499
 20
-77.59999999901197
 30
0.0
 42
0.9999999999999998
  0
VERTEX
  5
1510
  8
SAPA_FOGBAND
 10
-19.529356795614259
 20
-77.59999999901197
 30
0.0
  0
VERTEX
  5
1511
  8
SAPA_FOGBAND
 10
-19.529356795614259
 20
-78.199999999010515
 30
0.0
 42
0.9999999999999998
  0
VERTEX
  5
1512
  8
SAPA_FOGBAND
 10
-17.72935679561499
 20
-78.199999999010515
 30
0.0
  0
SEQEND
  5
1513
  8
SAPA_FOGBAND
  0
POLYLINE
  5
C2D
  8
SAPA_FOGBAND
 66
     1
 10
0.0
 20
0.0
 30
0.0
 70
     1
  0
VERTEX
  5
1514
  8
SAPA_FOGBAND
 10
-14.3793567956128
 20
-74.164228703860545
 30
0.0
  0
VERTEX
  5
1515
  8
SAPA_FOGBAND
 10
-14.3793567956128
 20
-76.299999999010865
 30
0.0
 42
-0.4142135623730951
  0
VERTEX
  5
1516
  8
SAPA_FOGBAND
 10
-14.579356795613529
 20
-76.499999999011607
 30
0.0
  0
VERTEX
  5
1517
  8
SAPA_FOGBAND
 10
-16.629356795612811
 20
-76.499999999011607
 30
0.0
 42
0.4142135623730951
  0
VERTEX
  5
1518
  8
SAPA_FOGBAND
 10
-17.129356795612811
 20
-76.999999999011607
 30
0.0
  0
VERTEX
  5
1519
  8
SAPA_FOGBAND
 10
-17.129356795612811
 20
-77.726794918254427
 30
0.0
  0
VERTEX
  5
151A
  8
SAPA_FOGBAND
 10
-16.877592986595229
 20
-77.794254827565283
 30
0.0
 42
-0.4740571810232154
  0
VERTEX
  5
151B
  8
SAPA_FOGBAND
 10
-16.750299124229169
 20
-78.076537413203596
 30
0.0
  0
VERTEX
  5
151C
  8
SAPA_FOGBAND
 10
-17.370399626990661
 20
-79.522743549963025
 30
0.0
 42
-0.2846003776496056
  0
VERTEX
  5
151D
  8
SAPA_FOGBAND
 10
-17.818043805447932
 20
-79.799999999010879
 30
0.0
  0
VERTEX
  5
151E
  8
SAPA_FOGBAND
 10
-19.440669785781321
 20
-79.799999999010879
 30
0.0
 42
-0.2846003776496054
  0
VERTEX
  5
151F
  8
SAPA_FOGBAND
 10
-19.888313964238591
 20
-79.522743549963025
 30
0.0
  0
VERTEX
  5
1520
  8
SAPA_FOGBAND
 10
-20.50841446700008
 20
-78.076537413203596
 30
0.0
 42
-0.4740571810232154
  0
VERTEX
  5
1521
  8
SAPA_FOGBAND
 10
-20.38112060463402
 20
-77.794254827565283
 30
0.0
  0
VERTEX
  5
1522
  8
SAPA_FOGBAND
 10
-20.129356795612811
 20
-77.726794918254427
 30
0.0
  0
VERTEX
  5
1523
  8
SAPA_FOGBAND
 10
-20.129356795612811
 20
-76.999999999011607
 30
0.0
 42
0.4142135623730951
  0
VERTEX
  5
1524
  8
SAPA_FOGBAND
 10
-20.629356795612811
 20
-76.499999999011607
 30
0.0
  0
VERTEX
  5
1525
  8
SAPA_FOGBAND
 10
-23.679356795615721
 20
-76.499999999011607
 30
0.0
 42
0.4142135623730951
  0
VERTEX
  5
1526
  8
SAPA_FOGBAND
 10
-23.879356795612811
 20
-76.699999999010515
 30
0.0
  0
VERTEX
  5
1527
  8
SAPA_FOGBAND
 10
-23.879356795612811
 20
-77.59999999901197
 30
0.0
 42
-0.4142135623730951
  0
VERTEX
  5
1528
  8
SAPA_FOGBAND
 10
-24.079356795613538
 20
-77.799999999010879
 30
0.0
  0
VERTEX
  5
1529
  8
SAPA_FOGBAND
 10
-24.779356795614259
 20
-77.799999999010879
 30
0.0
 42
-0.4142135623730951
  0
VERTEX
  5
152A
  8
SAPA_FOGBAND
 10
-25.079356795613538
 20
-77.499999999011607
 30
0.0
  0
VERTEX
  5
152B
  8
SAPA_FOGBAND
 10
-25.079356795613538
 20
-76.689488222359842
 30
0.0
 42
0.1316524975873982
  0
VERTEX
  5
152C
  8
SAPA_FOGBAND
 10
-25.347305988045381
 20
-75.689488222359842
 30
0.0
  0
VERTEX
  5
152D
  8
SAPA_FOGBAND
 10
-29.31801852514775
 20
-73.054121304015325
 30
0.0
 42
-0.876976462992761
  0
VERTEX
  5
152E
  8
SAPA_FOGBAND
 10
-29.215112935238839
 20
-72.536779967898156
 30
0.0
  0
VERTEX
  5
152F
  8
SAPA_FOGBAND
 10
-23.79045137336664
 20
-73.090624764442737
 30
0.0
 42
0.1353185728426623
  0
VERTEX
  5
1530
  8
SAPA_FOGBAND
 10
-23.79045137336664
 20
-73.090624764442737
 30
0.0
  0
VERTEX
  5
1531
  8
SAPA_FOGBAND
 10
-23.552561880536931
 20
-72.678588072042885
 30
0.0
 42
-0.5773502691896196
  0
VERTEX
  5
1532
  8
SAPA_FOGBAND
 10
-23.2061517190233
 20
-72.678588072042885
 30
0.0
  0
VERTEX
  5
1533
  8
SAPA_FOGBAND
 10
-22.96810410229239
 20
-73.090898634605082
 30
0.0
  0
VERTEX
  5
1534
  8
SAPA_FOGBAND
 10
-22.190609492376211
 20
-73.090898634605082
 30
0.0
  0
VERTEX
  5
1535
  8
SAPA_FOGBAND
 10
-21.952561880534748
 20
-72.678588072042885
 30
0.0
 42
-0.5773502691896196
  0
VERTEX
  5
1536
  8
SAPA_FOGBAND
 10
-21.606151719021121
 20
-72.678588072042885
 30
0.0
  0
VERTEX
  5
1537
  8
SAPA_FOGBAND
 10
-21.368104102290211
 20
-73.090898634605082
 30
0.0
  0
VERTEX
  5
1538
  8
SAPA_FOGBAND
 10
-20.590609492374028
 20
-73.090898634605082
 30
0.0
  0
VERTEX
  5
1539
  8
SAPA_FOGBAND
 10
-20.3525618805362
 20
-72.678588072042885
 30
0.0
 42
-0.5773502691896196
  0
VERTEX
  5
153A
  8
SAPA_FOGBAND
 10
-20.006151719022569
 20
-72.678588072042885
 30
0.0
  0
VERTEX
  5
153B
  8
SAPA_FOGBAND
 10
-19.768104102291659
 20
-73.090898634605082
 30
0.0
  0
VERTEX
  5
153C
  8
SAPA_FOGBAND
 10
-18.99060949237548
 20
-73.090898634605082
 30
0.0
  0
VERTEX
  5
153D
  8
SAPA_FOGBAND
 10
-18.752561880537652
 20
-72.678588072042885
 30
0.0
 42
-0.5773502691896196
  0
VERTEX
  5
153E
  8
SAPA_FOGBAND
 10
-18.40615171902402
 20
-72.678588072042885
 30
0.0
  0
VERTEX
  5
153F
  8
SAPA_FOGBAND
 10
-18.16810410229311
 20
-73.090898634605082
 30
0.0
  0
VERTEX
  5
1540
  8
SAPA_FOGBAND
 10
-17.390609492373301
 20
-73.090898634605082
 30
0.0
  0
VERTEX
  5
1541
  8
SAPA_FOGBAND
 10
-17.152561880535469
 20
-72.678588072042885
 30
0.0
 42
-0.5773502691896196
  0
VERTEX
  5
1542
  8
SAPA_FOGBAND
 10
-16.806151719021841
 20
-72.678588072042885
 30
0.0
  0
VERTEX
  5
1543
  8
SAPA_FOGBAND
 10
-16.568104102290931
 20
-73.090898634605082
 30
0.0
  0
VERTEX
  5
1544
  8
SAPA_FOGBAND
 10
-15.79060948820927
 20
-73.090898634605082
 30
0.0
  0
VERTEX
  5
1545
  8
SAPA_FOGBAND
 10
-15.55256187637144
 20
-72.678588072042885
 30
0.0
 42
-0.5773502691896196
  0
VERTEX
  5
1546
  8
SAPA_FOGBAND
 10
-15.20615171485781
 20
-72.678588072042885
 30
0.0
  0
VERTEX
  5
1547
  8
SAPA_FOGBAND
 10
-14.40615171530237
 20
-74.064228703088929
 30
0.0
 42
-0.1316524987190407
  0
SEQEND
  5
1548
  8
SAPA_FOGBAND
  0
POLYLINE
  5
C2E
  8
SAPA_FOGBAND
 66
     1
 10
0.0
 20
0.0
 30
0.0
 70
     1
  0
VERTEX
  5
1549
  8
SAPA_FOGBAND
 10
-19.301327184515799
 20
-33.58536950137136
 30
0.0
  0
VERTEX
  5
154A
  8
SAPA_FOGBAND
 10
-19.301327184515799
 20
-34.185369501371717
 30
0.0
 42
-0.9999999999999998
  0
VERTEX
  5
154B
  8
SAPA_FOGBAND
 10
-21.101327184515071
 20
-34.185369501371717
 30
0.0
  0
VERTEX
  5
154C
  8
SAPA_FOGBAND
 10
-21.101327184515071
 20
-33.58536950137136
 30
0.0
 42
-0.9999999999999998
  0
SEQEND
  5
154D
  8
SAPA_FOGBAND
  0
POLYLINE
  5
C2F
  8
SAPA_FOGBAND
 66
     1
 10
0.0
 20
0.0
 30
0.0
  0
VERTEX
  5
154E
  8
SAPA_FOGBAND
 10
-23.801327184515799
 20
-35.499999999009788
 30
0.0
  0
VERTEX
  5
154F
  8
SAPA_FOGBAND
 10
-23.801327184515799
 20
-35.79999999900906
 30
0.0
 42
0.4142135623730951
  0
VERTEX
  5
1550
  8
SAPA_FOGBAND
 10
-23.301327184515799
 20
-36.29999999900906
 30
0.0
  0
VERTEX
  5
1551
  8
SAPA_FOGBAND
 10
-16.001327184516519
 20
-36.29999999900906
 30
0.0
 42
0.4142135623730951
  0
VERTEX
  5
1552
  8
SAPA_FOGBAND
 10
-15.501327184516519
 20
-35.79999999900906
 30
0.0
  0
VERTEX
  5
1553
  8
SAPA_FOGBAND
 10
-15.501327184516519
 20
-35.499999999009788
 30
0.0
  0
SEQEND
  5
1554
  8
SAPA_FOGBAND
  0
POLYLINE
  5
C30
  8
SAPA_FOGBAND
 10
-22.264574318352636
 20
-40.561832548751106
 30
0.0
 66
     1
 70
     8
  0
VERTEX
  8
SAPA_FOGBAND
  5
1664
 10
-22.2646
 20
-40.5618
 30
0.000000
  70
    32
  0
VERTEX
  8
SAPA_FOGBAND
  5
1665
 10
-22.2598
 20
-40.6446
 30
0.000000
  70
    32
  0
VERTEX
  8
SAPA_FOGBAND
  5
1666
 10
-22.2470
 20
-40.7271
 30
0.000000
  70
    32
  0
VERTEX
  8
SAPA_FOGBAND
  5
1667
 10
-22.2264
 20
-40.8091
 30
0.000000
  70
    32
  0
VERTEX
  8
SAPA_FOGBAND
  5
1668
 10
-22.1979
 20
-40.8904
 30
0.000000
  70
    32
  0
VERTEX
  8
SAPA_FOGBAND
  5
1669
 10
-22.1616
 20
-40.9709
 30
0.000000
  70
    32
  0
VERTEX
  8
SAPA_FOGBAND
  5
166A
 10
-22.1177
 20
-41.0503
 30
0.000000
  70
    32
  0
VERTEX
  8
SAPA_FOGBAND
  5
166B
 10
-22.0661
 20
-41.1285
 30
0.000000
  70
    32
  0
VERTEX
  8
SAPA_FOGBAND
  5
166C
 10
-22.0071
 20
-41.2052
 30
0.000000
  70
    32
  0
VERTEX
  8
SAPA_FOGBAND
  5
166D
 10
-21.9407
 20
-41.2802
 30
0.000000
  70
    32
  0
VERTEX
  8
SAPA_FOGBAND
  5
166E
 10
-21.8672
 20
-41.3535
 30
0.000000
  70
    32
  0
VERTEX
  8
SAPA_FOGBAND
  5
166F
 10
-21.7867
 20
-41.4248
 30
0.000000
  70
    32
  0
VERTEX
  8
SAPA_FOGBAND
  5
1670
 10
-21.6994
 20
-41.4939
 30
0.000000
  70
    32
  0
VERTEX
  8
SAPA_FOGBAND
  5
1671
 10
-21.6055
 20
-41.5607
 30
0.000000
  70
    32
  0
VERTEX
  8
SAPA_FOGBAND
  5
1672
 10
-21.5052
 20
-41.6250
 30
0.000000
  70
    32
  0
VERTEX
  8
SAPA_FOGBAND
  5
1673
 10
-21.3989
 20
-41.6867
 30
0.000000
  70
    32
  0
VERTEX
  8
SAPA_FOGBAND
  5
1674
 10
-21.2867
 20
-41.7455
 30
0.000000
  70
    32
  0
VERTEX
  8
SAPA_FOGBAND
  5
1675
 10
-21.1688
 20
-41.8015
 30
0.000000
  70
    32
  0
VERTEX
  8
SAPA_FOGBAND
  5
1676
 10
-21.0457
 20
-41.8544
 30
0.000000
  70
    32
  0
VERTEX
  8
SAPA_FOGBAND
  5
1677
 10
-20.9176
 20
-41.9041
 30
0.000000
  70
    32
  0
VERTEX
  8
SAPA_FOGBAND
  5
1678
 10
-20.7848
 20
-41.9504
 30
0.000000
  70
    32
  0
VERTEX
  8
SAPA_FOGBAND
  5
1679
 10
-20.6475
 20
-41.9934
 30
0.000000
  70
    32
  0
VERTEX
  8
SAPA_FOGBAND
  5
167A
 10
-20.5063
 20
-42.0328
 30
0.000000
  70
    32
  0
VERTEX
  8
SAPA_FOGBAND
  5
167B
 10
-20.3613
 20
-42.0686
 30
0.000000
  70
    32
  0
VERTEX
  8
SAPA_FOGBAND
  5
167C
 10
-20.2130
 20
-42.1007
 30
0.000000
  70
    32
  0
VERTEX
  8
SAPA_FOGBAND
  5
167D
 10
-20.0616
 20
-42.1290
 30
0.000000
  70
    32
  0
VERTEX
  8
SAPA_FOGBAND
  5
167E
 10
-19.9077
 20
-42.1535
 30
0.000000
  70
    32
  0
VERTEX
  8
SAPA_FOGBAND
  5
167F
 10
-19.7514
 20
-42.1740
 30
0.000000
  70
    32
  0
VERTEX
  8
SAPA_FOGBAND
  5
1680
 10
-19.5933
 20
-42.1906
 30
0.000000
  70
    32
  0
VERTEX
  8
SAPA_FOGBAND
  5
1681
 10
-19.4336
 20
-42.2032
 30
0.000000
  70
    32
  0
VERTEX
  8
SAPA_FOGBAND
  5
1682
 10
-19.2729
 20
-42.2117
 30
0.000000
  70
    32
  0
VERTEX
  8
SAPA_FOGBAND
  5
1683
 10
-19.1114
 20
-42.2162
 30
0.000000
  70
    32
  0
VERTEX
  8
SAPA_FOGBAND
  5
1684
 10
-18.9495
 20
-42.2166
 30
0.000000
  70
    32
  0
VERTEX
  8
SAPA_FOGBAND
  5
1685
 10
-18.7877
 20
-42.2130
 30
0.000000
  70
    32
  0
VERTEX
  8
SAPA_FOGBAND
  5
1686
 10
-18.6263
 20
-42.2053
 30
0.000000
  70
    32
  0
VERTEX
  8
SAPA_FOGBAND
  5
1687
 10
-18.4657
 20
-42.1935
 30
0.000000
  70
    32
  0
VERTEX
  8
SAPA_FOGBAND
  5
1688
 10
-18.3064
 20
-42.1778
 30
0.000000
  70
    32
  0
VERTEX
  8
SAPA_FOGBAND
  5
1689
 10
-18.1486
 20
-42.1581
 30
0.000000
  70
    32
  0
VERTEX
  8
SAPA_FOGBAND
  5
168A
 10
-17.9928
 20
-42.1344
 30
0.000000
  70
    32
  0
VERTEX
  8
SAPA_FOGBAND
  5
168B
 10
-17.8393
 20
-42.1069
 30
0.000000
  70
    32
  0
VERTEX
  8
SAPA_FOGBAND
  5
168C
 10
-17.6886
 20
-42.0756
 30
0.000000
  70
    32
  0
VERTEX
  8
SAPA_FOGBAND
  5
168D
 10
-17.5409
 20
-42.0406
 30
0.000000
  70
    32
  0
VERTEX
  8
SAPA_FOGBAND
  5
168E
 10
-17.3967
 20
-42.0019
 30
0.000000
  70
    32
  0
VERTEX
  8
SAPA_FOGBAND
  5
168F
 10
-17.2562
 20
-41.9596
 30
0.000000
  70
    32
  0
VERTEX
  8
SAPA_FOGBAND
  5
1690
 10
-17.1199
 20
-41.9140
 30
0.000000
  70
    32
  0
VERTEX
  8
SAPA_FOGBAND
  5
1691
 10
-16.9880
 20
-41.8650
 30
0.000000
  70
    32
  0
VERTEX
  8
SAPA_FOGBAND
  5
1692
 10
-16.8609
 20
-41.8127
 30
0.000000
  70
    32
  0
VERTEX
  8
SAPA_FOGBAND
  5
1693
 10
-16.7389
 20
-41.7574
 30
0.000000
  70
    32
  0
VERTEX
  8
SAPA_FOGBAND
  5
1694
 10
-16.6222
 20
-41.6991
 30
0.000000
  70
    32
  0
VERTEX
  8
SAPA_FOGBAND
  5
1695
 10
-16.5112
 20
-41.6380
 30
0.000000
  70
    32
  0
VERTEX
  8
SAPA_FOGBAND
  5
1696
 10
-16.4061
 20
-41.5742
 30
0.000000
  70
    32
  0
VERTEX
  8
SAPA_FOGBAND
  5
1697
 10
-16.3071
 20
-41.5079
 30
0.000000
  70
    32
  0
VERTEX
  8
SAPA_FOGBAND
  5
1698
 10
-16.2146
 20
-41.4393
 30
0.000000
  70
    32
  0
VERTEX
  8
SAPA_FOGBAND
  5
1699
 10
-16.1287
 20
-41.3685
 30
0.000000
  70
    32
  0
VERTEX
  8
SAPA_FOGBAND
  5
169A
 10
-16.0496
 20
-41.2956
 30
0.000000
  70
    32
  0
VERTEX
  8
SAPA_FOGBAND
  5
169B
 10
-15.9775
 20
-41.2209
 30
0.000000
  70
    32
  0
VERTEX
  8
SAPA_FOGBAND
  5
169C
 10
-15.9127
 20
-41.1445
 30
0.000000
  70
    32
  0
VERTEX
  8
SAPA_FOGBAND
  5
169D
 10
-15.8552
 20
-41.0666
 30
0.000000
  70
    32
  0
VERTEX
  8
SAPA_FOGBAND
  5
169E
 10
-15.8052
 20
-40.9875
 30
0.000000
  70
    32
  0
VERTEX
  8
SAPA_FOGBAND
  5
169F
 10
-15.7628
 20
-40.9072
 30
0.000000
  70
    32
  0
VERTEX
  8
SAPA_FOGBAND
  5
16A0
 10
-15.7281
 20
-40.8260
 30
0.000000
  70
    32
  0
VERTEX
  8
SAPA_FOGBAND
  5
16A1
 10
-15.7013
 20
-40.7442
 30
0.000000
  70
    32
  0
VERTEX
  8
SAPA_FOGBAND
  5
16A2
 10
-15.6823
 20
-40.6617
 30
0.000000
  70
    32
  0
VERTEX
  8
SAPA_FOGBAND
  5
16A3
 10
-15.6712
 20
-40.5790
 30
0.000000
  70
    32
  0
VERTEX
  8
SAPA_FOGBAND
  5
16A4
 10
-15.6680
 20
-40.4962
 30
0.000000
  70
    32
  0
VERTEX
  8
SAPA_FOGBAND
  5
16A5
 10
-15.6728
 20
-40.4134
 30
0.000000
  70
    32
  0
VERTEX
  8
SAPA_FOGBAND
  5
16A6
 10
-15.6856
 20
-40.3309
 30
0.000000
  70
    32
  0
VERTEX
  8
SAPA_FOGBAND
  5
16A7
 10
-15.7062
 20
-40.2489
 30
0.000000
  70
    32
  0
VERTEX
  8
SAPA_FOGBAND
  5
16A8
 10
-15.7347
 20
-40.1676
 30
0.000000
  70
    32
  0
VERTEX
  8
SAPA_FOGBAND
  5
16A9
 10
-15.7710
 20
-40.0871
 30
0.000000
  70
    32
  0
VERTEX
  8
SAPA_FOGBAND
  5
16AA
 10
-15.8149
 20
-40.0077
 30
0.000000
  70
    32
  0
VERTEX
  8
SAPA_FOGBAND
  5
16AB
 10
-15.8665
 20
-39.9296
 30
0.000000
  70
    32
  0
VERTEX
  8
SAPA_FOGBAND
  5
16AC
 10
-15.9255
 20
-39.8529
 30
0.000000
  70
    32
  0
VERTEX
  8
SAPA_FOGBAND
  5
16AD
 10
-15.9919
 20
-39.7778
 30
0.000000
  70
    32
  0
VERTEX
  8
SAPA_FOGBAND
  5
16AE
 10
-16.0654
 20
-39.7045
 30
0.000000
  70
    32
  0
VERTEX
  8
SAPA_FOGBAND
  5
16AF
 10
-16.1459
 20
-39.6332
 30
0.000000
  70
    32
  0
VERTEX
  8
SAPA_FOGBAND
  5
16B0
 10
-16.2332
 20
-39.5641
 30
0.000000
  70
    32
  0
VERTEX
  8
SAPA_FOGBAND
  5
16B1
 10
-16.3271
 20
-39.4973
 30
0.000000
  70
    32
  0
VERTEX
  8
SAPA_FOGBAND
  5
16B2
 10
-16.4274
 20
-39.4330
 30
0.000000
  70
    32
  0
VERTEX
  8
SAPA_FOGBAND
  5
16B3
 10
-16.5337
 20
-39.3713
 30
0.000000
  70
    32
  0
VERTEX
  8
SAPA_FOGBAND
  5
16B4
 10
-16.6460
 20
-39.3125
 30
0.000000
  70
    32
  0
VERTEX
  8
SAPA_FOGBAND
  5
16B5
 10
-16.7638
 20
-39.2565
 30
0.000000
  70
    32
  0
VERTEX
  8
SAPA_FOGBAND
  5
16B6
 10
-16.8869
 20
-39.2036
 30
0.000000
  70
    32
  0
VERTEX
  8
SAPA_FOGBAND
  5
16B7
 10
-17.0150
 20
-39.1539
 30
0.000000
  70
    32
  0
VERTEX
  8
SAPA_FOGBAND
  5
16B8
 10
-17.1479
 20
-39.1076
 30
0.000000
  70
    32
  0
VERTEX
  8
SAPA_FOGBAND
  5
16B9
 10
-17.2851
 20
-39.0646
 30
0.000000
  70
    32
  0
VERTEX
  8
SAPA_FOGBAND
  5
16BA
 10
-17.4263
 20
-39.0252
 30
0.000000
  70
    32
  0
VERTEX
  8
SAPA_FOGBAND
  5
16BB
 10
-17.5713
 20
-38.9894
 30
0.000000
  70
    32
  0
VERTEX
  8
SAPA_FOGBAND
  5
16BC
 10
-17.7196
 20
-38.9573
 30
0.000000
  70
    32
  0
VERTEX
  8
SAPA_FOGBAND
  5
16BD
 10
-17.8710
 20
-38.9290
 30
0.000000
  70
    32
  0
VERTEX
  8
SAPA_FOGBAND
  5
16BE
 10
-18.0249
 20
-38.9045
 30
0.000000
  70
    32
  0
VERTEX
  8
SAPA_FOGBAND
  5
16BF
 10
-18.1812
 20
-38.8840
 30
0.000000
  70
    32
  0
VERTEX
  8
SAPA_FOGBAND
  5
16C0
 10
-18.3393
 20
-38.8674
 30
0.000000
  70
    32
  0
VERTEX
  8
SAPA_FOGBAND
  5
16C1
 10
-18.4990
 20
-38.8548
 30
0.000000
  70
    32
  0
VERTEX
  8
SAPA_FOGBAND
  5
16C2
 10
-18.6597
 20
-38.8463
 30
0.000000
  70
    32
  0
VERTEX
  8
SAPA_FOGBAND
  5
16C3
 10
-18.8212
 20
-38.8418
 30
0.000000
  70
    32
  0
VERTEX
  8
SAPA_FOGBAND
  5
16C4
 10
-18.9831
 20
-38.8414
 30
0.000000
  70
    32
  0
VERTEX
  8
SAPA_FOGBAND
  5
16C5
 10
-19.1449
 20
-38.8450
 30
0.000000
  70
    32
  0
VERTEX
  8
SAPA_FOGBAND
  5
16C6
 10
-19.3063
 20
-38.8527
 30
0.000000
  70
    32
  0
VERTEX
  8
SAPA_FOGBAND
  5
16C7
 10
-19.4669
 20
-38.8645
 30
0.000000
  70
    32
  0
VERTEX
  8
SAPA_FOGBAND
  5
16C8
 10
-19.6262
 20
-38.8802
 30
0.000000
  70
    32
  0
VERTEX
  8
SAPA_FOGBAND
  5
16C9
 10
-19.7840
 20
-38.8999
 30
0.000000
  70
    32
  0
VERTEX
  8
SAPA_FOGBAND
  5
16CA
 10
-19.9398
 20
-38.9236
 30
0.000000
  70
    32
  0
VERTEX
  8
SAPA_FOGBAND
  5
16CB
 10
-20.0933
 20
-38.9511
 30
0.000000
  70
    32
  0
VERTEX
  8
SAPA_FOGBAND
  5
16CC
 10
-20.2440
 20
-38.9824
 30
0.000000
  70
    32
  0
VERTEX
  8
SAPA_FOGBAND
  5
16CD
 10
-20.3917
 20
-39.0175
 30
0.000000
  70
    32
  0
VERTEX
  8
SAPA_FOGBAND
  5
16CE
 10
-20.5359
 20
-39.0561
 30
0.000000
  70
    32
  0
VERTEX
  8
SAPA_FOGBAND
  5
16CF
 10
-20.6764
 20
-39.0984
 30
0.000000
  70
    32
  0
VERTEX
  8
SAPA_FOGBAND
  5
16D0
 10
-20.8127
 20
-39.1440
 30
0.000000
  70
    32
  0
VERTEX
  8
SAPA_FOGBAND
  5
16D1
 10
-20.9446
 20
-39.1931
 30
0.000000
  70
    32
  0
VERTEX
  8
SAPA_FOGBAND
  5
16D2
 10
-21.0717
 20
-39.2453
 30
0.000000
  70
    32
  0
VERTEX
  8
SAPA_FOGBAND
  5
16D3
 10
-21.1937
 20
-39.3006
 30
0.000000
  70
    32
  0
VERTEX
  8
SAPA_FOGBAND
  5
16D4
 10
-21.3104
 20
-39.3589
 30
0.000000
  70
    32
  0
VERTEX
  8
SAPA_FOGBAND
  5
16D5
 10
-21.4214
 20
-39.4200
 30
0.000000
  70
    32
  0
VERTEX
  8
SAPA_FOGBAND
  5
16D6
 10
-21.5266
 20
-39.4838
 30
0.000000
  70
    32
  0
VERTEX
  8
SAPA_FOGBAND
  5
16D7
 10
-21.6255
 20
-39.5501
 30
0.000000
  70
    32
  0
VERTEX
  8
SAPA_FOGBAND
  5
16D8
 10
-21.7180
 20
-39.6187
 30
0.000000
  70
    32
  0
VERTEX
  8
SAPA_FOGBAND
  5
16D9
 10
-21.8040
 20
-39.6896
 30
0.000000
  70
    32
  0
VERTEX
  8
SAPA_FOGBAND
  5
16DA
 10
-21.8830
 20
-39.7624
 30
0.000000
  70
    32
  0
VERTEX
  8
SAPA_FOGBAND
  5
16DB
 10
-21.9551
 20
-39.8371
 30
0.000000
  70
    32
  0
VERTEX
  8
SAPA_FOGBAND
  5
16DC
 10
-22.0199
 20
-39.9135
 30
0.000000
  70
    32
  0
VERTEX
  8
SAPA_FOGBAND
  5
16DD
 10
-22.0774
 20
-39.9914
 30
0.000000
  70
    32
  0
VERTEX
  8
SAPA_FOGBAND
  5
16DE
 10
-22.1274
 20
-40.0705
 30
0.000000
  70
    32
  0
VERTEX
  8
SAPA_FOGBAND
  5
16DF
 10
-22.1698
 20
-40.1508
 30
0.000000
  70
    32
  0
VERTEX
  8
SAPA_FOGBAND
  5
16E0
 10
-22.2045
 20
-40.2320
 30
0.000000
  70
    32
  0
VERTEX
  8
SAPA_FOGBAND
  5
16E1
 10
-22.2313
 20
-40.3139
 30
0.000000
  70
    32
  0
VERTEX
  8
SAPA_FOGBAND
  5
16E2
 10
-22.2503
 20
-40.3963
 30
0.000000
  70
    32
  0
VERTEX
  8
SAPA_FOGBAND
  5
16E3
 10
-22.2614
 20
-40.4790
 30
0.000000
  70
    32
  0
VERTEX
  8
SAPA_FOGBAND
  5
16E4
 10
-22.2646
 20
-40.5618
 30
0.000000
  70
    32
  0
SEQEND
  8
SAPA_FOGBAND
  5
16E5
  0
POLYLINE
  5
C31
  8
SAPA_FOGBAND
 66
     1
 10
0.0
 20
0.0
 30
0.0
 70
     1
  0
VERTEX
  5
1555
  8
SAPA_FOGBAND
 10
-8.8913247649944651
 20
-43.953324864972501
 30
0.0
  0
VERTEX
  5
1556
  8
SAPA_FOGBAND
 10
-11.89265192756659
 20
-44.445277204863707
 30
0.0
 42
-0.4464785874932524
  0
VERTEX
  5
1557
  8
SAPA_FOGBAND
 10
-13.001327184516519
 20
-43.451199899756141
 30
0.0
  0
VERTEX
  5
1558
  8
SAPA_FOGBAND
 10
-13.001327184516519
 20
-39.850147745600452
 30
0.0
 42
-0.622676997742357
  0
VERTEX
  5
1559
  8
SAPA_FOGBAND
 10
-11.390652697904549
 20
-39.058266017436161
 30
0.0
  0
VERTEX
  5
155A
  8
SAPA_FOGBAND
 10
-8.3893255353324321
 20
-41.533301339953368
 30
0.0
 42
-0.232531183213058
  0
VERTEX
  5
155B
  8
SAPA_FOGBAND
 10
-8.0000000219480398
 20
-42.32518306811766
 30
0.0
  0
VERTEX
  5
155C
  8
SAPA_FOGBAND
 10
-8.0000000219480398
 20
-42.959247559866753
 30
0.0
 42
-0.3826682380870913
  0
SEQEND
  5
155D
  8
SAPA_FOGBAND
  0
POLYLINE
  5
C32
  8
SAPA_FOGBAND
 66
     1
 10
0.0
 20
0.0
 30
0.0
  0
VERTEX
  5
155E
  8
SAPA_FOGBAND
 10
-25.16355133371701
 20
-45.068220299482391
 30
0.0
 42
-0.425791769971358
  0
VERTEX
  5
155F
  8
SAPA_FOGBAND
 10
-25.463318887319591
 20
-44.756412936952302
 30
0.0
  0
VERTEX
  5
1560
  8
SAPA_FOGBAND
 10
-25.013254901496229
 20
-35.78819263647825
 30
0.0
 42
-0.4027293761470612
  0
VERTEX
  5
1561
  8
SAPA_FOGBAND
 10
-24.713487347897281
 20
-35.499999999011607
 30
0.0
  0
VERTEX
  5
1562
  8
SAPA_FOGBAND
 10
-22.201327184517261
 20
-35.499999999009788
 30
0.0
 42
0.4142135623730951
  0
VERTEX
  5
1563
  8
SAPA_FOGBAND
 10
-21.70132718451725
 20
-34.999999999009788
 30
0.0
  0
VERTEX
  5
1564
  8
SAPA_FOGBAND
 10
-21.70132718451725
 20
-34.058574582127449
 30
0.0
  0
VERTEX
  5
1565
  8
SAPA_FOGBAND
 10
-21.953090993538471
 20
-33.991114672818412
 30
0.0
 42
-0.4740571810171749
  0
VERTEX
  5
1566
  8
SAPA_FOGBAND
 10
-22.080384855900888
 20
-33.70883208717828
 30
0.0
  0
VERTEX
  5
1567
  8
SAPA_FOGBAND
 10
-21.460284353143042
 20
-32.262625950418851
 30
0.0
 42
-0.2846003776497283
  0
VERTEX
  5
1568
  8
SAPA_FOGBAND
 10
-21.01264017468214
 20
-31.985369501371
 30
0.0
  0
VERTEX
  5
1569
  8
SAPA_FOGBAND
 10
-19.390014194352371
 20
-31.985369501371
 30
0.0
 42
-0.2846003776497283
  0
VERTEX
  5
156A
  8
SAPA_FOGBAND
 10
-18.94237001589147
 20
-32.262625950418851
 30
0.0
  0
VERTEX
  5
156B
  8
SAPA_FOGBAND
 10
-18.32226951313362
 20
-33.70883208717828
 30
0.0
 42
-0.4740571810171749
  0
VERTEX
  5
156C
  8
SAPA_FOGBAND
 10
-18.449563375496041
 20
-33.991114672818412
 30
0.0
  0
VERTEX
  5
156D
  8
SAPA_FOGBAND
 10
-18.70132718451725
 20
-34.058574582127449
 30
0.0
  0
VERTEX
  5
156E
  8
SAPA_FOGBAND
 10
-18.70132718451725
 20
-34.999999999009788
 30
0.0
 42
0.4142135623730951
  0
VERTEX
  5
156F
  8
SAPA_FOGBAND
 10
-18.20132718451725
 20
-35.499999999009788
 30
0.0
  0
VERTEX
  5
1570
  8
SAPA_FOGBAND
 10
-15.173227633782631
 20
-35.499999999009788
 30
0.0
 42
-0.165720576018261
  0
VERTEX
  5
1571
  8
SAPA_FOGBAND
 10
-14.562553147167019
 20
-35.708118270849127
 30
0.0
  0
VERTEX
  5
1572
  8
SAPA_FOGBAND
 10
-5.1946627566904899
 20
-41.10270335570317
 30
0.0
 42
-0.2325311832125715
  0
VERTEX
  5
1573
  8
SAPA_FOGBAND
 10
-4.9999999999964748
 20
-41.4986442197835
 30
0.0
  0
VERTEX
  5
1574
  8
SAPA_FOGBAND
 10
-4.9999999999964748
 20
-43.729387776221522
 30
0.0
 42
-0.382668238087329
  0
VERTEX
  5
1575
  8
SAPA_FOGBAND
 10
-5.8913247430465381
 20
-44.723465081327269
 30
0.0
  0
VERTEX
  5
1576
  8
SAPA_FOGBAND
 10
-11.562126600722079
 20
-46.258190771420459
 30
0.0
  0
VERTEX
  5
1577
  8
SAPA_FOGBAND
 10
-25.21564578703703
 20
-45.063662625382896
 30
0.0
  0
SEQEND
  5
1578
  8
SAPA_FOGBAND
  0
CIRCLE
  5
C33
  8
SAPA_FOGBAND
 10
18.629356795612811
 20
-75.028466855360648
 30
0.0
 40
0.2549509756796394
  0
INSERT
  5
C34
  8
SAPA_FOGBAND
  6
CONTINUOUS
  2
*U47
 10
0.0
 20
0.0
 30
0.0
1001
ACAD
1002
{
1000
R14_HATCH_DATA
1000
C34
1011
1.0
1021
0.0
1031
0.0
1021
0.0
1031
0.0
1011
0.0
1021
0.0
1031
0.0
1021
1.0
1031
0.0
1011
0.0
1021
0.0
1031
0.0
1021
0.0
1031
1.0
1040
0.0
1010
0.0
1020
0.0
1030
1.0
1000
SOLID
1070
     1
1070
     1
1071
        1
1071
        1
1071
        1
1070
     3
1040
18.629356795612811
1040
-75.028466855360648
1040
-0.180277563773201
1040
0.1802775637732009
1040
0.9999999999999699
1040
5.497787143782122
1040
11.780972450961711
1070
     0
1071
        1
1005
C33
1070
     0
1070
     1
1071
        1
1040
9.2008398681100516
1040
24.653020573776299
1040
0.0
1002
}
  0
POLYLINE
  5
C35
  8
SAPA_FOGBAND
 66
     1
 10
0.0
 20
0.0
 30
0.0
 70
     1
  0
VERTEX
  5
15FA
  8
SAPA_FOGBAND
 10
17.72935679561499
 20
-77.59999999901197
 30
0.0
 42
-0.9999999999999998
  0
VERTEX
  5
15FB
  8
SAPA_FOGBAND
 10
19.529356795614259
 20
-77.59999999901197
 30
0.0
  0
VERTEX
  5
15FC
  8
SAPA_FOGBAND
 10
19.529356795614259
 20
-78.199999999010515
 30
0.0
 42
-0.9999999999999998
  0
VERTEX
  5
15FD
  8
SAPA_FOGBAND
 10
17.72935679561499
 20
-78.199999999010515
 30
0.0
  0
SEQEND
  5
15FE
  8
SAPA_FOGBAND
  0
POLYLINE
  5
C36
  8
SAPA_FOGBAND
 66
     1
 10
0.0
 20
0.0
 30
0.0
 70
     1
  0
VERTEX
  5
15FF
  8
SAPA_FOGBAND
 10
14.3793567956128
 20
-74.164228703860545
 30
0.0
  0
VERTEX
  5
1600
  8
SAPA_FOGBAND
 10
14.3793567956128
 20
-76.299999999010865
 30
0.0
 42
0.4142135623730951
  0
VERTEX
  5
1601
  8
SAPA_FOGBAND
 10
14.579356795613529
 20
-76.499999999011607
 30
0.0
  0
VERTEX
  5
1602
  8
SAPA_FOGBAND
 10
16.629356795612811
 20
-76.499999999011607
 30
0.0
 42
-0.4142135623730951
  0
VERTEX
  5
1603
  8
SAPA_FOGBAND
 10
17.129356795612811
 20
-76.999999999011607
 30
0.0
  0
VERTEX
  5
1604
  8
SAPA_FOGBAND
 10
17.129356795612811
 20
-77.726794918254427
 30
0.0
  0
VERTEX
  5
1605
  8
SAPA_FOGBAND
 10
16.877592986595229
 20
-77.794254827565283
 30
0.0
 42
0.4740571810232154
  0
VERTEX
  5
1606
  8
SAPA_FOGBAND
 10
16.750299124229169
 20
-78.076537413203596
 30
0.0
  0
VERTEX
  5
1607
  8
SAPA_FOGBAND
 10
17.370399626990661
 20
-79.522743549963025
 30
0.0
 42
0.2846003776496056
  0
VERTEX
  5
1608
  8
SAPA_FOGBAND
 10
17.818043805447932
 20
-79.799999999010879
 30
0.0
  0
VERTEX
  5
1609
  8
SAPA_FOGBAND
 10
19.440669785781321
 20
-79.799999999010879
 30
0.0
 42
0.2846003776496054
  0
VERTEX
  5
160A
  8
SAPA_FOGBAND
 10
19.888313964238591
 20
-79.522743549963025
 30
0.0
  0
VERTEX
  5
160B
  8
SAPA_FOGBAND
 10
20.50841446700008
 20
-78.076537413203596
 30
0.0
 42
0.4740571810232154
  0
VERTEX
  5
160C
  8
SAPA_FOGBAND
 10
20.38112060463402
 20
-77.794254827565283
 30
0.0
  0
VERTEX
  5
160D
  8
SAPA_FOGBAND
 10
20.129356795612811
 20
-77.726794918254427
 30
0.0
  0
VERTEX
  5
160E
  8
SAPA_FOGBAND
 10
20.129356795612811
 20
-76.999999999011607
 30
0.0
 42
-0.4142135623730951
  0
VERTEX
  5
160F
  8
SAPA_FOGBAND
 10
20.629356795612811
 20
-76.499999999011607
 30
0.0
  0
VERTEX
  5
1610
  8
SAPA_FOGBAND
 10
23.679356795615721
 20
-76.499999999011607
 30
0.0
 42
-0.4142135623730951
  0
VERTEX
  5
1611
  8
SAPA_FOGBAND
 10
23.879356795612811
 20
-76.699999999010515
 30
0.0
  0
VERTEX
  5
1612
  8
SAPA_FOGBAND
 10
23.879356795612811
 20
-77.59999999901197
 30
0.0
 42
0.4142135623730951
  0
VERTEX
  5
1613
  8
SAPA_FOGBAND
 10
24.079356795613538
 20
-77.799999999010879
 30
0.0
  0
VERTEX
  5
1614
  8
SAPA_FOGBAND
 10
24.779356795614259
 20
-77.799999999010879
 30
0.0
 42
0.4142135623730951
  0
VERTEX
  5
1615
  8
SAPA_FOGBAND
 10
25.079356795613538
 20
-77.499999999011607
 30
0.0
  0
VERTEX
  5
1616
  8
SAPA_FOGBAND
 10
25.079356795613538
 20
-76.689488222359842
 30
0.0
 42
-0.1316524975873982
  0
VERTEX
  5
1617
  8
SAPA_FOGBAND
 10
25.347305988045381
 20
-75.689488222359842
 30
0.0
  0
VERTEX
  5
1618
  8
SAPA_FOGBAND
 10
29.31801852514775
 20
-73.054121304015325
 30
0.0
 42
0.876976462992761
  0
VERTEX
  5
1619
  8
SAPA_FOGBAND
 10
29.215112935238839
 20
-72.536779967898156
 30
0.0
  0
VERTEX
  5
161A
  8
SAPA_FOGBAND
 10
23.79045137336664
 20
-73.090624764442737
 30
0.0
 42
-0.1353185728426623
  0
VERTEX
  5
161B
  8
SAPA_FOGBAND
 10
23.79045137336664
 20
-73.090624764442737
 30
0.0
  0
VERTEX
  5
161C
  8
SAPA_FOGBAND
 10
23.552561880536931
 20
-72.678588072042885
 30
0.0
 42
0.5773502691896196
  0
VERTEX
  5
161D
  8
SAPA_FOGBAND
 10
23.2061517190233
 20
-72.678588072042885
 30
0.0
  0
VERTEX
  5
161E
  8
SAPA_FOGBAND
 10
22.96810410229239
 20
-73.090898634605082
 30
0.0
  0
VERTEX
  5
161F
  8
SAPA_FOGBAND
 10
22.190609492376211
 20
-73.090898634605082
 30
0.0
  0
VERTEX
  5
1620
  8
SAPA_FOGBAND
 10
21.952561880534748
 20
-72.678588072042885
 30
0.0
 42
0.5773502691896196
  0
VERTEX
  5
1621
  8
SAPA_FOGBAND
 10
21.606151719021121
 20
-72.678588072042885
 30
0.0
  0
VERTEX
  5
1622
  8
SAPA_FOGBAND
 10
21.368104102290211
 20
-73.090898634605082
 30
0.0
  0
VERTEX
  5
1623
  8
SAPA_FOGBAND
 10
20.590609492374028
 20
-73.090898634605082
 30
0.0
  0
VERTEX
  5
1624
  8
SAPA_FOGBAND
 10
20.3525618805362
 20
-72.678588072042885
 30
0.0
 42
0.5773502691896196
  0
VERTEX
  5
1625
  8
SAPA_FOGBAND
 10
20.006151719022569
 20
-72.678588072042885
 30
0.0
  0
VERTEX
  5
1626
  8
SAPA_FOGBAND
 10
19.768104102291659
 20
-73.090898634605082
 30
0.0
  0
VERTEX
  5
1627
  8
SAPA_FOGBAND
 10
18.99060949237548
 20
-73.090898634605082
 30
0.0
  0
VERTEX
  5
1628
  8
SAPA_FOGBAND
 10
18.752561880537652
 20
-72.678588072042885
 30
0.0
 42
0.5773502691896196
  0
VERTEX
  5
1629
  8
SAPA_FOGBAND
 10
18.40615171902402
 20
-72.678588072042885
 30
0.0
  0
VERTEX
  5
162A
  8
SAPA_FOGBAND
 10
18.16810410229311
 20
-73.090898634605082
 30
0.0
  0
VERTEX
  5
162B
  8
SAPA_FOGBAND
 10
17.390609492373301
 20
-73.090898634605082
 30
0.0
  0
VERTEX
  5
162C
  8
SAPA_FOGBAND
 10
17.152561880535469
 20
-72.678588072042885
 30
0.0
 42
0.5773502691896196
  0
VERTEX
  5
162D
  8
SAPA_FOGBAND
 10
16.806151719021841
 20
-72.678588072042885
 30
0.0
  0
VERTEX
  5
162E
  8
SAPA_FOGBAND
 10
16.568104102290931
 20
-73.090898634605082
 30
0.0
  0
VERTEX
  5
162F
  8
SAPA_FOGBAND
 10
15.79060948820927
 20
-73.090898634605082
 30
0.0
  0
VERTEX
  5
1630
  8
SAPA_FOGBAND
 10
15.55256187637144
 20
-72.678588072042885
 30
0.0
 42
0.5773502691896196
  0
VERTEX
  5
1631
  8
SAPA_FOGBAND
 10
15.20615171485781
 20
-72.678588072042885
 30
0.0
  0
VERTEX
  5
1632
  8
SAPA_FOGBAND
 10
14.40615171530237
 20
-74.064228703088929
 30
0.0
 42
0.1316524987190407
  0
SEQEND
  5
1633
  8
SAPA_FOGBAND
  0
POLYLINE
  5
C37
  8
SAPA_FOGBAND
 66
     1
 10
0.0
 20
0.0
 30
0.0
 70
     1
  0
VERTEX
  5
1634
  8
SAPA_FOGBAND
 10
19.301327184515799
 20
-33.58536950137136
 30
0.0
  0
VERTEX
  5
1635
  8
SAPA_FOGBAND
 10
19.301327184515799
 20
-34.185369501371717
 30
0.0
 42
0.9999999999999998
  0
VERTEX
  5
1636
  8
SAPA_FOGBAND
 10
21.101327184515071
 20
-34.185369501371717
 30
0.0
  0
VERTEX
  5
1637
  8
SAPA_FOGBAND
 10
21.101327184515071
 20
-33.58536950137136
 30
0.0
 42
0.9999999999999998
  0
SEQEND
  5
1638
  8
SAPA_FOGBAND
  0
POLYLINE
  5
C38
  8
SAPA_FOGBAND
 66
     1
 10
0.0
 20
0.0
 30
0.0
  0
VERTEX
  5
1639
  8
SAPA_FOGBAND
 10
23.801327184515799
 20
-35.499999999009788
 30
0.0
  0
VERTEX
  5
163A
  8
SAPA_FOGBAND
 10
23.801327184515799
 20
-35.79999999900906
 30
0.0
 42
-0.4142135623730951
  0
VERTEX
  5
163B
  8
SAPA_FOGBAND
 10
23.301327184515799
 20
-36.29999999900906
 30
0.0
  0
VERTEX
  5
163C
  8
SAPA_FOGBAND
 10
16.001327184516519
 20
-36.29999999900906
 30
0.0
 42
-0.4142135623730951
  0
VERTEX
  5
163D
  8
SAPA_FOGBAND
 10
15.501327184516519
 20
-35.79999999900906
 30
0.0
  0
VERTEX
  5
163E
  8
SAPA_FOGBAND
 10
15.501327184516519
 20
-35.499999999009788
 30
0.0
  0
SEQEND
  5
163F
  8
SAPA_FOGBAND
  0
POLYLINE
  5
C39
  8
SAPA_FOGBAND
 10
22.264574318352636
 20
-40.561832548751106
 30
0.0
 66
     1
 70
     8
  0
VERTEX
  8
SAPA_FOGBAND
  5
16E6
 10
22.2646
 20
-40.5618
 30
0.000000
  70
    32
  0
VERTEX
  8
SAPA_FOGBAND
  5
16E7
 10
22.2598
 20
-40.6446
 30
0.000000
  70
    32
  0
VERTEX
  8
SAPA_FOGBAND
  5
16E8
 10
22.2470
 20
-40.7271
 30
0.000000
  70
    32
  0
VERTEX
  8
SAPA_FOGBAND
  5
16E9
 10
22.2264
 20
-40.8091
 30
0.000000
  70
    32
  0
VERTEX
  8
SAPA_FOGBAND
  5
16EA
 10
22.1979
 20
-40.8904
 30
0.000000
  70
    32
  0
VERTEX
  8
SAPA_FOGBAND
  5
16EB
 10
22.1616
 20
-40.9709
 30
0.000000
  70
    32
  0
VERTEX
  8
SAPA_FOGBAND
  5
16EC
 10
22.1177
 20
-41.0503
 30
0.000000
  70
    32
  0
VERTEX
  8
SAPA_FOGBAND
  5
16ED
 10
22.0661
 20
-41.1285
 30
0.000000
  70
    32
  0
VERTEX
  8
SAPA_FOGBAND
  5
16EE
 10
22.0071
 20
-41.2052
 30
0.000000
  70
    32
  0
VERTEX
  8
SAPA_FOGBAND
  5
16EF
 10
21.9407
 20
-41.2802
 30
0.000000
  70
    32
  0
VERTEX
  8
SAPA_FOGBAND
  5
16F0
 10
21.8672
 20
-41.3535
 30
0.000000
  70
    32
  0
VERTEX
  8
SAPA_FOGBAND
  5
16F1
 10
21.7867
 20
-41.4248
 30
0.000000
  70
    32
  0
VERTEX
  8
SAPA_FOGBAND
  5
16F2
 10
21.6994
 20
-41.4939
 30
0.000000
  70
    32
  0
VERTEX
  8
SAPA_FOGBAND
  5
16F3
 10
21.6055
 20
-41.5607
 30
0.000000
  70
    32
  0
VERTEX
  8
SAPA_FOGBAND
  5
16F4
 10
21.5052
 20
-41.6250
 30
0.000000
  70
    32
  0
VERTEX
  8
SAPA_FOGBAND
  5
16F5
 10
21.3989
 20
-41.6867
 30
0.000000
  70
    32
  0
VERTEX
  8
SAPA_FOGBAND
  5
16F6
 10
21.2867
 20
-41.7455
 30
0.000000
  70
    32
  0
VERTEX
  8
SAPA_FOGBAND
  5
16F7
 10
21.1688
 20
-41.8015
 30
0.000000
  70
    32
  0
VERTEX
  8
SAPA_FOGBAND
  5
16F8
 10
21.0457
 20
-41.8544
 30
0.000000
  70
    32
  0
VERTEX
  8
SAPA_FOGBAND
  5
16F9
 10
20.9176
 20
-41.9041
 30
0.000000
  70
    32
  0
VERTEX
  8
SAPA_FOGBAND
  5
16FA
 10
20.7848
 20
-41.9504
 30
0.000000
  70
    32
  0
VERTEX
  8
SAPA_FOGBAND
  5
16FB
 10
20.6475
 20
-41.9934
 30
0.000000
  70
    32
  0
VERTEX
  8
SAPA_FOGBAND
  5
16FC
 10
20.5063
 20
-42.0328
 30
0.000000
  70
    32
  0
VERTEX
  8
SAPA_FOGBAND
  5
16FD
 10
20.3613
 20
-42.0686
 30
0.000000
  70
    32
  0
VERTEX
  8
SAPA_FOGBAND
  5
16FE
 10
20.2130
 20
-42.1007
 30
0.000000
  70
    32
  0
VERTEX
  8
SAPA_FOGBAND
  5
16FF
 10
20.0616
 20
-42.1290
 30
0.000000
  70
    32
  0
VERTEX
  8
SAPA_FOGBAND
  5
1700
 10
19.9077
 20
-42.1535
 30
0.000000
  70
    32
  0
VERTEX
  8
SAPA_FOGBAND
  5
1701
 10
19.7514
 20
-42.1740
 30
0.000000
  70
    32
  0
VERTEX
  8
SAPA_FOGBAND
  5
1702
 10
19.5933
 20
-42.1906
 30
0.000000
  70
    32
  0
VERTEX
  8
SAPA_FOGBAND
  5
1703
 10
19.4336
 20
-42.2032
 30
0.000000
  70
    32
  0
VERTEX
  8
SAPA_FOGBAND
  5
1704
 10
19.2729
 20
-42.2117
 30
0.000000
  70
    32
  0
VERTEX
  8
SAPA_FOGBAND
  5
1705
 10
19.1114
 20
-42.2162
 30
0.000000
  70
    32
  0
VERTEX
  8
SAPA_FOGBAND
  5
1706
 10
18.9495
 20
-42.2166
 30
0.000000
  70
    32
  0
VERTEX
  8
SAPA_FOGBAND
  5
1707
 10
18.7877
 20
-42.2130
 30
0.000000
  70
    32
  0
VERTEX
  8
SAPA_FOGBAND
  5
1708
 10
18.6263
 20
-42.2053
 30
0.000000
  70
    32
  0
VERTEX
  8
SAPA_FOGBAND
  5
1709
 10
18.4657
 20
-42.1935
 30
0.000000
  70
    32
  0
VERTEX
  8
SAPA_FOGBAND
  5
170A
 10
18.3064
 20
-42.1778
 30
0.000000
  70
    32
  0
VERTEX
  8
SAPA_FOGBAND
  5
170B
 10
18.1486
 20
-42.1581
 30
0.000000
  70
    32
  0
VERTEX
  8
SAPA_FOGBAND
  5
170C
 10
17.9928
 20
-42.1344
 30
0.000000
  70
    32
  0
VERTEX
  8
SAPA_FOGBAND
  5
170D
 10
17.8393
 20
-42.1069
 30
0.000000
  70
    32
  0
VERTEX
  8
SAPA_FOGBAND
  5
170E
 10
17.6886
 20
-42.0756
 30
0.000000
  70
    32
  0
VERTEX
  8
SAPA_FOGBAND
  5
170F
 10
17.5409
 20
-42.0406
 30
0.000000
  70
    32
  0
VERTEX
  8
SAPA_FOGBAND
  5
1710
 10
17.3967
 20
-42.0019
 30
0.000000
  70
    32
  0
VERTEX
  8
SAPA_FOGBAND
  5
1711
 10
17.2562
 20
-41.9596
 30
0.000000
  70
    32
  0
VERTEX
  8
SAPA_FOGBAND
  5
1712
 10
17.1199
 20
-41.9140
 30
0.000000
  70
    32
  0
VERTEX
  8
SAPA_FOGBAND
  5
1713
 10
16.9880
 20
-41.8650
 30
0.000000
  70
    32
  0
VERTEX
  8
SAPA_FOGBAND
  5
1714
 10
16.8609
 20
-41.8127
 30
0.000000
  70
    32
  0
VERTEX
  8
SAPA_FOGBAND
  5
1715
 10
16.7389
 20
-41.7574
 30
0.000000
  70
    32
  0
VERTEX
  8
SAPA_FOGBAND
  5
1716
 10
16.6222
 20
-41.6991
 30
0.000000
  70
    32
  0
VERTEX
  8
SAPA_FOGBAND
  5
1717
 10
16.5112
 20
-41.6380
 30
0.000000
  70
    32
  0
VERTEX
  8
SAPA_FOGBAND
  5
1718
 10
16.4061
 20
-41.5742
 30
0.000000
  70
    32
  0
VERTEX
  8
SAPA_FOGBAND
  5
1719
 10
16.3071
 20
-41.5079
 30
0.000000
  70
    32
  0
VERTEX
  8
SAPA_FOGBAND
  5
171A
 10
16.2146
 20
-41.4393
 30
0.000000
  70
    32
  0
VERTEX
  8
SAPA_FOGBAND
  5
171B
 10
16.1287
 20
-41.3685
 30
0.000000
  70
    32
  0
VERTEX
  8
SAPA_FOGBAND
  5
171C
 10
16.0496
 20
-41.2956
 30
0.000000
  70
    32
  0
VERTEX
  8
SAPA_FOGBAND
  5
171D
 10
15.9775
 20
-41.2209
 30
0.000000
  70
    32
  0
VERTEX
  8
SAPA_FOGBAND
  5
171E
 10
15.9127
 20
-41.1445
 30
0.000000
  70
    32
  0
VERTEX
  8
SAPA_FOGBAND
  5
171F
 10
15.8552
 20
-41.0666
 30
0.000000
  70
    32
  0
VERTEX
  8
SAPA_FOGBAND
  5
1720
 10
15.8052
 20
-40.9875
 30
0.000000
  70
    32
  0
VERTEX
  8
SAPA_FOGBAND
  5
1721
 10
15.7628
 20
-40.9072
 30
0.000000
  70
    32
  0
VERTEX
  8
SAPA_FOGBAND
  5
1722
 10
15.7281
 20
-40.8260
 30
0.000000
  70
    32
  0
VERTEX
  8
SAPA_FOGBAND
  5
1723
 10
15.7013
 20
-40.7442
 30
0.000000
  70
    32
  0
VERTEX
  8
SAPA_FOGBAND
  5
1724
 10
15.6823
 20
-40.6617
 30
0.000000
  70
    32
  0
VERTEX
  8
SAPA_FOGBAND
  5
1725
 10
15.6712
 20
-40.5790
 30
0.000000
  70
    32
  0
VERTEX
  8
SAPA_FOGBAND
  5
1726
 10
15.6680
 20
-40.4962
 30
0.000000
  70
    32
  0
VERTEX
  8
SAPA_FOGBAND
  5
1727
 10
15.6728
 20
-40.4134
 30
0.000000
  70
    32
  0
VERTEX
  8
SAPA_FOGBAND
  5
1728
 10
15.6856
 20
-40.3309
 30
0.000000
  70
    32
  0
VERTEX
  8
SAPA_FOGBAND
  5
1729
 10
15.7062
 20
-40.2489
 30
0.000000
  70
    32
  0
VERTEX
  8
SAPA_FOGBAND
  5
172A
 10
15.7347
 20
-40.1676
 30
0.000000
  70
    32
  0
VERTEX
  8
SAPA_FOGBAND
  5
172B
 10
15.7710
 20
-40.0871
 30
0.000000
  70
    32
  0
VERTEX
  8
SAPA_FOGBAND
  5
172C
 10
15.8149
 20
-40.0077
 30
0.000000
  70
    32
  0
VERTEX
  8
SAPA_FOGBAND
  5
172D
 10
15.8665
 20
-39.9296
 30
0.000000
  70
    32
  0
VERTEX
  8
SAPA_FOGBAND
  5
172E
 10
15.9255
 20
-39.8529
 30
0.000000
  70
    32
  0
VERTEX
  8
SAPA_FOGBAND
  5
172F
 10
15.9919
 20
-39.7778
 30
0.000000
  70
    32
  0
VERTEX
  8
SAPA_FOGBAND
  5
1730
 10
16.0654
 20
-39.7045
 30
0.000000
  70
    32
  0
VERTEX
  8
SAPA_FOGBAND
  5
1731
 10
16.1459
 20
-39.6332
 30
0.000000
  70
    32
  0
VERTEX
  8
SAPA_FOGBAND
  5
1732
 10
16.2332
 20
-39.5641
 30
0.000000
  70
    32
  0
VERTEX
  8
SAPA_FOGBAND
  5
1733
 10
16.3271
 20
-39.4973
 30
0.000000
  70
    32
  0
VERTEX
  8
SAPA_FOGBAND
  5
1734
 10
16.4274
 20
-39.4330
 30
0.000000
  70
    32
  0
VERTEX
  8
SAPA_FOGBAND
  5
1735
 10
16.5337
 20
-39.3713
 30
0.000000
  70
    32
  0
VERTEX
  8
SAPA_FOGBAND
  5
1736
 10
16.6460
 20
-39.3125
 30
0.000000
  70
    32
  0
VERTEX
  8
SAPA_FOGBAND
  5
1737
 10
16.7638
 20
-39.2565
 30
0.000000
  70
    32
  0
VERTEX
  8
SAPA_FOGBAND
  5
1738
 10
16.8869
 20
-39.2036
 30
0.000000
  70
    32
  0
VERTEX
  8
SAPA_FOGBAND
  5
1739
 10
17.0150
 20
-39.1539
 30
0.000000
  70
    32
  0
VERTEX
  8
SAPA_FOGBAND
  5
173A
 10
17.1479
 20
-39.1076
 30
0.000000
  70
    32
  0
VERTEX
  8
SAPA_FOGBAND
  5
173B
 10
17.2851
 20
-39.0646
 30
0.000000
  70
    32
  0
VERTEX
  8
SAPA_FOGBAND
  5
173C
 10
17.4263
 20
-39.0252
 30
0.000000
  70
    32
  0
VERTEX
  8
SAPA_FOGBAND
  5
173D
 10
17.5713
 20
-38.9894
 30
0.000000
  70
    32
  0
VERTEX
  8
SAPA_FOGBAND
  5
173E
 10
17.7196
 20
-38.9573
 30
0.000000
  70
    32
  0
VERTEX
  8
SAPA_FOGBAND
  5
173F
 10
17.8710
 20
-38.9290
 30
0.000000
  70
    32
  0
VERTEX
  8
SAPA_FOGBAND
  5
1740
 10
18.0249
 20
-38.9045
 30
0.000000
  70
    32
  0
VERTEX
  8
SAPA_FOGBAND
  5
1741
 10
18.1812
 20
-38.8840
 30
0.000000
  70
    32
  0
VERTEX
  8
SAPA_FOGBAND
  5
1742
 10
18.3393
 20
-38.8674
 30
0.000000
  70
    32
  0
VERTEX
  8
SAPA_FOGBAND
  5
1743
 10
18.4990
 20
-38.8548
 30
0.000000
  70
    32
  0
VERTEX
  8
SAPA_FOGBAND
  5
1744
 10
18.6597
 20
-38.8463
 30
0.000000
  70
    32
  0
VERTEX
  8
SAPA_FOGBAND
  5
1745
 10
18.8212
 20
-38.8418
 30
0.000000
  70
    32
  0
VERTEX
  8
SAPA_FOGBAND
  5
1746
 10
18.9831
 20
-38.8414
 30
0.000000
  70
    32
  0
VERTEX
  8
SAPA_FOGBAND
  5
1747
 10
19.1449
 20
-38.8450
 30
0.000000
  70
    32
  0
VERTEX
  8
SAPA_FOGBAND
  5
1748
 10
19.3063
 20
-38.8527
 30
0.000000
  70
    32
  0
VERTEX
  8
SAPA_FOGBAND
  5
1749
 10
19.4669
 20
-38.8645
 30
0.000000
  70
    32
  0
VERTEX
  8
SAPA_FOGBAND
  5
174A
 10
19.6262
 20
-38.8802
 30
0.000000
  70
    32
  0
VERTEX
  8
SAPA_FOGBAND
  5
174B
 10
19.7840
 20
-38.8999
 30
0.000000
  70
    32
  0
VERTEX
  8
SAPA_FOGBAND
  5
174C
 10
19.9398
 20
-38.9236
 30
0.000000
  70
    32
  0
VERTEX
  8
SAPA_FOGBAND
  5
174D
 10
20.0933
 20
-38.9511
 30
0.000000
  70
    32
  0
VERTEX
  8
SAPA_FOGBAND
  5
174E
 10
20.2440
 20
-38.9824
 30
0.000000
  70
    32
  0
VERTEX
  8
SAPA_FOGBAND
  5
174F
 10
20.3917
 20
-39.0175
 30
0.000000
  70
    32
  0
VERTEX
  8
SAPA_FOGBAND
  5
1750
 10
20.5359
 20
-39.0561
 30
0.000000
  70
    32
  0
VERTEX
  8
SAPA_FOGBAND
  5
1751
 10
20.6764
 20
-39.0984
 30
0.000000
  70
    32
  0
VERTEX
  8
SAPA_FOGBAND
  5
1752
 10
20.8127
 20
-39.1440
 30
0.000000
  70
    32
  0
VERTEX
  8
SAPA_FOGBAND
  5
1753
 10
20.9446
 20
-39.1931
 30
0.000000
  70
    32
  0
VERTEX
  8
SAPA_FOGBAND
  5
1754
 10
21.0717
 20
-39.2453
 30
0.000000
  70
    32
  0
VERTEX
  8
SAPA_FOGBAND
  5
1755
 10
21.1937
 20
-39.3006
 30
0.000000
  70
    32
  0
VERTEX
  8
SAPA_FOGBAND
  5
1756
 10
21.3104
 20
-39.3589
 30
0.000000
  70
    32
  0
VERTEX
  8
SAPA_FOGBAND
  5
1757
 10
21.4214
 20
-39.4200
 30
0.000000
  70
    32
  0
VERTEX
  8
SAPA_FOGBAND
  5
1758
 10
21.5266
 20
-39.4838
 30
0.000000
  70
    32
  0
VERTEX
  8
SAPA_FOGBAND
  5
1759
 10
21.6255
 20
-39.5501
 30
0.000000
  70
    32
  0
VERTEX
  8
SAPA_FOGBAND
  5
175A
 10
21.7180
 20
-39.6187
 30
0.000000
  70
    32
  0
VERTEX
  8
SAPA_FOGBAND
  5
175B
 10
21.8040
 20
-39.6896
 30
0.000000
  70
    32
  0
VERTEX
  8
SAPA_FOGBAND
  5
175C
 10
21.8830
 20
-39.7624
 30
0.000000
  70
    32
  0
VERTEX
  8
SAPA_FOGBAND
  5
175D
 10
21.9551
 20
-39.8371
 30
0.000000
  70
    32
  0
VERTEX
  8
SAPA_FOGBAND
  5
175E
 10
22.0199
 20
-39.9135
 30
0.000000
  70
    32
  0
VERTEX
  8
SAPA_FOGBAND
  5
175F
 10
22.0774
 20
-39.9914
 30
0.000000
  70
    32
  0
VERTEX
  8
SAPA_FOGBAND
  5
1760
 10
22.1274
 20
-40.0705
 30
0.000000
  70
    32
  0
VERTEX
  8
SAPA_FOGBAND
  5
1761
 10
22.1698
 20
-40.1508
 30
0.000000
  70
    32
  0
VERTEX
  8
SAPA_FOGBAND
  5
1762
 10
22.2045
 20
-40.2320
 30
0.000000
  70
    32
  0
VERTEX
  8
SAPA_FOGBAND
  5
1763
 10
22.2313
 20
-40.3139
 30
0.000000
  70
    32
  0
VERTEX
  8
SAPA_FOGBAND
  5
1764
 10
22.2503
 20
-40.3963
 30
0.000000
  70
    32
  0
VERTEX
  8
SAPA_FOGBAND
  5
1765
 10
22.2614
 20
-40.4790
 30
0.000000
  70
    32
  0
VERTEX
  8
SAPA_FOGBAND
  5
1766
 10
22.2646
 20
-40.5618
 30
0.000000
  70
    32
  0
SEQEND
  8
SAPA_FOGBAND
  5
1767
  0
POLYLINE
  5
C3A
  8
SAPA_FOGBAND
 66
     1
 10
0.0
 20
0.0
 30
0.0
 70
     1
  0
VERTEX
  5
1640
  8
SAPA_FOGBAND
 10
8.8913247649944651
 20
-43.953324864972501
 30
0.0
  0
VERTEX
  5
1641
  8
SAPA_FOGBAND
 10
11.89265192756659
 20
-44.445277204863707
 30
0.0
 42
0.4464785874932524
  0
VERTEX
  5
1642
  8
SAPA_FOGBAND
 10
13.001327184516519
 20
-43.451199899756141
 30
0.0
  0
VERTEX
  5
1643
  8
SAPA_FOGBAND
 10
13.001327184516519
 20
-39.850147745600452
 30
0.0
 42
0.622676997742357
  0
VERTEX
  5
1644
  8
SAPA_FOGBAND
 10
11.390652697904549
 20
-39.058266017436161
 30
0.0
  0
VERTEX
  5
1645
  8
SAPA_FOGBAND
 10
8.3893255353324321
 20
-41.533301339953368
 30
0.0
 42
0.232531183213058
  0
VERTEX
  5
1646
  8
SAPA_FOGBAND
 10
8.0000000219480398
 20
-42.32518306811766
 30
0.0
  0
VERTEX
  5
1647
  8
SAPA_FOGBAND
 10
8.0000000219480398
 20
-42.959247559866753
 30
0.0
 42
0.3826682380870913
  0
SEQEND
  5
1648
  8
SAPA_FOGBAND
  0
POLYLINE
  5
C3B
  8
SAPA_FOGBAND
 66
     1
 10
0.0
 20
0.0
 30
0.0
  0
VERTEX
  5
1649
  8
SAPA_FOGBAND
 10
25.16355133371701
 20
-45.068220299482391
 30
0.0
 42
0.425791769971358
  0
VERTEX
  5
164A
  8
SAPA_FOGBAND
 10
25.463318887319591
 20
-44.756412936952302
 30
0.0
  0
VERTEX
  5
164B
  8
SAPA_FOGBAND
 10
25.013254901496229
 20
-35.78819263647825
 30
0.0
 42
0.4027293761470612
  0
VERTEX
  5
164C
  8
SAPA_FOGBAND
 10
24.713487347897281
 20
-35.499999999011607
 30
0.0
  0
VERTEX
  5
164D
  8
SAPA_FOGBAND
 10
22.201327184517261
 20
-35.499999999009788
 30
0.0
 42
-0.4142135623730951
  0
VERTEX
  5
164E
  8
SAPA_FOGBAND
 10
21.70132718451725
 20
-34.999999999009788
 30
0.0
  0
VERTEX
  5
164F
  8
SAPA_FOGBAND
 10
21.70132718451725
 20
-34.058574582127449
 30
0.0
  0
VERTEX
  5
1650
  8
SAPA_FOGBAND
 10
21.953090993538471
 20
-33.991114672818412
 30
0.0
 42
0.4740571810171749
  0
VERTEX
  5
1651
  8
SAPA_FOGBAND
 10
22.080384855900888
 20
-33.70883208717828
 30
0.0
  0
VERTEX
  5
1652
  8
SAPA_FOGBAND
 10
21.460284353143042
 20
-32.262625950418851
 30
0.0
 42
0.2846003776497283
  0
VERTEX
  5
1653
  8
SAPA_FOGBAND
 10
21.01264017468214
 20
-31.985369501371
 30
0.0
  0
VERTEX
  5
1654
  8
SAPA_FOGBAND
 10
19.390014194352371
 20
-31.985369501371
 30
0.0
 42
0.2846003776497283
  0
VERTEX
  5
1655
  8
SAPA_FOGBAND
 10
18.94237001589147
 20
-32.262625950418851
 30
0.0
  0
VERTEX
  5
1656
  8
SAPA_FOGBAND
 10
18.32226951313362
 20
-33.70883208717828
 30
0.0
 42
0.4740571810171749
  0
VERTEX
  5
1657
  8
SAPA_FOGBAND
 10
18.449563375496041
 20
-33.991114672818412
 30
0.0
  0
VERTEX
  5
1658
  8
SAPA_FOGBAND
 10
18.70132718451725
 20
-34.058574582127449
 30
0.0
  0
VERTEX
  5
1659
  8
SAPA_FOGBAND
 10
18.70132718451725
 20
-34.999999999009788
 30
0.0
 42
-0.4142135623730951
  0
VERTEX
  5
165A
  8
SAPA_FOGBAND
 10
18.20132718451725
 20
-35.499999999009788
 30
0.0
  0
VERTEX
  5
165B
  8
SAPA_FOGBAND
 10
15.173227633782631
 20
-35.499999999009788
 30
0.0
 42
0.165720576018261
  0
VERTEX
  5
165C
  8
SAPA_FOGBAND
 10
14.562553147167019
 20
-35.708118270849127
 30
0.0
  0
VERTEX
  5
165D
  8
SAPA_FOGBAND
 10
5.1946627566904899
 20
-41.10270335570317
 30
0.0
 42
0.2325311832125715
  0
VERTEX
  5
165E
  8
SAPA_FOGBAND
 10
4.9999999999964748
 20
-41.4986442197835
 30
0.0
  0
VERTEX
  5
165F
  8
SAPA_FOGBAND
 10
4.9999999999964748
 20
-43.729387776221522
 30
0.0
 42
0.382668238087329
  0
VERTEX
  5
1660
  8
SAPA_FOGBAND
 10
5.8913247430465381
 20
-44.723465081327269
 30
0.0
  0
VERTEX
  5
1661
  8
SAPA_FOGBAND
 10
11.562126600722079
 20
-46.258190771420459
 30
0.0
  0
VERTEX
  5
1662
  8
SAPA_FOGBAND
 10
25.21564578703703
 20
-45.063662625382896
 30
0.0
  0
SEQEND
  5
1663
  8
SAPA_FOGBAND
  0
TEXT
  5
C4F
  8
SAPA_MATT
 62
     2
 10
65.366832819207218
 20
-72.202354597655457
 30
0.0
 40
3.0
  1
-3%%D - 5%%D
  7
ISO
  0
TEXT
  5
C50
  8
SAPA_MATT
 62
     2
 10
-2.1000000000006098
 20
-123.88871031344929
 30
0.0
 40
3.0
  1
50
  7
ISO
  0
SOLID
  5
C51
  8
SAPA_MATT
 10
21.999999999999289
 20
-124.38871031344929
 30
0.0
 11
21.999999999999289
 21
-125.38871031344929
 31
0.0
 12
24.999999999999289
 22
-124.88871031344929
 32
0.0
 13
24.999999999999289
 23
-124.88871031344929
 33
0.0
  0
SOLID
  5
C52
  8
SAPA_MATT
 10
-22.000000000000512
 20
-124.38871031344929
 30
0.0
 11
-22.000000000000512
 21
-125.38871031344929
 31
0.0
 12
-25.000000000000512
 22
-124.88871031344929
 32
0.0
 13
-25.000000000000512
 23
-124.88871031344929
 33
0.0
  0
LINE
  5
C53
  8
SAPA_MATT
 10
-22.000000000000512
 20
-124.88871031344929
 30
0.0
 11
21.999999999999289
 21
-124.88871031344929
 31
0.0
  0
LINE
  5
C54
  8
SAPA_MATT
 10
24.999999999999289
 20
-107.5011113138323
 30
0.0
 11
24.999999999999289
 21
-126.38871031344929
 31
0.0
  0
LINE
  5
C55
  8
SAPA_MATT
 10
-25.000000000000512
 20
-107.5011113138323
 30
0.0
 11
-25.000000000000512
 21
-126.38871031344929
 31
0.0
  0
SOLID
  5
C56
  8
SAPA_MATT
 10
63.122494547019613
 20
-65.825171182874726
 30
0.0
 11
62.129376054476879
 21
-65.942285058097312
 31
0.0
 12
62.97727692641606
 22
-68.863083598114216
 32
0.0
 13
62.97727692641606
 23
-68.863083598114216
 33
0.0
  0
SOLID
  5
C57
  8
SAPA_MATT
 10
62.576722832245402
 20
-76.188210774957369
 30
0.0
 11
63.576269355874402
 21
-76.218323016673153
 31
0.0
 12
63.166832819207222
 22
-73.204627324928211
 32
0.0
 13
63.166832819207222
 23
-73.204627324928211
 33
0.0
  0
ARC
  5
C58
  8
SAPA_MATT
 10
13.35320505418724
 20
-73.204627324928211
 30
0.0
 40
49.81362776501998
 50
0.0
 51
4.9999999999980602
  0
ARC
  5
C59
  8
SAPA_MATT
 10
13.35320505418724
 20
-73.204627324928211
 30
0.0
 40
49.81362776501998
 50
8.4511304084520731
 51
11.902260816906081
  0
ARC
  5
C5A
  8
SAPA_MATT
 10
13.35320505418724
 20
-73.204627324928211
 30
0.0
 40
49.81362776501998
 50
353.09773918309202
 51
356.54886959154601
  0
LINE
  5
C5B
  8
SAPA_MATT
 10
41.245029059526637
 20
-70.764408919401717
 30
0.0
 11
64.471568973553687
 21
-68.732349983992762
 31
0.0
  0
LINE
  5
C5C
  8
SAPA_MATT
 10
40.856923482263483
 20
-73.204627324928211
 30
0.0
 11
80.666832819207215
 21
-73.204627324928211
 31
0.0
  0
LINE
  5
C5D
  8
SAPA_MATT
 10
13.35320505418724
 20
-73.204627324928197
 30
0.0
 11
43.127703907558498
 21
-73.204627324928197
 31
0.0
  0
VIEWPORT
  5
C4
 67
     1
  8
0
 10
143.06236603067589
 20
116.00969601843509
 30
0.0
 40
369.98580003443811
 41
256.8421457311839
 68
     1
 69
     1
1001
ACAD
1000
MVIEW
1002
{
1070
    16
1010
0.0
1020
0.0
1030
0.0
1010
0.0
1020
0.0
1030
1.0
1040
0.0
1040
256.8421457311839
1040
99.112914085388169
1040
143.07606935501099
1040
50.0
1040
0.0
1040
0.0
1070
     0
1070
     0
1070
     1
1070
     1
1070
     0
1070
     0
1070
     0
1070
     0
1040
0.0
1040
0.0
1040
0.0
1040
10.0
1040
10.0
1040
10.0
1040
10.0
1070
     0
1002
{
1002
}
1002
}
  0
ENDSEC
  0
EOF
