  0
SECTION
  2
HEADER
  9
$ACADVER
  1
AC1009
  9
$INSBASE
 10
339.77233197927183
 20
232.3505797206594
 30
0.0
  9
$EXTMIN
 10
-37.18999022946992
 20
-10.86722089062755
 30
0.0
  9
$EXTMAX
 10
190.12938372163171
 20
102.59089654658131
 30
0.0
  9
$LIMMIN
 10
0.0
 20
0.0
  9
$LIMMAX
 10
790.0
 20
790.0
  9
$ORTHOMODE
 70
     1
  9
$REGENMODE
 70
     1
  9
$FILLMODE
 70
     1
  9
$QTEXTMODE
 70
     0
  9
$MIRRTEXT
 70
     1
  9
$DRAGMODE
 70
     2
  9
$LTSCALE
 40
4.0
  9
$OSMODE
 70
   167
  9
$ATTMODE
 70
     1
  9
$TEXTSIZE
 40
3.5
  9
$TRACEWID
 40
0.05
  9
$TEXTSTYLE
  7
ISO
  9
$CLAYER
  8
0
  9
$CELTYPE
  6
BYLAYER
  9
$CECOLOR
 62
   256
  9
$DIMSCALE
 40
0.0
  9
$DIMASZ
 40
3.0
  9
$DIMEXO
 40
1.5
  9
$DIMDLI
 40
10.0
  9
$DIMRND
 40
0.0
  9
$DIMDLE
 40
0.0
  9
$DIMEXE
 40
1.5
  9
$DIMTP
 40
0.0
  9
$DIMTM
 40
0.0
  9
$DIMTXT
 40
3.0
  9
$DIMCEN
 40
-5.0
  9
$DIMTSZ
 40
0.0
  9
$DIMTOL
 70
     0
  9
$DIMLIM
 70
     0
  9
$DIMTIH
 70
     0
  9
$DIMTOH
 70
     0
  9
$DIMSE1
 70
     0
  9
$DIMSE2
 70
     0
  9
$DIMTAD
 70
     1
  9
$DIMZIN
 70
     8
  9
$DIMBLK
  1

  9
$DIMASO
 70
     1
  9
$DIMSHO
 70
     1
  9
$DIMPOST
  1

  9
$DIMAPOST
  1

  9
$DIMALT
 70
     0
  9
$DIMALTD
 70
     0
  9
$DIMALTF
 40
25.399999999999999
  9
$DIMLFAC
 40
-1.0
  9
$DIMTOFL
 70
     1
  9
$DIMTVP
 40
0.0
  9
$DIMTIX
 70
     0
  9
$DIMSOXD
 70
     0
  9
$DIMSAH
 70
     0
  9
$DIMBLK1
  1

  9
$DIMBLK2
  1

  9
$DIMSTYLE
  2
MASKIN
  9
$DIMCLRD
 70
   256
  9
$DIMCLRE
 70
   256
  9
$DIMCLRT
 70
   256
  9
$DIMTFAC
 40
1.0
  9
$DIMGAP
 40
1.0
  9
$LUNITS
 70
     2
  9
$LUPREC
 70
     8
  9
$SKETCHINC
 40
0.1
  9
$FILLETRAD
 40
0.0
  9
$AUNITS
 70
     0
  9
$AUPREC
 70
     8
  9
$MENU
  1
ACAD
  9
$ELEVATION
 40
0.0
  9
$PELEVATION
 40
0.0
  9
$THICKNESS
 40
0.0
  9
$LIMCHECK
 70
     0
  9
$BLIPMODE
 70
     0
  9
$CHAMFERA
 40
0.0
  9
$CHAMFERB
 40
0.0
  9
$SKPOLY
 70
     0
  9
$TDCREATE
 40
2451935.4272193871
  9
$TDUPDATE
 40
2455104.3412219682
  9
$TDINDWG
 40
0.2736132986
  9
$TDUSRTIMER
 40
0.2736132986
  9
$USRTIMER
 70
     1
  9
$ANGBASE
 50
0.0
  9
$ANGDIR
 70
     0
  9
$PDMODE
 70
     0
  9
$PDSIZE
 40
0.0
  9
$PLINEWID
 40
0.0
  9
$COORDS
 70
     1
  9
$SPLFRAME
 70
     0
  9
$SPLINETYPE
 70
     6
  9
$SPLINESEGS
 70
     8
  9
$ATTDIA
 70
     0
  9
$ATTREQ
 70
     1
  9
$HANDLING
 70
     1
  9
$HANDSEED
  5
1D60
  9
$SURFTAB1
 70
     6
  9
$SURFTAB2
 70
     6
  9
$SURFTYPE
 70
     6
  9
$SURFU
 70
     6
  9
$SURFV
 70
     6
  9
$UCSNAME
  2

  9
$UCSORG
 10
0.0
 20
0.0
 30
0.0
  9
$UCSXDIR
 10
1.0
 20
0.0
 30
0.0
  9
$UCSYDIR
 10
0.0
 20
1.0
 30
0.0
  9
$PUCSNAME
  2

  9
$PUCSORG
 10
0.0
 20
0.0
 30
0.0
  9
$PUCSXDIR
 10
1.0
 20
0.0
 30
0.0
  9
$PUCSYDIR
 10
0.0
 20
1.0
 30
0.0
  9
$USERI1
 70
     0
  9
$USERI2
 70
     0
  9
$USERI3
 70
     0
  9
$USERI4
 70
     0
  9
$USERI5
 70
     0
  9
$USERR1
 40
0.0
  9
$USERR2
 40
0.0
  9
$USERR3
 40
0.0
  9
$USERR4
 40
0.0
  9
$USERR5
 40
0.0
  9
$WORLDVIEW
 70
     1
  9
$SHADEDGE
 70
     3
  9
$SHADEDIF
 70
    70
  9
$TILEMODE
 70
     1
  9
$MAXACTVP
 70
    16
  9
$PLIMCHECK
 70
     0
  9
$PEXTMIN
 10
25.694748669507369
 20
19.490204377786991
 30
-0.000000000000013
  9
$PEXTMAX
 10
231.30525271350669
 20
175.50979660010179
 30
0.0000000000000023
  9
$PLIMMIN
 10
-20.0
 20
-7.5
  9
$PLIMMAX
 10
277.0
 20
202.5
  9
$UNITMODE
 70
     0
  9
$VISRETAIN
 70
     1
  9
$PLINEGEN
 70
     0
  9
$PSLTSCALE
 70
     1
  0
ENDSEC
  0
SECTION
  2
TABLES
  0
TABLE
  2
VPORT
 70
     1
  0
VPORT
  2
*ACTIVE
 70
     0
 10
0.0
 20
0.0
 11
1.0
 21
1.0
 12
245.7771080804954
 22
21.880813301470418
 13
0.0
 23
0.0
 14
1.0
 24
1.0
 15
0.0
 25
0.0
 16
0.0
 26
0.0
 36
1.0
 17
0.0
 27
0.0
 37
0.0
 40
342.34627153924657
 41
2.362776025236593
 42
50.0
 43
0.0
 44
0.0
 50
0.0
 51
0.0
 71
     0
 72
   100
 73
     1
 74
     1
 75
     0
 76
     0
 77
     0
 78
     0
  0
ENDTAB
  0
TABLE
  2
LTYPE
 70
     6
  0
LTYPE
  2
CONTINUOUS
 70
     0
  3
Solid line
 72
    65
 73
     0
 40
0.0
  0
LTYPE
  2
BYGG-01482201$0$NEWDOT
 70
     0
  3
____ . ____ . ____ . ____ . ____ . ____ . ____
 72
    65
 73
     4
 40
2.0
 49
1.0
 49
-0.5
 49
0.0
 49
-0.5
  0
LTYPE
  2
BYGG-014357$0$NEWDOT
 70
     0
  3
____ . ____ . ____ . ____ . ____ . ____ . ____
 72
    65
 73
     4
 40
2.0
 49
1.0
 49
-0.5
 49
0.0
 49
-0.5
  0
LTYPE
  2
BYGG-014357$0$DASHDOT
 70
     0
  3
__ . __ . __ . __ . __ . __ . __ . __ . __ . __
 72
    65
 73
     4
 40
1.0
 49
0.5
 49
-0.25
 49
0.0
 49
-0.25
  0
LTYPE
  2
BYGG-014357$0$DASHED
 70
     0
  3
__ __ __ __ __ __ __ __ __ __ __ __ __ __ __
 72
    65
 73
     2
 40
0.75
 49
0.5
 49
-0.25
  0
LTYPE
  2
BYGG-014279$0$NEWDOT
 70
     0
  3
____ . ____ . ____ . ____ . ____ . ____ . ____
 72
    65
 73
     4
 40
2.0
 49
1.0
 49
-0.5
 49
0.0
 49
-0.5
  0
ENDTAB
  0
TABLE
  2
LAYER
 70
    62
  0
LAYER
  2
0
 70
     0
 62
     7
  6
CONTINUOUS
  0
LAYER
  2
SAPA_ANSLUTNING
 70
     0
 62
     6
  6
CONTINUOUS
  0
LAYER
  2
SAPA_PROFIL
 70
     0
 62
     7
  6
CONTINUOUS
  0
LAYER
  2
SAPA_LIGHT
 70
     1
 62
     1
  6
CONTINUOUS
  0
LAYER
  2
MATT
 70
     0
 62
     1
  6
CONTINUOUS
  0
LAYER
  2
SAPA_ISOLATOR
 70
     0
 62
     4
  6
CONTINUOUS
  0
LAYER
  2
SAPA_MATT
 70
     0
 62
     1
  6
CONTINUOUS
  0
LAYER
  2
SAPA_GLAS
 70
     0
 62
     4
  6
CONTINUOUS
  0
LAYER
  2
SAPA_FOGBAND
 70
     0
 62
     2
  6
CONTINUOUS
  0
ENDTAB
  0
TABLE
  2
STYLE
 70
    21
  0
STYLE
  2
STANDARD
 70
     0
 40
0.0
 41
1.0
 50
0.0
 71
     0
 42
0.2
  3
txt
  4

  0
STYLE
  2
ISO
 70
     0
 40
0.0
 41
1.0
 50
0.0
 71
     0
 42
3.5
  3
isocp3.shx
  4

  0
STYLE
  2
BYGG-021802$0$STANDARD
 70
     0
 40
0.0
 41
1.0
 50
0.0
 71
     0
 42
0.2
  3
txt
  4

  0
STYLE
  2
BYGG-021802$0$ISO
 70
     0
 40
0.0
 41
1.0
 50
0.0
 71
     0
 42
3.5
  3
isocp3.shx
  4

  0
STYLE
  2
BYGG-014357$0$STANDARD
 70
     0
 40
0.0
 41
1.0
 50
0.0
 71
     0
 42
0.2
  3
txt
  4

  0
STYLE
  2
BYGG-014357$0$ISO
 70
     0
 40
0.0
 41
1.0
 50
0.0
 71
     0
 42
3.5
  3
isocp3.shx
  4

  0
STYLE
  2
BYGG-014063$0$STANDARD
 70
     0
 40
0.0
 41
1.0
 50
0.0
 71
     0
 42
0.2
  3
txt
  4

  0
STYLE
  2
BYGG-014063$0$ISO
 70
     0
 40
0.0
 41
1.0
 50
0.0
 71
     0
 42
3.5
  3
isocp3.shx
  4

  0
STYLE
  2
BYGG-021582$0$STANDARD
 70
     0
 40
0.0
 41
1.0
 50
0.0
 71
     0
 42
0.2
  3
txt
  4

  0
STYLE
  2
BYGG-021582$0$ISO
 70
     0
 40
0.0
 41
1.0
 50
0.0
 71
     0
 42
3.5
  3
isocp3.shx
  4

  0
STYLE
  2
BYGG-014279$0$STANDARD
 70
     0
 40
0.0
 41
1.0
 50
0.0
 71
     0
 42
0.2
  3
TXT.shx
  4

  0
STYLE
  2
BYGG-014279$0$ISO
 70
     0
 40
0.0
 41
1.0
 50
0.0
 71
     0
 42
3.5
  3
iso
  4

  0
STYLE
  2
BYGG-021820$0$STANDARD
 70
     0
 40
0.0
 41
1.0
 50
0.0
 71
     0
 42
0.2
  3
txt
  4

  0
STYLE
  2
BYGG-021820$0$ISO
 70
     0
 40
0.0
 41
1.0
 50
0.0
 71
     0
 42
3.5
  3
txt
  4

  0
STYLE
  2
BYGG-024366$0$STANDARD
 70
     0
 40
0.0
 41
1.0
 50
0.0
 71
     0
 42
0.2
  3
txt
  4

  0
STYLE
  2
BYGG-024366$0$ISO
 70
     0
 40
0.0
 41
1.0
 50
0.0
 71
     0
 42
3.5
  3
isocp3.shx
  4

  0
STYLE
  2
BYGG-01482201$0$STANDARD
 70
     0
 40
0.0
 41
1.0
 50
0.0
 71
     0
 42
0.2
  3
txt
  4

  0
STYLE
  2
BYGG-01482201$0$ISO
 70
     0
 40
0.0
 41
1.0
 50
0.0
 71
     0
 42
3.5
  3
isocp3.shx
  4

  0
STYLE
  2
BYGG-024364$0$STANDARD
 70
     0
 40
0.0
 41
1.0
 50
0.0
 71
     0
 42
0.2
  3
txt
  4

  0
STYLE
  2
BYGG-024364$0$ISO
 70
     0
 40
0.0
 41
1.0
 50
0.0
 71
     0
 42
3.5
  3
txt
  4

  0
STYLE
  2
BYGG-024364$0$ANNOTATIVE
 70
     0
 40
0.0
 41
1.0
 50
0.0
 71
     0
 42
0.2
  3
txt
  4

  0
ENDTAB
  0
TABLE
  2
VIEW
 70
     0
  0
ENDTAB
  0
TABLE
  2
UCS
 70
     0
  0
ENDTAB
  0
TABLE
  2
APPID
 70
    17
  0
APPID
  2
ACAD
 70
     0
  0
APPID
  2
ACAECLAYERSTANDARD
 70
     0
  0
APPID
  2
AMG_ARCHIVE11
 70
     0
  0
APPID
  2
ACAD_DSTYLE_DIMTEXT_FILL
 70
     0
  0
APPID
  2
ACAD_DSTYLE_DIMEXT_LENGTH
 70
     0
  0
APPID
  2
ACAD_DSTYLE_DIMEXT_ENABLED
 70
     0
  0
APPID
  2
ACAD_DSTYLE_DIM_LINETYPE
 70
     0
  0
APPID
  2
ACAD_DSTYLE_DIM_EXT1_LINETYPE
 70
     0
  0
APPID
  2
ACAD_DSTYLE_DIM_EXT2_LINETYPE
 70
     0
  0
APPID
  2
ACAD_PSEXT
 70
     0
  0
APPID
  2
ACAD_EXEMPT_FROM_CAD_STANDARDS
 70
     0
  0
APPID
  2
ACAD_DSTYLE_DIMJOGGED_JOGA
 70
     0
  0
APPID
  2
ACAD_DSTYLE_DIMARC_LENGTH_
 70
     0
  0
APPID
  2
ACAD_MLEADERVER
 70
     0
  0
APPID
  2
ACADANNOTATIVE
 70
     0
  0
APPID
  2
ACAD_DSTYLE_DIMJAG
 70
     0
  0
APPID
  2
ACAD_DSTYLE_DIMTALN
 70
     0
  0
ENDTAB
  0
TABLE
  2
DIMSTYLE
 70
    18
  0
DIMSTYLE
  2
MASKIN
 70
     0
  3

  4

  5

  6

  7

 40
0.0
 41
3.0
 42
1.5
 43
10.0
 44
1.5
 45
0.0
 46
0.0
 47
0.0
 48
0.0
140
3.0
141
-5.0
142
0.0
143
25.399999999999999
144
-1.0
145
0.0
146
1.0
147
1.0
 71
     0
 72
     0
 73
     0
 74
     0
 75
     0
 76
     0
 77
     1
 78
     8
170
     0
171
     0
172
     1
173
     0
174
     0
175
     0
176
   256
177
   256
178
   256
  0
DIMSTYLE
  2
BYGG-021802$0$MASKIN
 70
     0
  3

  4

  5

  6

  7

 40
0.0
 41
3.0
 42
1.5
 43
10.0
 44
1.5
 45
0.0
 46
0.0
 47
0.0
 48
0.0
140
3.0
141
-5.0
142
0.0
143
25.399999999999999
144
-1.0
145
0.0
146
1.0
147
1.0
 71
     0
 72
     0
 73
     0
 74
     0
 75
     0
 76
     0
 77
     1
 78
     8
170
     0
171
     0
172
     1
173
     0
174
     0
175
     0
176
   256
177
   256
178
   256
  0
DIMSTYLE
  2
BYGG-014357$0$MASKIN
 70
     0
  3

  4

  5

  6

  7

 40
0.0
 41
3.0
 42
1.5
 43
10.0
 44
1.5
 45
0.0
 46
0.0
 47
0.0
 48
0.0
140
3.0
141
-5.0
142
0.0
143
25.399999999999999
144
-1.0
145
0.0
146
1.0
147
1.0
 71
     0
 72
     0
 73
     0
 74
     0
 75
     0
 76
     0
 77
     1
 78
     8
170
     0
171
     0
172
     1
173
     0
174
     0
175
     0
176
   256
177
   256
178
   256
  0
DIMSTYLE
  2
BYGG-014357$0$MASKIN1
 70
     0
  3

  4

  5

  6

  7

 40
1.0
 41
3.0
 42
1.5
 43
10.0
 44
1.5
 45
0.0
 46
0.0
 47
0.0
 48
0.0
140
3.0
141
-5.0
142
0.0
143
25.399999999999999
144
1.0
145
0.0
146
1.0
147
0.9
 71
     0
 72
     0
 73
     0
 74
     0
 75
     0
 76
     0
 77
     1
 78
     8
170
     0
171
     0
172
     1
173
     0
174
     0
175
     0
176
   256
177
   256
178
   256
  0
DIMSTYLE
  2
BYGG-014357$0$MASKIN2
 70
     0
  3

  4

  5

  6

  7

 40
1.0
 41
3.0
 42
1.5
 43
10.0
 44
1.5
 45
0.0
 46
0.0
 47
0.0
 48
0.0
140
3.0
141
-5.0
142
0.0
143
25.399999999999999
144
1.0
145
0.0
146
1.0
147
0.9
 71
     0
 72
     0
 73
     0
 74
     0
 75
     0
 76
     0
 77
     1
 78
     8
170
     0
171
     0
172
     1
173
     0
174
     0
175
     0
176
   256
177
   256
178
   256
  0
DIMSTYLE
  2
BYGG-014357$0$MASKIN3
 70
     0
  3

  4

  5

  6

  7

 40
1.0
 41
3.0
 42
1.5
 43
10.0
 44
1.5
 45
0.0
 46
0.0
 47
0.0
 48
0.0
140
3.0
141
-5.0
142
0.0
143
25.399999999999999
144
1.0
145
0.0
146
1.0
147
0.9
 71
     0
 72
     0
 73
     0
 74
     0
 75
     0
 76
     0
 77
     1
 78
     8
170
     0
171
     0
172
     1
173
     0
174
     0
175
     0
176
   256
177
   256
178
   256
  0
DIMSTYLE
  2
BYGG-014357$0$DMST_1
 70
     0
  3

  4

  5

  6

  7

 40
1.0
 41
0.7000000000000002
 42
0.0
 43
7.0
 44
0.4
 45
0.0
 46
0.0
 47
0.15
 48
0.15
140
0.7000000000000002
141
0.0
142
0.0
143
25.399999999999999
144
1.0
145
0.0
146
0.7
147
0.09
 71
     1
 72
     0
 73
     0
 74
     0
 75
     0
 76
     0
 77
     1
 78
     9
170
     0
171
     2
172
     0
173
     0
174
     0
175
     0
176
     1
177
     1
178
     2
  0
DIMSTYLE
  2
BYGG-014063$0$MASKIN
 70
     0
  3

  4

  5

  6

  7

 40
0.0
 41
3.0
 42
1.5
 43
10.0
 44
1.5
 45
0.0
 46
0.0
 47
0.0
 48
0.0
140
3.0
141
-5.0
142
0.0
143
25.399999999999999
144
-1.0
145
0.0
146
1.0
147
1.0
 71
     0
 72
     0
 73
     0
 74
     0
 75
     0
 76
     0
 77
     1
 78
     8
170
     0
171
     0
172
     1
173
     0
174
     0
175
     0
176
   256
177
   256
178
   256
  0
DIMSTYLE
  2
BYGG-021582$0$MASKIN
 70
     0
  3

  4

  5

  6

  7

 40
0.0
 41
3.0
 42
1.5
 43
10.0
 44
1.5
 45
0.0
 46
0.0
 47
0.0
 48
0.0
140
3.0
141
-5.0
142
0.0
143
25.399999999999999
144
-1.0
145
0.0
146
1.0
147
1.0
 71
     0
 72
     0
 73
     0
 74
     0
 75
     0
 76
     0
 77
     1
 78
     8
170
     0
171
     0
172
     1
173
     0
174
     0
175
     0
176
   256
177
   256
178
   256
  0
DIMSTYLE
  2
BYGG-014279$0$STANDARD
 70
     0
  3

  4

  5

  6

  7

 40
1.0
 41
0.18
 42
0.0625
 43
0.38
 44
0.18
 45
0.0
 46
0.0
 47
0.0
 48
0.0
140
0.18
141
0.09
142
0.0
143
25.399999999999999
144
1.0
145
0.0
146
1.0
147
0.09
 71
     0
 72
     0
 73
     1
 74
     1
 75
     0
 76
     0
 77
     0
 78
     0
170
     0
171
     2
172
     0
173
     0
174
     0
175
     0
176
     0
177
     0
178
     0
  0
DIMSTYLE
  2
BYGG-014279$0$MASKIN
 70
     0
  3

  4

  5

  6

  7

 40
0.0
 41
3.0
 42
1.5
 43
10.0
 44
1.5
 45
0.0
 46
0.0
 47
0.0
 48
0.0
140
3.0
141
-5.0
142
0.0
143
25.399999999999999
144
-1.0
145
0.0
146
1.0
147
1.0
 71
     0
 72
     0
 73
     0
 74
     1
 75
     0
 76
     0
 77
     1
 78
     8
170
     0
171
     0
172
     1
173
     0
174
     0
175
     0
176
   256
177
   256
178
     2
  0
DIMSTYLE
  2
BYGG-021820$0$MASKIN
 70
     0
  3

  4

  5

  6

  7

 40
0.0
 41
3.0
 42
1.5
 43
10.0
 44
1.5
 45
0.0
 46
0.0
 47
0.0
 48
0.0
140
3.0
141
-5.0
142
0.0
143
25.399999999999999
144
-1.0
145
0.0
146
1.0
147
1.0
 71
     0
 72
     0
 73
     0
 74
     0
 75
     0
 76
     0
 77
     1
 78
     8
170
     0
171
     0
172
     1
173
     0
174
     0
175
     0
176
   256
177
   256
178
     2
  0
DIMSTYLE
  2
BYGG-024366$0$MASKIN
 70
     0
  3

  4

  5

  6

  7

 40
0.0
 41
3.0
 42
1.5
 43
10.0
 44
1.5
 45
0.0
 46
0.0
 47
0.0
 48
0.0
140
3.0
141
-5.0
142
0.0
143
25.399999999999999
144
-1.0
145
0.0
146
1.0
147
1.0
 71
     0
 72
     0
 73
     0
 74
     0
 75
     0
 76
     0
 77
     1
 78
     8
170
     0
171
     0
172
     1
173
     0
174
     0
175
     0
176
   256
177
   256
178
   256
  0
DIMSTYLE
  2
BYGG-01482201$0$STANDARD
 70
     0
  3

  4

  5

  6

  7

 40
1.0
 41
0.18
 42
0.0625
 43
0.38
 44
0.18
 45
0.0
 46
0.0
 47
0.0
 48
0.0
140
0.18
141
0.09
142
0.0
143
25.399999999999999
144
1.0
145
0.0
146
1.0
147
0.09
 71
     0
 72
     0
 73
     1
 74
     1
 75
     0
 76
     0
 77
     0
 78
     0
170
     0
171
     2
172
     0
173
     0
174
     0
175
     0
176
     0
177
     0
178
     0
  0
DIMSTYLE
  2
BYGG-01482201$0$MASKIN
 70
     0
  3

  4

  5

  6

  7

 40
0.0
 41
3.0
 42
1.5
 43
10.0
 44
1.5
 45
0.0
 46
0.0
 47
0.0
 48
0.0
140
3.0
141
-5.0
142
0.0
143
25.399999999999999
144
-1.0
145
0.0
146
1.0
147
1.0
 71
     0
 72
     0
 73
     0
 74
     1
 75
     0
 76
     0
 77
     1
 78
     8
170
     0
171
     0
172
     1
173
     0
174
     0
175
     0
176
   256
177
   256
178
     2
  0
DIMSTYLE
  2
BYGG-024364$0$MASKIN
 70
     0
  3

  4

  5

  6

  7

 40
0.0
 41
3.0
 42
1.5
 43
10.0
 44
1.5
 45
0.0
 46
0.0
 47
0.0
 48
0.0
140
3.0
141
-5.0
142
0.0
143
25.399999999999999
144
-1.0
145
0.0
146
1.0
147
1.0
 71
     0
 72
     0
 73
     0
 74
     0
 75
     0
 76
     0
 77
     1
 78
     8
170
     0
171
     0
172
     1
173
     0
174
     0
175
     0
176
   256
177
   256
178
     2
  0
DIMSTYLE
  2
BYGG-024364$0$STANDARD
 70
     0
  3

  4

  5

  6

  7

 40
1.0
 41
0.18
 42
0.0625
 43
0.38
 44
0.18
 45
0.0
 46
0.0
 47
0.0
 48
0.0
140
0.18
141
0.09
142
0.0
143
25.399999999999999
144
1.0
145
0.0
146
1.0
147
0.09
 71
     0
 72
     0
 73
     1
 74
     1
 75
     0
 76
     0
 77
     0
 78
     0
170
     0
171
     2
172
     0
173
     0
174
     0
175
     0
176
     0
177
     0
178
     0
  0
DIMSTYLE
  2
BYGG-024364$0$ANNOTATIVE
 70
     0
  3

  4

  5

  6

  7

 40
1.0
 41
0.18
 42
0.0625
 43
0.38
 44
0.18
 45
0.0
 46
0.0
 47
0.0
 48
0.0
140
0.18
141
0.09
142
0.0
143
25.399999999999999
144
1.0
145
0.0
146
1.0
147
0.09
 71
     0
 72
     0
 73
     1
 74
     1
 75
     0
 76
     0
 77
     0
 78
     0
170
     0
171
     2
172
     0
173
     0
174
     0
175
     0
176
     0
177
     0
178
     0
  0
ENDTAB
  0
ENDSEC
  0
SECTION
  2
BLOCKS
  0
BLOCK
  8
0
  2
$MODEL_SPACE
 70
     0
 10
0.0
 20
0.0
 30
0.0
  3
$MODEL_SPACE
  1

  0
ENDBLK
  5
D
  8
0
  0
BLOCK
 67
     1
  8
0
  2
$PAPER_SPACE
 70
     0
 10
0.0
 20
0.0
 30
0.0
  3
$PAPER_SPACE
  1

  0
ENDBLK
  5
12
 67
     1
  8
0
  0
BLOCK
  8
0
  2
*X37
 70
     1
 10
0.0
 20
0.0
 30
0.0
  3
*X37
  1

  0
LINE
  5
F90
  8
0
 62
     0
 10
63.064829879159447
 20
25.550334108824529
 30
0.0
 11
63.048228796224748
 21
25.566935191759288
 31
0.0
  0
LINE
  5
F91
  8
0
 62
     0
 10
62.80316476595749
 20
23.566935191759171
 30
0.0
 11
60.80316476595749
 21
25.566935191759232
 31
0.0
  0
LINE
  5
F92
  8
0
 62
     0
 10
60.558100735690061
 20
23.566935191759281
 30
0.0
 11
58.558100735690061
 21
25.566935191759288
 31
0.0
  0
LINE
  5
F93
  8
0
 62
     0
 10
58.313036705422917
 20
23.566935191759171
 30
0.0
 11
56.31303670542291
 21
25.566935191759232
 31
0.0
  0
LINE
  5
F94
  8
0
 62
     0
 10
56.067972675155538
 20
23.566935191759281
 30
0.0
 11
54.067972675155538
 21
25.566935191759288
 31
0.0
  0
LINE
  5
F95
  8
0
 62
     0
 10
53.822908644888223
 20
23.566935191759342
 30
0.0
 11
51.822908644888287
 21
25.566935191759288
 31
0.0
  0
LINE
  5
F96
  8
0
 62
     0
 10
51.422144945892057
 20
23.72263486048826
 30
0.0
 11
49.577844614621029
 21
25.566935191759288
 31
0.0
  0
LINE
  5
F97
  8
0
 62
     0
 10
51.577844614621078
 20
23.566935191759281
 30
0.0
 11
51.422144945892057
 21
23.72263486048826
 31
0.0
  0
LINE
  5
F98
  8
0
 62
     0
 10
49.332780584353713
 20
23.566935191759281
 30
0.0
 11
47.332780584353763
 21
25.566935191759232
 31
0.0
  0
LINE
  5
F99
  8
0
 62
     0
 10
47.087716554086391
 20
23.566935191759281
 30
0.0
 11
45.087716554086391
 21
25.566935191759288
 31
0.0
  0
LINE
  5
F9A
  8
0
 62
     0
 10
44.84265252381914
 20
23.566935191759232
 30
0.0
 11
43.064829879159561
 21
25.344757836418811
 31
0.0
  0
LINE
  5
F9B
  8
0
 62
     0
 10
61.49119481060665
 20
23.566935191759232
 30
0.0
 11
63.064829879159497
 21
25.140570260312082
 31
0.0
  0
LINE
  5
F9C
  8
0
 62
     0
 10
59.246130780339342
 20
23.566935191759281
 30
0.0
 11
61.246130780339307
 21
25.56693519175926
 31
0.0
  0
LINE
  5
F9D
  8
0
 62
     0
 10
57.001066750072091
 20
23.566935191759281
 30
0.0
 11
59.001066750072049
 21
25.56693519175926
 31
0.0
  0
LINE
  5
F9E
  8
0
 62
     0
 10
54.756002719804819
 20
23.566935191759281
 30
0.0
 11
56.756002719804798
 21
25.56693519175926
 31
0.0
  0
LINE
  5
F9F
  8
0
 62
     0
 10
52.510938689537483
 20
23.56693519175926
 30
0.0
 11
54.510938689537511
 21
25.566935191759288
 31
0.0
  0
LINE
  5
FA0
  8
0
 62
     0
 10
51.422144945892057
 20
24.72320547838115
 30
0.0
 11
52.265874659270189
 21
25.566935191759288
 31
0.0
  0
LINE
  5
FA1
  8
0
 62
     0
 10
50.265874659270168
 20
23.56693519175926
 30
0.0
 11
51.422144945892057
 21
24.72320547838115
 31
0.0
  0
LINE
  5
FA2
  8
0
 62
     0
 10
48.020810629002909
 20
23.56693519175926
 30
0.0
 11
50.020810629002938
 21
25.566935191759288
 31
0.0
  0
LINE
  5
FA3
  8
0
 62
     0
 10
45.775746598735637
 20
23.56693519175926
 30
0.0
 11
47.775746598735672
 21
25.566935191759288
 31
0.0
  0
LINE
  5
FA4
  8
0
 62
     0
 10
43.530682568468393
 20
23.56693519175931
 30
0.0
 11
45.530682568468421
 21
25.566935191759342
 31
0.0
  0
LINE
  5
FA5
  8
0
 62
     0
 10
43.06482987915944
 20
25.34614653271769
 30
0.0
 11
43.285618538201021
 21
25.56693519175926
 31
0.0
  0
ENDBLK
  5
FA7
  8
0
  0
BLOCK
  8
0
  2
*X38
 70
     1
 10
0.0
 20
0.0
 30
0.0
  3
*X38
  1

  0
LINE
  5
1020
  8
0
 62
     0
 10
173.96069647647059
 20
75.241410883198284
 30
0.0
 11
173.6351717943738
 21
75.566935565295111
 31
0.0
  0
LINE
  5
1021
  8
0
 62
     0
 10
173.63994430964081
 20
74.439631034894575
 30
0.0
 11
172.5126397792402
 21
75.566935565295125
 31
0.0
  0
LINE
  5
1022
  8
0
 62
     0
 10
173.341209756258
 20
73.615833573143675
 30
0.0
 11
171.39010776410649
 21
75.566935565295125
 31
0.0
  0
LINE
  5
1023
  8
0
 62
     0
 10
173.06553501344121
 20
72.768976300826779
 30
0.0
 11
170.26757574897289
 21
75.566935565295125
 31
0.0
  0
LINE
  5
1024
  8
0
 62
     0
 10
172.81413001252011
 20
71.897849286614246
 30
0.0
 11
169.14504373383929
 21
75.566935565295111
 31
0.0
  0
LINE
  5
1025
  8
0
 62
     0
 10
172.58840536230409
 20
71.001041921696682
 30
0.0
 11
168.0225117187056
 21
75.566935565295125
 31
0.0
  0
LINE
  5
1026
  8
0
 62
     0
 10
172.39001487139109
 20
70.076900397475995
 30
0.0
 11
166.899979703572
 21
75.566935565295125
 31
0.0
  0
LINE
  5
1027
  8
0
 62
     0
 10
172.2209112256578
 20
69.123472028075653
 30
0.0
 11
165.77744768843829
 21
75.566935565295125
 31
0.0
  0
LINE
  5
1028
  8
0
 62
     0
 10
172.08342010728481
 20
68.138431131315031
 30
0.0
 11
164.65491567330471
 21
75.566935565295111
 31
0.0
  0
LINE
  5
1029
  8
0
 62
     0
 10
171.98034077147719
 20
67.118978451988937
 30
0.0
 11
163.532383658171
 21
75.566935565295125
 31
0.0
  0
LINE
  5
102A
  8
0
 62
     0
 10
171.91508559684249
 20
66.061701611490037
 30
0.0
 11
162.4098516430374
 21
75.566935565295125
 31
0.0
  0
LINE
  5
102B
  8
0
 62
     0
 10
171.89187882274541
 20
64.962376370453455
 30
0.0
 11
161.28731962790371
 21
75.566935565295111
 31
0.0
  0
LINE
  5
102C
  8
0
 62
     0
 10
171.91604843438569
 20
63.815674743679537
 30
0.0
 11
160.16478761277011
 21
75.566935565295125
 31
0.0
  0
LINE
  5
102D
  8
0
 62
     0
 10
171.99447099227319
 20
62.61472017065838
 30
0.0
 11
159.04225559763651
 21
75.566935565295125
 31
0.0
  0
LINE
  5
102E
  8
0
 62
     0
 10
158.727158744799
 20
74.759500402998967
 30
0.0
 11
157.9197235825028
 21
75.566935565295125
 31
0.0
  0
LINE
  5
102F
  8
0
 62
     0
 10
172.13628082146479
 20
61.350378326333107
 30
0.0
 11
163.98071336475661
 21
69.505945783041383
 31
0.0
  0
LINE
  5
1030
  8
0
 62
     0
 10
157.05710691111781
 20
75.307020221546452
 30
0.0
 11
156.7971915673692
 21
75.566935565295111
 31
0.0
  0
LINE
  5
1031
  8
0
 62
     0
 10
172.35406615269471
 20
60.01006097996963
 30
0.0
 11
164.52823318330411
 21
67.835893949360241
 31
0.0
  0
LINE
  5
1032
  8
0
 62
     0
 10
155.71710832616279
 20
75.524486791367863
 30
0.0
 11
155.67465955223551
 21
75.566935565295125
 31
0.0
  0
LINE
  5
1033
  8
0
 62
     0
 10
172.6660380693564
 20
58.575557048174211
 30
0.0
 11
164.74569975312551
 21
66.495895364405186
 31
0.0
  0
LINE
  5
1034
  8
0
 62
     0
 10
173.10036394710301
 20
57.018699155293973
 30
0.0
 11
164.7861189322835
 21
65.332944170113535
 31
0.0
  0
LINE
  5
1035
  8
0
 62
     0
 10
173.42959514843031
 20
55.566935938833012
 30
0.0
 11
164.70687312233929
 21
64.289657964924061
 31
0.0
  0
LINE
  5
1036
  8
0
 62
     0
 10
172.30706313329671
 20
55.566935938833019
 30
0.0
 11
164.53692425434019
 21
63.337074817789478
 31
0.0
  0
LINE
  5
1037
  8
0
 62
     0
 10
171.18453111816299
 20
55.566935938833019
 30
0.0
 11
164.2931784046292
 21
62.458288652366882
 31
0.0
  0
LINE
  5
1038
  8
0
 62
     0
 10
170.06199910302939
 20
55.566935938833012
 30
0.0
 11
163.98635810451029
 21
61.642576937352104
 31
0.0
  0
LINE
  5
1039
  8
0
 62
     0
 10
168.93946708789579
 20
55.566935938833012
 30
0.0
 11
163.62358968793461
 21
60.882813338794143
 31
0.0
  0
LINE
  5
103A
  8
0
 62
     0
 10
167.81693507276211
 20
55.566935938833019
 30
0.0
 11
163.2096983446782
 21
60.174172666916981
 31
0.0
  0
LINE
  5
103B
  8
0
 62
     0
 10
166.69440305762851
 20
55.566935938833019
 30
0.0
 11
162.7479107133384
 21
59.513428283123062
 31
0.0
  0
LINE
  5
103C
  8
0
 62
     0
 10
165.57187104249491
 20
55.566935938832998
 30
0.0
 11
162.24025165164269
 21
58.898555329685117
 31
0.0
  0
LINE
  5
103D
  8
0
 62
     0
 10
164.44933902736119
 20
55.566935938833012
 30
0.0
 11
161.6877648156526
 21
58.328510150541639
 31
0.0
  0
LINE
  5
103E
  8
0
 62
     0
 10
163.3268070122275
 20
55.566935938833019
 30
0.0
 11
161.0906180772198
 21
57.803124873840723
 31
0.0
  0
LINE
  5
103F
  8
0
 62
     0
 10
162.2042749970939
 20
55.566935938833019
 30
0.0
 11
160.4481199641987
 21
57.323090971728298
 31
0.0
  0
LINE
  5
1040
  8
0
 62
     0
 10
161.0817429819603
 20
55.566935938833012
 30
0.0
 11
159.75865102623439
 21
56.890027894558898
 31
0.0
  0
LINE
  5
1041
  8
0
 62
     0
 10
159.95921096682659
 20
55.566935938832991
 30
0.0
 11
159.01949350741901
 21
56.506653398240637
 31
0.0
  0
LINE
  5
1042
  8
0
 62
     0
 10
158.83667895169299
 20
55.566935938833019
 30
0.0
 11
158.2265144838218
 21
56.17710040670417
 31
0.0
  0
LINE
  5
1043
  8
0
 62
     0
 10
157.7141469365593
 20
55.566935938832998
 30
0.0
 11
157.3736061511029
 21
55.907476724289388
 31
0.0
  0
LINE
  5
1044
  8
0
 62
     0
 10
156.5916149214257
 20
55.566935938833012
 30
0.0
 11
156.45167543313019
 21
55.706875427128473
 31
0.0
  0
LINE
  5
1045
  8
0
 62
     0
 10
155.46908290629199
 20
55.566935938832991
 30
0.0
 11
155.44669782379441
 21
55.589321021330647
 31
0.0
  0
LINE
  5
1046
  8
0
 62
     0
 10
173.4327975278656
 20
55.566935938832991
 30
0.0
 11
173.5542494317433
 21
55.688387842710739
 31
0.0
  0
LINE
  5
1047
  8
0
 62
     0
 10
172.310265512732
 20
55.566935938833012
 30
0.0
 11
173.26184395261939
 21
56.518514378720447
 31
0.0
  0
LINE
  5
1048
  8
0
 62
     0
 10
171.18773349759829
 20
55.566935938832998
 30
0.0
 11
172.9928180725822
 21
57.372020513816892
 31
0.0
  0
LINE
  5
1049
  8
0
 62
     0
 10
170.06520148246469
 20
55.566935938833012
 30
0.0
 11
172.74843409893779
 21
58.250168555306139
 31
0.0
  0
LINE
  5
104A
  8
0
 62
     0
 10
168.94266946733109
 20
55.566935938833019
 30
0.0
 11
172.53016579977941
 21
59.154432271281323
 31
0.0
  0
LINE
  5
104B
  8
0
 62
     0
 10
167.8201374521974
 20
55.566935938832991
 30
0.0
 11
172.3397441810464
 21
60.086542667681961
 31
0.0
  0
LINE
  5
104C
  8
0
 62
     0
 10
166.6976054370638
 20
55.566935938833019
 30
0.0
 11
172.1792176889943
 21
61.048548190763583
 31
0.0
  0
LINE
  5
104D
  8
0
 62
     0
 10
165.57507342193011
 20
55.566935938832991
 30
0.0
 11
172.05103276021981
 21
62.042895277122661
 31
0.0
  0
LINE
  5
104E
  8
0
 62
     0
 10
164.45254140679651
 20
55.566935938832998
 30
0.0
 11
171.95814376939541
 21
63.072538301431919
 31
0.0
  0
LINE
  5
104F
  8
0
 62
     0
 10
163.3300093916628
 20
55.566935938832991
 30
0.0
 11
171.90416663191141
 21
64.141093179081551
 31
0.0
  0
LINE
  5
1050
  8
0
 62
     0
 10
162.2074773765292
 20
55.566935938832998
 30
0.0
 11
171.8935993276296
 21
65.253057889933444
 31
0.0
  0
LINE
  5
1051
  8
0
 62
     0
 10
161.08494536139551
 20
55.566935938833012
 30
0.0
 11
171.93214891827441
 21
66.414139495711865
 31
0.0
  0
LINE
  5
1052
  8
0
 62
     0
 10
159.96241334626191
 20
55.566935938832998
 30
0.0
 11
172.0272357680534
 21
67.631758360624474
 31
0.0
  0
LINE
  5
1053
  8
0
 62
     0
 10
162.61299066568029
 20
59.340045273385059
 30
0.0
 11
172.18880910472589
 21
68.915863712430621
 31
0.0
  0
LINE
  5
1054
  8
0
 62
     0
 10
158.83988133112831
 20
55.566935938833012
 30
0.0
 11
161.0164895850117
 21
57.743544192716449
 31
0.0
  0
LINE
  5
1055
  8
0
 62
     0
 10
164.11859962193759
 20
61.968186244776007
 30
0.0
 11
172.43074801198861
 21
70.280334634826986
 31
0.0
  0
LINE
  5
1056
  8
0
 62
     0
 10
157.7173493159946
 20
55.566935938832991
 30
0.0
 11
158.38834861362071
 21
56.237935236459151
 31
0.0
  0
LINE
  5
1057
  8
0
 62
     0
 10
164.58459109772971
 20
63.556709735701709
 30
0.0
 11
172.77346383804149
 21
71.745582476013581
 31
0.0
  0
LINE
  5
1058
  8
0
 62
     0
 10
156.594817300861
 20
55.566935938832991
 30
0.0
 11
156.7998251226951
 21
55.771943760667078
 31
0.0
  0
LINE
  5
1059
  8
0
 62
     0
 10
164.76368507263089
 20
64.858335725736652
 30
0.0
 11
173.24927605840949
 21
73.343926711515195
 31
0.0
  0
LINE
  5
105A
  8
0
 62
     0
 10
155.47228528572731
 20
55.566935938832991
 30
0.0
 11
155.49819913266009
 21
55.5928497857658
 31
0.0
  0
LINE
  5
105B
  8
0
 62
     0
 10
164.77965982517659
 20
65.996842493415912
 30
0.0
 11
173.9153695551083
 21
75.132552223347616
 31
0.0
  0
LINE
  5
105C
  8
0
 62
     0
 10
164.6825192199943
 20
67.022233903367223
 30
0.0
 11
173.22722088192211
 21
75.566935565295125
 31
0.0
  0
LINE
  5
105D
  8
0
 62
     0
 10
164.49834721355859
 20
67.960593912065264
 30
0.0
 11
172.10468886678851
 21
75.566935565295125
 31
0.0
  0
LINE
  5
105E
  8
0
 62
     0
 10
164.2426512489742
 20
68.827429962614474
 30
0.0
 11
170.98215685165491
 21
75.56693556529514
 31
0.0
  0
LINE
  5
105F
  8
0
 62
     0
 10
163.92537202186369
 20
69.632682750637628
 30
0.0
 11
169.85962483652131
 21
75.566935565295154
 31
0.0
  0
LINE
  5
1060
  8
0
 62
     0
 10
163.553151631785
 20
70.382994375692562
 30
0.0
 11
168.73709282138759
 21
75.566935565295125
 31
0.0
  0
LINE
  5
1061
  8
0
 62
     0
 10
163.13048884297191
 20
71.082863602013077
 30
0.0
 11
167.61456080625391
 21
75.566935565295154
 31
0.0
  0
LINE
  5
1062
  8
0
 62
     0
 10
162.66037229113419
 20
71.735279065309044
 30
0.0
 11
166.4920287911203
 21
75.566935565295125
 31
0.0
  0
LINE
  5
1063
  8
0
 62
     0
 10
162.14463887283949
 20
72.342077662148
 30
0.0
 11
165.3694967759867
 21
75.566935565295125
 31
0.0
  0
LINE
  5
1064
  8
0
 62
     0
 10
161.58417050846359
 20
72.904141312905722
 30
0.0
 11
164.24696476085299
 21
75.566935565295125
 31
0.0
  0
LINE
  5
1065
  8
0
 62
     0
 10
160.9789824426951
 20
73.421485262270807
 30
0.0
 11
163.12443274571939
 21
75.566935565295125
 31
0.0
  0
LINE
  5
1066
  8
0
 62
     0
 10
160.32822473622389
 20
73.893259570933324
 30
0.0
 11
162.0019007305857
 21
75.56693556529514
 31
0.0
  0
LINE
  5
1067
  8
0
 62
     0
 10
159.63009730228799
 20
74.317664152131044
 30
0.0
 11
160.8793687154521
 21
75.566935565295154
 31
0.0
  0
LINE
  5
1068
  8
0
 62
     0
 10
158.8816577010231
 20
74.691756565999754
 30
0.0
 11
159.7568367003185
 21
75.56693556529514
 31
0.0
  0
LINE
  5
1069
  8
0
 62
     0
 10
158.07846999292491
 20
75.011100873035218
 30
0.0
 11
158.63430468518479
 21
75.566935565295125
 31
0.0
  0
LINE
  5
106A
  8
0
 62
     0
 10
157.21398447306689
 20
75.269147368310882
 30
0.0
 11
157.5117726700511
 21
75.566935565295125
 31
0.0
  0
LINE
  5
106B
  8
0
 62
     0
 10
156.2784081651422
 20
75.456103075519806
 30
0.0
 11
156.3892406549175
 21
75.56693556529514
 31
0.0
  0
LINE
  5
106C
  8
0
 62
     0
 10
155.25649458448601
 20
75.556721509997317
 30
0.0
 11
155.26670863978379
 21
75.566935565295125
 31
0.0
  0
ENDBLK
  5
106E
  8
0
  0
BLOCK
  8
0
  2
*X39
 70
     1
 10
0.0
 20
0.0
 30
0.0
  3
*X39
  1

  0
LINE
  5
1070
  8
0
 62
     0
 10
163.90935224031219
 20
62.554110587416517
 30
0.0
 11
164.30622724031221
 21
63.241518251670421
 31
0.0
  0
LINE
  5
1071
  8
0
 62
     0
 10
162.71872724031221
 20
60.491887594654827
 30
0.0
 11
163.1156022403122
 21
61.179295258908731
 31
0.0
  0
LINE
  5
1072
  8
0
 62
     0
 10
161.52810224031219
 20
58.429664601893137
 30
0.0
 11
161.92497724031219
 21
59.117072266147041
 31
0.0
  0
LINE
  5
1073
  8
0
 62
     0
 10
163.90935252480821
 20
65.303741080178241
 30
0.0
 11
164.30622752480821
 21
65.991148744432124
 31
0.0
  0
LINE
  5
1074
  8
0
 62
     0
 10
162.71872752480829
 20
63.241518087416551
 30
0.0
 11
163.11560252480831
 21
63.928925751670448
 31
0.0
  0
LINE
  5
1075
  8
0
 62
     0
 10
161.5281025248083
 20
61.179295094654861
 30
0.0
 11
161.9249775248083
 21
61.866702758908751
 31
0.0
  0
LINE
  5
1076
  8
0
 62
     0
 10
160.33747752480829
 20
59.117072101893172
 30
0.0
 11
160.73435252480829
 21
59.804479766147068
 31
0.0
  0
LINE
  5
1077
  8
0
 62
     0
 10
159.14685252480831
 20
57.054849109131482
 30
0.0
 11
159.5437275248083
 21
57.742256773385378
 31
0.0
  0
LINE
  5
1078
  8
0
 62
     0
 10
163.90935280930429
 20
68.053371572939938
 30
0.0
 11
164.28456101078109
 21
68.703251241314362
 31
0.0
  0
LINE
  5
1079
  8
0
 62
     0
 10
162.71872780930431
 20
65.991148580178233
 30
0.0
 11
163.11560280930431
 21
66.678556244432144
 31
0.0
  0
LINE
  5
107A
  8
0
 62
     0
 10
161.52810280930439
 20
63.928925587416551
 30
0.0
 11
161.92497780930441
 21
64.616333251670454
 31
0.0
  0
LINE
  5
107B
  8
0
 62
     0
 10
160.3374778093044
 20
61.866702594654861
 30
0.0
 11
160.7343528093044
 21
62.55411025890875
 31
0.0
  0
LINE
  5
107C
  8
0
 62
     0
 10
159.14685280930439
 20
59.804479601893171
 30
0.0
 11
159.54372780930439
 21
60.491887266147067
 31
0.0
  0
LINE
  5
107D
  8
0
 62
     0
 10
157.95622780930441
 20
57.742256609131481
 30
0.0
 11
158.3531028093044
 21
58.429664273385377
 31
0.0
  0
LINE
  5
107E
  8
0
 62
     0
 10
156.8212166108359
 20
55.776359546224327
 30
0.0
 11
157.16247780930439
 21
56.36744128062368
 31
0.0
  0
LINE
  5
107F
  8
0
 62
     0
 10
162.71872809380039
 20
68.74077907293993
 30
0.0
 11
163.11560309380039
 21
69.428186737193826
 31
0.0
  0
LINE
  5
1080
  8
0
 62
     0
 10
161.5281030938005
 20
66.678556080178225
 30
0.0
 11
161.92497809380041
 21
67.365963744432136
 31
0.0
  0
LINE
  5
1081
  8
0
 62
     0
 10
160.33747809380051
 20
64.61633308741655
 30
0.0
 11
160.73435309380051
 21
65.303740751670446
 31
0.0
  0
LINE
  5
1082
  8
0
 62
     0
 10
159.1468530938005
 20
62.55411009465486
 30
0.0
 11
159.5437280938005
 21
63.241517758908749
 31
0.0
  0
LINE
  5
1083
  8
0
 62
     0
 10
157.95622809380049
 20
60.49188710189317
 30
0.0
 11
158.35310309380051
 21
61.179294766147059
 31
0.0
  0
LINE
  5
1084
  8
0
 62
     0
 10
156.76560309380051
 20
58.42966410913148
 30
0.0
 11
157.1624780938005
 21
59.117071773385383
 31
0.0
  0
LINE
  5
1085
  8
0
 62
     0
 10
155.5749780938005
 20
56.367441116369783
 30
0.0
 11
155.97185309380049
 21
57.054848780623679
 31
0.0
  0
LINE
  5
1086
  8
0
 62
     0
 10
162.7187283782965
 20
71.490409565701626
 30
0.0
 11
162.77442468788121
 21
71.586878403696389
 31
0.0
  0
LINE
  5
1087
  8
0
 62
     0
 10
161.52810337829649
 20
69.428186572939936
 30
0.0
 11
161.92497837829649
 21
70.115594237193832
 31
0.0
  0
LINE
  5
1088
  8
0
 62
     0
 10
160.33747837829651
 20
67.365963580178246
 30
0.0
 11
160.7343533782965
 21
68.053371244432142
 31
0.0
  0
LINE
  5
1089
  8
0
 62
     0
 10
159.1468533782965
 20
65.303740587416556
 30
0.0
 11
159.54372837829649
 21
65.991148251670452
 31
0.0
  0
LINE
  5
108A
  8
0
 62
     0
 10
157.95622837829649
 20
63.241517594654859
 30
0.0
 11
158.35310337829659
 21
63.928925258908748
 31
0.0
  0
LINE
  5
108B
  8
0
 62
     0
 10
156.76560337829659
 20
61.179294601893169
 30
0.0
 11
157.1624783782965
 21
61.866702266147058
 31
0.0
  0
LINE
  5
108C
  8
0
 62
     0
 10
155.57497837829661
 20
59.117071609131479
 30
0.0
 11
155.9718533782966
 21
59.804479273385382
 31
0.0
  0
LINE
  5
108D
  8
0
 62
     0
 10
154.38435337829659
 20
57.054848616369782
 30
0.0
 11
154.78122837829659
 21
57.742256280623678
 31
0.0
  0
LINE
  5
108E
  8
0
 62
     0
 10
153.56885407172021
 20
55.642362383842283
 30
0.0
 11
153.59060337829661
 21
55.680033287862003
 31
0.0
  0
LINE
  5
108F
  8
0
 62
     0
 10
161.5281036627926
 20
72.177817065701603
 30
0.0
 11
161.8181804637324
 21
72.680244823026371
 31
0.0
  0
LINE
  5
1090
  8
0
 62
     0
 10
160.33747866279259
 20
70.115594072939913
 30
0.0
 11
160.73435366279261
 21
70.80300173719381
 31
0.0
  0
LINE
  5
1091
  8
0
 62
     0
 10
159.14685366279261
 20
68.053371080178223
 30
0.0
 11
159.5437286627926
 21
68.74077874443212
 31
0.0
  0
LINE
  5
1092
  8
0
 62
     0
 10
157.9562286627926
 20
65.991148087416533
 30
0.0
 11
158.35310366279259
 21
66.67855575167043
 31
0.0
  0
LINE
  5
1093
  8
0
 62
     0
 10
156.7656036627927
 20
63.928925094654844
 30
0.0
 11
157.16247866279261
 21
64.61633275890874
 31
0.0
  0
LINE
  5
1094
  8
0
 62
     0
 10
155.57497866279269
 20
61.866702101893161
 30
0.0
 11
155.97185366279271
 21
62.55410976614705
 31
0.0
  0
LINE
  5
1095
  8
0
 62
     0
 10
154.38435366279271
 20
59.804479109131456
 30
0.0
 11
154.7812286627927
 21
60.49188677338536
 31
0.0
  0
LINE
  5
1096
  8
0
 62
     0
 10
153.19372866279269
 20
57.742256116369767
 30
0.0
 11
153.59060366279269
 21
58.42966378062367
 31
0.0
  0
LINE
  5
1097
  8
0
 62
     0
 10
152.14384886486121
 20
55.923810964512299
 30
0.0
 11
152.39997866279271
 21
56.36744078786198
 31
0.0
  0
LINE
  5
1098
  8
0
 62
     0
 10
160.3374789472887
 20
72.865224565701595
 30
0.0
 11
160.7343539472887
 21
73.552632229955506
 31
0.0
  0
LINE
  5
1099
  8
0
 62
     0
 10
159.14685394728869
 20
70.80300157293992
 30
0.0
 11
159.54372894728871
 21
71.490409237193816
 31
0.0
  0
LINE
  5
109A
  8
0
 62
     0
 10
157.95622894728871
 20
68.74077858017823
 30
0.0
 11
158.3531039472887
 21
69.428186244432126
 31
0.0
  0
LINE
  5
109B
  8
0
 62
     0
 10
156.7656039472887
 20
66.67855558741654
 30
0.0
 11
157.16247894728869
 21
67.365963251670436
 31
0.0
  0
LINE
  5
109C
  8
0
 62
     0
 10
155.5749789472888
 20
64.61633259465485
 30
0.0
 11
155.97185394728871
 21
65.303740258908746
 31
0.0
  0
LINE
  5
109D
  8
0
 62
     0
 10
154.38435394728879
 20
62.554109601893153
 30
0.0
 11
154.78122894728881
 21
63.241517266147042
 31
0.0
  0
LINE
  5
109E
  8
0
 62
     0
 10
153.1937289472888
 20
60.491886609131463
 30
0.0
 11
153.5906039472888
 21
61.179294273385359
 31
0.0
  0
LINE
  5
109F
  8
0
 62
     0
 10
152.00310394728879
 20
58.429663616369773
 30
0.0
 11
152.39997894728879
 21
59.117071280623669
 31
0.0
  0
LINE
  5
10A0
  8
0
 62
     0
 10
150.8239369682378
 20
56.387286498045952
 30
0.0
 11
151.2093539472888
 21
57.054848287861979
 31
0.0
  0
LINE
  5
10A1
  8
0
 62
     0
 10
159.1468542317848
 20
73.552632065701602
 30
0.0
 11
159.54372923178471
 21
74.240039729955484
 31
0.0
  0
LINE
  5
10A2
  8
0
 62
     0
 10
157.95622923178479
 20
71.490409072939912
 30
0.0
 11
158.35310423178481
 21
72.177816737193808
 31
0.0
  0
LINE
  5
10A3
  8
0
 62
     0
 10
156.76560423178481
 20
69.428186080178222
 30
0.0
 11
157.1624792317848
 21
70.115593744432118
 31
0.0
  0
LINE
  5
10A4
  8
0
 62
     0
 10
155.57497923178479
 20
67.365963087416532
 30
0.0
 11
155.97185423178479
 21
68.053370751670428
 31
0.0
  0
LINE
  5
10A5
  8
0
 62
     0
 10
154.38435423178481
 20
65.303740094654842
 30
0.0
 11
154.78122923178481
 21
65.991147758908738
 31
0.0
  0
LINE
  5
10A6
  8
0
 62
     0
 10
153.1937292317848
 20
63.241517101893152
 30
0.0
 11
153.59060423178479
 21
63.928924766147041
 31
0.0
  0
LINE
  5
10A7
  8
0
 62
     0
 10
152.00310423178479
 20
61.179294109131462
 30
0.0
 11
152.39997923178481
 21
61.866701773385358
 31
0.0
  0
LINE
  5
10A8
  8
0
 62
     0
 10
150.81247923178489
 20
59.117071116369772
 30
0.0
 11
151.20935423178491
 21
59.804478780623668
 31
0.0
  0
LINE
  5
10A9
  8
0
 62
     0
 10
149.62185423178491
 20
57.054848123608082
 30
0.0
 11
150.0187292317849
 21
57.742255787861978
 31
0.0
  0
LINE
  5
10AA
  8
0
 62
     0
 10
157.9562295162809
 20
74.240039565701622
 30
0.0
 11
158.34527719087239
 21
74.91388990466065
 31
0.0
  0
LINE
  5
10AB
  8
0
 62
     0
 10
156.76560451628089
 20
72.177816572939932
 30
0.0
 11
157.16247951628091
 21
72.865224237193814
 31
0.0
  0
LINE
  5
10AC
  8
0
 62
     0
 10
155.57497951628091
 20
70.115593580178242
 30
0.0
 11
155.9718545162809
 21
70.803001244432139
 31
0.0
  0
LINE
  5
10AD
  8
0
 62
     0
 10
154.38435451628089
 20
68.053370587416552
 30
0.0
 11
154.78122951628089
 21
68.740778251670449
 31
0.0
  0
LINE
  5
10AE
  8
0
 62
     0
 10
153.19372951628091
 20
65.991147594654862
 30
0.0
 11
153.59060451628091
 21
66.678555258908759
 31
0.0
  0
LINE
  5
10AF
  8
0
 62
     0
 10
152.00310451628101
 20
63.928924601893158
 30
0.0
 11
152.39997951628101
 21
64.616332266147069
 31
0.0
  0
LINE
  5
10B0
  8
0
 62
     0
 10
150.812479516281
 20
61.866701609131482
 30
0.0
 11
151.209354516281
 21
62.554109273385372
 31
0.0
  0
LINE
  5
10B1
  8
0
 62
     0
 10
149.62185451628099
 20
59.804478616369778
 30
0.0
 11
150.01872951628101
 21
60.491886280623682
 31
0.0
  0
LINE
  5
10B2
  8
0
 62
     0
 10
148.47300384469781
 20
57.814610882878
 30
0.0
 11
148.828104516281
 21
58.429663287861992
 31
0.0
  0
LINE
  5
10B3
  8
0
 62
     0
 10
156.76560480077691
 20
74.927447065701614
 30
0.0
 11
156.99321506672649
 21
75.321679610650563
 31
0.0
  0
LINE
  5
10B4
  8
0
 62
     0
 10
155.57497980077699
 20
72.865224072939924
 30
0.0
 11
155.9718548007769
 21
73.552631737193821
 31
0.0
  0
LINE
  5
10B5
  8
0
 62
     0
 10
154.384354800777
 20
70.803001080178234
 30
0.0
 11
154.781229800777
 21
71.490408744432131
 31
0.0
  0
LINE
  5
10B6
  8
0
 62
     0
 10
153.19372980077699
 20
68.740778087416544
 30
0.0
 11
153.59060480077699
 21
69.428185751670441
 31
0.0
  0
LINE
  5
10B7
  8
0
 62
     0
 10
152.00310480077701
 20
66.678555094654854
 30
0.0
 11
152.399979800777
 21
67.365962758908751
 31
0.0
  0
LINE
  5
10B8
  8
0
 62
     0
 10
150.812479800777
 20
64.616332101893164
 30
0.0
 11
151.20935480077699
 21
65.303739766147061
 31
0.0
  0
LINE
  5
10B9
  8
0
 62
     0
 10
149.62185480077699
 20
62.554109109131467
 30
0.0
 11
150.01872980077701
 21
63.241516773385371
 31
0.0
  0
LINE
  5
10BA
  8
0
 62
     0
 10
148.43122980077709
 20
60.491886116369777
 30
0.0
 11
148.82810480077711
 21
61.179293780623681
 31
0.0
  0
LINE
  5
10BB
  8
0
 62
     0
 10
147.4438165378358
 20
58.781636176888078
 30
0.0
 11
147.6374798007771
 21
59.117070787861991
 31
0.0
  0
LINE
  5
10BC
  8
0
 62
     0
 10
154.38435508527311
 20
73.55263157293993
 30
0.0
 11
154.78123008527311
 21
74.240039237193827
 31
0.0
  0
LINE
  5
10BD
  8
0
 62
     0
 10
153.1937300852731
 20
71.49040858017824
 30
0.0
 11
153.5906050852731
 21
72.177816244432137
 31
0.0
  0
LINE
  5
10BE
  8
0
 62
     0
 10
152.00310508527309
 20
69.42818558741655
 30
0.0
 11
152.39998008527311
 21
70.115593251670447
 31
0.0
  0
LINE
  5
10BF
  8
0
 62
     0
 10
150.81248008527311
 20
67.36596259465486
 30
0.0
 11
151.2093550852731
 21
68.053370258908757
 31
0.0
  0
LINE
  5
10C0
  8
0
 62
     0
 10
149.62185508527321
 20
65.30373960189317
 30
0.0
 11
150.01873008527309
 21
65.991147266147067
 31
0.0
  0
LINE
  5
10C1
  8
0
 62
     0
 10
148.4312300852732
 20
63.24151660913148
 30
0.0
 11
148.82810508527319
 21
63.92892427338537
 31
0.0
  0
LINE
  5
10C2
  8
0
 62
     0
 10
147.24060508527319
 20
61.17929361636979
 30
0.0
 11
147.63748008527321
 21
61.866701280623687
 31
0.0
  0
LINE
  5
10C3
  8
0
 62
     0
 10
153.19373036976921
 20
74.240039072939936
 30
0.0
 11
153.59060536976921
 21
74.927446737193833
 31
0.0
  0
LINE
  5
10C4
  8
0
 62
     0
 10
152.0031053697692
 20
72.177816080178246
 30
0.0
 11
152.3999803697692
 21
72.865223744432143
 31
0.0
  0
LINE
  5
10C5
  8
0
 62
     0
 10
150.81248036976919
 20
70.115593087416556
 30
0.0
 11
151.20935536976921
 21
70.803000751670453
 31
0.0
  0
LINE
  5
10C6
  8
0
 62
     0
 10
149.62185536976921
 20
68.053370094654866
 30
0.0
 11
150.0187303697692
 21
68.740777758908763
 31
0.0
  0
LINE
  5
10C7
  8
0
 62
     0
 10
148.43123036976931
 20
65.991147101893176
 30
0.0
 11
148.82810536976919
 21
66.678554766147073
 31
0.0
  0
LINE
  5
10C8
  8
0
 62
     0
 10
147.2406053697693
 20
63.928924109131479
 30
0.0
 11
147.63748036976929
 21
64.616331773385383
 31
0.0
  0
LINE
  5
10C9
  8
0
 62
     0
 10
146.04998036976929
 20
61.866701116369789
 30
0.0
 11
146.44685536976931
 21
62.554108780623679
 31
0.0
  0
LINE
  5
10CA
  8
0
 62
     0
 10
152.00310565426531
 20
74.927446572939914
 30
0.0
 11
152.17145762893941
 21
75.219040746630043
 31
0.0
  0
LINE
  5
10CB
  8
0
 62
     0
 10
150.8124806542653
 20
72.865223580178224
 30
0.0
 11
151.20935565426529
 21
73.552631244432121
 31
0.0
  0
LINE
  5
10CC
  8
0
 62
     0
 10
149.62185565426529
 20
70.803000587416534
 30
0.0
 11
150.01873065426531
 21
71.490408251670431
 31
0.0
  0
LINE
  5
10CD
  8
0
 62
     0
 10
148.43123065426531
 20
68.740777594654844
 30
0.0
 11
148.8281056542653
 21
69.428185258908741
 31
0.0
  0
LINE
  5
10CE
  8
0
 62
     0
 10
147.24060565426529
 20
66.678554601893154
 30
0.0
 11
147.63748065426529
 21
67.365962266147051
 31
0.0
  0
LINE
  5
10CF
  8
0
 62
     0
 10
146.04998065426531
 20
64.616331609131464
 30
0.0
 11
146.44685565426531
 21
65.303739273385361
 31
0.0
  0
LINE
  5
10D0
  8
0
 62
     0
 10
145.12182568259951
 20
63.008720040908607
 30
0.0
 11
145.25623065426541
 21
63.241516280623671
 31
0.0
  0
LINE
  5
10D1
  8
0
 62
     0
 10
149.6218559387614
 20
73.552631080178216
 30
0.0
 11
150.01873093876139
 21
74.240038744432113
 31
0.0
  0
LINE
  5
10D2
  8
0
 62
     0
 10
148.43123093876139
 20
71.490408087416526
 30
0.0
 11
148.82810593876141
 21
72.177815751670423
 31
0.0
  0
LINE
  5
10D3
  8
0
 62
     0
 10
147.24060593876141
 20
69.428185094654836
 30
0.0
 11
147.6374809387614
 21
70.115592758908733
 31
0.0
  0
LINE
  5
10D4
  8
0
 62
     0
 10
146.04998093876151
 20
67.365962101893146
 30
0.0
 11
146.44685593876139
 21
68.053369766147043
 31
0.0
  0
LINE
  5
10D5
  8
0
 62
     0
 10
144.92127383522251
 20
65.410984051699742
 30
0.0
 11
145.25623093876149
 21
65.991146773385353
 31
0.0
  0
LINE
  5
10D6
  8
0
 62
     0
 10
146.04998122325759
 20
70.115592594654814
 30
0.0
 11
146.44685622325761
 21
70.803000258908725
 31
0.0
  0
LINE
  5
10D7
  8
0
 62
     0
 10
160.7343385844996
 20
73.552599050668064
 30
0.0
 11
160.67855035917179
 21
73.649227091399879
 31
0.0
  0
LINE
  5
10D8
  8
0
 62
     0
 10
161.92496358449961
 20
71.490376057906374
 30
0.0
 11
161.52808858449961
 21
72.177783722160271
 31
0.0
  0
LINE
  5
10D9
  8
0
 62
     0
 10
163.11558858449959
 20
69.428153065144684
 30
0.0
 11
162.7187135844996
 21
70.115560729398581
 31
0.0
  0
LINE
  5
10DA
  8
0
 62
     0
 10
164.30621358449949
 20
67.365930072382994
 30
0.0
 11
163.90933858449961
 21
68.053337736636891
 31
0.0
  0
LINE
  5
10DB
  8
0
 62
     0
 10
159.5437138689957
 20
72.865191550668044
 30
0.0
 11
159.1468388689957
 21
73.552599214921941
 31
0.0
  0
LINE
  5
10DC
  8
0
 62
     0
 10
160.73433886899571
 20
70.802968557906354
 30
0.0
 11
160.33746386899571
 21
71.490376222160251
 31
0.0
  0
LINE
  5
10DD
  8
0
 62
     0
 10
161.92496386899569
 20
68.740745565144664
 30
0.0
 11
161.5280888689957
 21
69.428153229398561
 31
0.0
  0
LINE
  5
10DE
  8
0
 62
     0
 10
163.1155888689957
 20
66.678522572382974
 30
0.0
 11
162.71871386899571
 21
67.365930236636871
 31
0.0
  0
LINE
  5
10DF
  8
0
 62
     0
 10
164.3062138689956
 20
64.616299579621284
 30
0.0
 11
163.9093388689956
 21
65.303707243875181
 31
0.0
  0
LINE
  5
10E0
  8
0
 62
     0
 10
157.16246415349181
 20
74.240007043429756
 30
0.0
 11
156.7655891534919
 21
74.927414707683653
 31
0.0
  0
LINE
  5
10E1
  8
0
 62
     0
 10
158.35308915349179
 20
72.177784050668066
 30
0.0
 11
157.9562141534918
 21
72.865191714921963
 31
0.0
  0
LINE
  5
10E2
  8
0
 62
     0
 10
159.54371415349181
 20
70.115561057906376
 30
0.0
 11
159.14683915349181
 21
70.802968722160273
 31
0.0
  0
LINE
  5
10E3
  8
0
 62
     0
 10
160.73433915349179
 20
68.053338065144686
 30
0.0
 11
160.33746415349179
 21
68.740745729398583
 31
0.0
  0
LINE
  5
10E4
  8
0
 62
     0
 10
161.9249641534918
 20
65.991115072382996
 30
0.0
 11
161.52808915349181
 21
66.678522736636893
 31
0.0
  0
LINE
  5
10E5
  8
0
 62
     0
 10
163.11558915349181
 20
63.928892079621299
 30
0.0
 11
162.71871415349179
 21
64.616299743875203
 31
0.0
  0
LINE
  5
10E6
  8
0
 62
     0
 10
164.16960403175199
 20
62.103284758541058
 30
0.0
 11
163.90933915349169
 21
62.554076751113499
 31
0.0
  0
LINE
  5
10E7
  8
0
 62
     0
 10
155.971839437988
 20
73.552599543429736
 30
0.0
 11
155.57496443798789
 21
74.240007207683632
 31
0.0
  0
LINE
  5
10E8
  8
0
 62
     0
 10
157.16246443798789
 20
71.490376550668046
 30
0.0
 11
156.7655894379879
 21
72.177784214921942
 31
0.0
  0
LINE
  5
10E9
  8
0
 62
     0
 10
158.3530894379879
 20
69.428153557906356
 30
0.0
 11
157.95621443798791
 21
70.115561222160252
 31
0.0
  0
LINE
  5
10EA
  8
0
 62
     0
 10
159.54371443798789
 20
67.365930565144666
 30
0.0
 11
159.14683943798789
 21
68.053338229398562
 31
0.0
  0
LINE
  5
10EB
  8
0
 62
     0
 10
160.7343394379879
 20
65.303707572382976
 30
0.0
 11
160.3374644379879
 21
65.991115236636873
 31
0.0
  0
LINE
  5
10EC
  8
0
 62
     0
 10
161.92496443798791
 20
63.241484579621279
 30
0.0
 11
161.52808943798789
 21
63.928892243875183
 31
0.0
  0
LINE
  5
10ED
  8
0
 62
     0
 10
163.11558943798789
 20
61.179261586859603
 30
0.0
 11
162.71871443798781
 21
61.866669251113493
 31
0.0
  0
LINE
  5
10EE
  8
0
 62
     0
 10
153.59058972248411
 20
74.927415036191434
 30
0.0
 11
153.2864752780944
 21
75.454156705189945
 31
0.0
  0
LINE
  5
10EF
  8
0
 62
     0
 10
154.78121472248401
 20
72.865192043429744
 30
0.0
 11
154.38433972248399
 21
73.55259970768364
 31
0.0
  0
LINE
  5
10F0
  8
0
 62
     0
 10
155.97183972248399
 20
70.802969050668054
 30
0.0
 11
155.574964722484
 21
71.49037671492195
 31
0.0
  0
LINE
  5
10F1
  8
0
 62
     0
 10
157.162464722484
 20
68.740746057906364
 30
0.0
 11
156.76558972248401
 21
69.42815372216026
 31
0.0
  0
LINE
  5
10F2
  8
0
 62
     0
 10
158.35308972248399
 20
66.678523065144674
 30
0.0
 11
157.95621472248399
 21
67.365930729398571
 31
0.0
  0
LINE
  5
10F3
  8
0
 62
     0
 10
159.543714722484
 20
64.616300072382984
 30
0.0
 11
159.146839722484
 21
65.303707736636881
 31
0.0
  0
LINE
  5
10F4
  8
0
 62
     0
 10
160.73433972248401
 20
62.554077079621287
 30
0.0
 11
160.33746472248399
 21
63.241484743875191
 31
0.0
  0
LINE
  5
10F5
  8
0
 62
     0
 10
161.92496472248391
 20
60.491854086859611
 30
0.0
 11
161.528089722484
 21
61.179261751113501
 31
0.0
  0
LINE
  5
10F6
  8
0
 62
     0
 10
152.39996500698021
 20
74.240007536191428
 30
0.0
 11
152.00309000698019
 21
74.927415200445324
 31
0.0
  0
LINE
  5
10F7
  8
0
 62
     0
 10
153.59059000698019
 20
72.177784543429723
 30
0.0
 11
153.1937150069802
 21
72.865192207683634
 31
0.0
  0
LINE
  5
10F8
  8
0
 62
     0
 10
154.7812150069802
 20
70.115561550668048
 30
0.0
 11
154.38434000698021
 21
70.802969214921944
 31
0.0
  0
LINE
  5
10F9
  8
0
 62
     0
 10
155.9718400069801
 20
68.053338557906343
 30
0.0
 11
155.57496500698011
 21
68.740746222160254
 31
0.0
  0
LINE
  5
10FA
  8
0
 62
     0
 10
157.16246500698011
 20
65.991115565144668
 30
0.0
 11
156.76559000698009
 21
66.678523229398564
 31
0.0
  0
LINE
  5
10FB
  8
0
 62
     0
 10
158.3530900069801
 20
63.928892572382978
 30
0.0
 11
157.9562150069801
 21
64.616300236636874
 31
0.0
  0
LINE
  5
10FC
  8
0
 62
     0
 10
159.54371500698011
 20
61.866669579621281
 30
0.0
 11
159.14684000698011
 21
62.554077243875177
 31
0.0
  0
LINE
  5
10FD
  8
0
 62
     0
 10
160.73434000698009
 20
59.804446586859598
 30
0.0
 11
160.3374650069801
 21
60.491854251113502
 31
0.0
  0
LINE
  5
10FE
  8
0
 62
     0
 10
161.62221468195031
 20
58.266602539057452
 30
0.0
 11
161.52809000698011
 21
58.429631258351797
 31
0.0
  0
LINE
  5
10FF
  8
0
 62
     0
 10
151.20934029147631
 20
73.552600036191436
 30
0.0
 11
150.81246529147629
 21
74.240007700445332
 31
0.0
  0
LINE
  5
1100
  8
0
 62
     0
 10
152.39996529147621
 20
71.490377043429746
 30
0.0
 11
152.00309029147621
 21
72.177784707683642
 31
0.0
  0
LINE
  5
1101
  8
0
 62
     0
 10
153.59059029147619
 20
69.428154050668056
 30
0.0
 11
153.1937152914762
 21
70.115561714921952
 31
0.0
  0
LINE
  5
1102
  8
0
 62
     0
 10
154.7812152914762
 20
67.365931057906366
 30
0.0
 11
154.38434029147621
 21
68.053338722160262
 31
0.0
  0
LINE
  5
1103
  8
0
 62
     0
 10
155.97184029147621
 20
65.303708065144676
 30
0.0
 11
155.57496529147619
 21
65.991115729398572
 31
0.0
  0
LINE
  5
1104
  8
0
 62
     0
 10
157.1624652914762
 20
63.241485072382979
 30
0.0
 11
156.7655902914762
 21
63.928892736636882
 31
0.0
  0
LINE
  5
1105
  8
0
 62
     0
 10
158.35309029147609
 20
61.179262079621289
 30
0.0
 11
157.95621529147621
 21
61.866669743875192
 31
0.0
  0
LINE
  5
1106
  8
0
 62
     0
 10
159.54371529147619
 20
59.117039086859613
 30
0.0
 11
159.14684029147611
 21
59.804446751113503
 31
0.0
  0
LINE
  5
1107
  8
0
 62
     0
 10
160.54184991180699
 20
57.388219211653123
 30
0.0
 11
160.33746529147609
 21
57.742223758351813
 31
0.0
  0
LINE
  5
1108
  8
0
 62
     0
 10
150.01871557597229
 20
72.865192536191444
 30
0.0
 11
149.62184057597241
 21
73.55260020044534
 31
0.0
  0
LINE
  5
1109
  8
0
 62
     0
 10
151.20934057597231
 20
70.802969543429754
 30
0.0
 11
150.81246557597231
 21
71.49037720768365
 31
0.0
  0
LINE
  5
110A
  8
0
 62
     0
 10
152.39996557597229
 20
68.740746550668064
 30
0.0
 11
152.00309057597229
 21
69.42815421492196
 31
0.0
  0
LINE
  5
110B
  8
0
 62
     0
 10
153.5905905759723
 20
66.678523557906374
 30
0.0
 11
153.19371557597231
 21
67.36593122216027
 31
0.0
  0
LINE
  5
110C
  8
0
 62
     0
 10
154.78121557597231
 20
64.616300565144684
 30
0.0
 11
154.38434057597229
 21
65.30370822939858
 31
0.0
  0
LINE
  5
110D
  8
0
 62
     0
 10
155.97184057597229
 20
62.55407757238298
 30
0.0
 11
155.5749655759723
 21
63.241485236636883
 31
0.0
  0
LINE
  5
110E
  8
0
 62
     0
 10
157.16246557597231
 20
60.491854579621297
 30
0.0
 11
156.76559057597231
 21
61.179262243875193
 31
0.0
  0
LINE
  5
110F
  8
0
 62
     0
 10
158.3530905759722
 20
58.429631586859607
 30
0.0
 11
157.95621557597221
 21
59.117039251113503
 31
0.0
  0
LINE
  5
1110
  8
0
 62
     0
 10
159.3653600096323
 20
56.676329496811391
 30
0.0
 11
159.14684057597219
 21
57.054816258351813
 31
0.0
  0
LINE
  5
1111
  8
0
 62
     0
 10
148.82809086046851
 20
72.177785036191452
 30
0.0
 11
148.43121586046851
 21
72.865192700445348
 31
0.0
  0
LINE
  5
1112
  8
0
 62
     0
 10
150.0187158604684
 20
70.115562043429762
 30
0.0
 11
149.6218408604685
 21
70.802969707683644
 31
0.0
  0
LINE
  5
1113
  8
0
 62
     0
 10
151.20934086046839
 20
68.053339050668072
 30
0.0
 11
150.81246586046839
 21
68.740746714921968
 31
0.0
  0
LINE
  5
1114
  8
0
 62
     0
 10
152.3999658604684
 20
65.991116057906382
 30
0.0
 11
152.0030908604684
 21
66.678523722160278
 31
0.0
  0
LINE
  5
1115
  8
0
 62
     0
 10
153.59059086046841
 20
63.928893065144692
 30
0.0
 11
153.19371586046839
 21
64.616300729398588
 31
0.0
  0
LINE
  5
1116
  8
0
 62
     0
 10
154.78121586046839
 20
61.866670072383002
 30
0.0
 11
154.3843408604684
 21
62.554077736636899
 31
0.0
  0
LINE
  5
1117
  8
0
 62
     0
 10
155.9718408604684
 20
59.804447079621312
 30
0.0
 11
155.57496586046841
 21
60.491854743875201
 31
0.0
  0
LINE
  5
1118
  8
0
 62
     0
 10
157.1624658604683
 20
57.742224086859622
 30
0.0
 11
156.76559086046839
 21
58.429631751113519
 31
0.0
  0
LINE
  5
1119
  8
0
 62
     0
 10
158.09357470465471
 20
56.129496261352173
 30
0.0
 11
157.95621586046829
 21
56.367408758351829
 31
0.0
  0
LINE
  5
111A
  8
0
 62
     0
 10
147.63746614496449
 20
71.490377536191446
 30
0.0
 11
147.25826636940491
 21
72.147170813679452
 31
0.0
  0
LINE
  5
111B
  8
0
 62
     0
 10
148.8280911449645
 20
69.428154543429756
 30
0.0
 11
148.43121614496451
 21
70.115562207683652
 31
0.0
  0
LINE
  5
111C
  8
0
 62
     0
 10
150.01871614496449
 20
67.365931550668066
 30
0.0
 11
149.62184114496449
 21
68.053339214921962
 31
0.0
  0
LINE
  5
111D
  8
0
 62
     0
 10
151.2093411449645
 20
65.303708557906376
 30
0.0
 11
150.8124661449645
 21
65.991116222160272
 31
0.0
  0
LINE
  5
111E
  8
0
 62
     0
 10
152.39996614496451
 20
63.241485565144693
 30
0.0
 11
152.00309114496449
 21
63.928893229398582
 31
0.0
  0
LINE
  5
111F
  8
0
 62
     0
 10
153.59059114496441
 20
61.179262572382989
 30
0.0
 11
153.19371614496441
 21
61.866670236636892
 31
0.0
  0
LINE
  5
1120
  8
0
 62
     0
 10
154.78121614496439
 20
59.117039579621313
 30
0.0
 11
154.3843411449644
 21
59.804447243875202
 31
0.0
  0
LINE
  5
1121
  8
0
 62
     0
 10
155.9718411449644
 20
57.054816586859609
 30
0.0
 11
155.57496614496441
 21
57.742224251113512
 31
0.0
  0
LINE
  5
1122
  8
0
 62
     0
 10
146.44684142946059
 20
70.802970036191468
 30
0.0
 11
146.3614623524349
 21
70.95085093550334
 31
0.0
  0
LINE
  5
1123
  8
0
 62
     0
 10
147.6374664294606
 20
68.740747043429764
 30
0.0
 11
147.24059142946061
 21
69.428154707683674
 31
0.0
  0
LINE
  5
1124
  8
0
 62
     0
 10
148.82809142946061
 20
66.678524050668088
 30
0.0
 11
148.43121642946059
 21
67.365931714921985
 31
0.0
  0
LINE
  5
1125
  8
0
 62
     0
 10
150.0187164294606
 20
64.616301057906384
 30
0.0
 11
149.6218414294606
 21
65.303708722160295
 31
0.0
  0
LINE
  5
1126
  8
0
 62
     0
 10
151.20934142946061
 20
62.554078065144701
 30
0.0
 11
150.81246642946061
 21
63.241485729398597
 31
0.0
  0
LINE
  5
1127
  8
0
 62
     0
 10
152.39996642946051
 20
60.491855072383011
 30
0.0
 11
152.0030914294606
 21
61.179262736636908
 31
0.0
  0
LINE
  5
1128
  8
0
 62
     0
 10
153.59059142946049
 20
58.429632079621321
 30
0.0
 11
153.19371642946049
 21
59.11703974387521
 31
0.0
  0
LINE
  5
1129
  8
0
 62
     0
 10
154.7812164294605
 20
56.367409086859631
 30
0.0
 11
154.38434142946051
 21
57.054816751113528
 31
0.0
  0
LINE
  5
112A
  8
0
 62
     0
 10
146.4468417139567
 20
68.053339543429757
 30
0.0
 11
146.04996671395671
 21
68.740747207683654
 31
0.0
  0
LINE
  5
112B
  8
0
 62
     0
 10
147.63746671395671
 20
65.991116550668053
 30
0.0
 11
147.24059171395669
 21
66.678524214921964
 31
0.0
  0
LINE
  5
112C
  8
0
 62
     0
 10
148.8280917139567
 20
63.928893557906378
 30
0.0
 11
148.4312167139567
 21
64.616301222160274
 31
0.0
  0
LINE
  5
112D
  8
0
 62
     0
 10
150.01871671395671
 20
61.866670565144688
 30
0.0
 11
149.62184171395671
 21
62.554078229398577
 31
0.0
  0
LINE
  5
112E
  8
0
 62
     0
 10
151.2093417139566
 20
59.80444757238299
 30
0.0
 11
150.81246671395661
 21
60.491855236636887
 31
0.0
  0
LINE
  5
112F
  8
0
 62
     0
 10
152.39996671395659
 20
57.742224579621308
 30
0.0
 11
152.00309171395659
 21
58.429632243875211
 31
0.0
  0
LINE
  5
1130
  8
0
 62
     0
 10
153.5905917139566
 20
55.680001586859611
 30
0.0
 11
153.1937167139566
 21
56.367409251113507
 31
0.0
  0
LINE
  5
1131
  8
0
 62
     0
 10
145.2562169984528
 20
67.36593204342978
 30
0.0
 11
145.0311851083386
 21
67.755698710430735
 31
0.0
  0
LINE
  5
1132
  8
0
 62
     0
 10
146.44684199845281
 20
65.30370905066809
 30
0.0
 11
146.04996699845279
 21
65.991116714921986
 31
0.0
  0
LINE
  5
1133
  8
0
 62
     0
 10
147.63746699845271
 20
63.241486057906393
 30
0.0
 11
147.24059199845269
 21
63.928893722160282
 31
0.0
  0
LINE
  5
1134
  8
0
 62
     0
 10
148.82809199845269
 20
61.179263065144703
 30
0.0
 11
148.4312169984527
 21
61.866670729398599
 31
0.0
  0
LINE
  5
1135
  8
0
 62
     0
 10
150.0187169984527
 20
59.117040072383013
 30
0.0
 11
149.62184199845271
 21
59.804447736636909
 31
0.0
  0
LINE
  5
1136
  8
0
 62
     0
 10
151.20934199845269
 20
57.054817079621323
 30
0.0
 11
150.81246699845269
 21
57.742224743875219
 31
0.0
  0
LINE
  5
1137
  8
0
 62
     0
 10
145.25621728294891
 20
64.616301550668084
 30
0.0
 11
144.92127383522259
 21
65.19644061979227
 31
0.0
  0
LINE
  5
1138
  8
0
 62
     0
 10
146.44684228294889
 20
62.554078557906401
 30
0.0
 11
146.0499672829489
 21
63.24148622216029
 31
0.0
  0
LINE
  5
1139
  8
0
 62
     0
 10
147.6374672829489
 20
60.491855565144697
 30
0.0
 11
147.24059228294891
 21
61.1792632293986
 31
0.0
  0
LINE
  5
113A
  8
0
 62
     0
 10
148.8280922829488
 20
58.429632572383007
 30
0.0
 11
148.43121728294881
 21
59.11704023663691
 31
0.0
  0
LINE
  5
113B
  8
0
 62
     0
 10
149.66495524114711
 20
56.980143409811262
 30
0.0
 11
149.62184228294879
 21
57.05481724387522
 31
0.0
  0
LINE
  5
113C
  8
0
 62
     0
 10
157.16249999999991
 20
56.367414999999987
 30
0.0
 11
157.9562499999999
 21
56.367414999999987
 31
0.0
  0
LINE
  5
113D
  8
0
 62
     0
 10
154.78125
 20
56.367414999999987
 30
0.0
 11
155.5749999999999
 21
56.367414999999987
 31
0.0
  0
LINE
  5
113E
  8
0
 62
     0
 10
152.40000000000001
 20
56.367414999999987
 30
0.0
 11
153.19374999999991
 21
56.367414999999987
 31
0.0
  0
LINE
  5
113F
  8
0
 62
     0
 10
159.5437499999999
 20
57.742229999999992
 30
0.0
 11
160.33749999999989
 21
57.742229999999992
 31
0.0
  0
LINE
  5
1140
  8
0
 62
     0
 10
157.16249999999991
 20
57.742229999999992
 30
0.0
 11
157.9562499999999
 21
57.742229999999992
 31
0.0
  0
LINE
  5
1141
  8
0
 62
     0
 10
154.78125
 20
57.742229999999992
 30
0.0
 11
155.5749999999999
 21
57.742229999999992
 31
0.0
  0
LINE
  5
1142
  8
0
 62
     0
 10
152.40000000000001
 20
57.742229999999992
 30
0.0
 11
153.19374999999991
 21
57.742229999999992
 31
0.0
  0
LINE
  5
1143
  8
0
 62
     0
 10
150.01875000000001
 20
57.742229999999992
 30
0.0
 11
150.81249999999989
 21
57.742229999999992
 31
0.0
  0
LINE
  5
1144
  8
0
 62
     0
 10
161.9249999999999
 20
59.11704499999999
 30
0.0
 11
162.43017968116661
 21
59.11704499999999
 31
0.0
  0
LINE
  5
1145
  8
0
 62
     0
 10
159.5437499999999
 20
59.11704499999999
 30
0.0
 11
160.33749999999989
 21
59.11704499999999
 31
0.0
  0
LINE
  5
1146
  8
0
 62
     0
 10
157.16249999999991
 20
59.11704499999999
 30
0.0
 11
157.9562499999999
 21
59.11704499999999
 31
0.0
  0
LINE
  5
1147
  8
0
 62
     0
 10
154.78124999999989
 20
59.11704499999999
 30
0.0
 11
155.5749999999999
 21
59.11704499999999
 31
0.0
  0
LINE
  5
1148
  8
0
 62
     0
 10
152.39999999999989
 20
59.11704499999999
 30
0.0
 11
153.19374999999991
 21
59.11704499999999
 31
0.0
  0
LINE
  5
1149
  8
0
 62
     0
 10
150.0187499999999
 20
59.11704499999999
 30
0.0
 11
150.81249999999989
 21
59.11704499999999
 31
0.0
  0
LINE
  5
114A
  8
0
 62
     0
 10
147.6374999999999
 20
59.11704499999999
 30
0.0
 11
148.43124999999989
 21
59.11704499999999
 31
0.0
  0
LINE
  5
114B
  8
0
 62
     0
 10
161.9249999999999
 20
60.491859999999988
 30
0.0
 11
162.71874999999989
 21
60.491859999999988
 31
0.0
  0
LINE
  5
114C
  8
0
 62
     0
 10
159.5437499999999
 20
60.491859999999988
 30
0.0
 11
160.33749999999989
 21
60.491859999999988
 31
0.0
  0
LINE
  5
114D
  8
0
 62
     0
 10
157.16249999999991
 20
60.491859999999988
 30
0.0
 11
157.9562499999999
 21
60.491859999999988
 31
0.0
  0
LINE
  5
114E
  8
0
 62
     0
 10
154.78124999999989
 20
60.491859999999988
 30
0.0
 11
155.5749999999999
 21
60.491859999999988
 31
0.0
  0
LINE
  5
114F
  8
0
 62
     0
 10
152.39999999999989
 20
60.491859999999988
 30
0.0
 11
153.19374999999991
 21
60.491859999999988
 31
0.0
  0
LINE
  5
1150
  8
0
 62
     0
 10
150.0187499999999
 20
60.491859999999988
 30
0.0
 11
150.81249999999989
 21
60.491859999999988
 31
0.0
  0
LINE
  5
1151
  8
0
 62
     0
 10
147.6374999999999
 20
60.491859999999988
 30
0.0
 11
148.43124999999989
 21
60.491859999999988
 31
0.0
  0
LINE
  5
1152
  8
0
 62
     0
 10
161.9249999999999
 20
61.866674999999987
 30
0.0
 11
162.71874999999989
 21
61.866674999999987
 31
0.0
  0
LINE
  5
1153
  8
0
 62
     0
 10
159.5437499999999
 20
61.866674999999987
 30
0.0
 11
160.33749999999989
 21
61.866674999999987
 31
0.0
  0
LINE
  5
1154
  8
0
 62
     0
 10
157.16249999999991
 20
61.866674999999987
 30
0.0
 11
157.9562499999999
 21
61.866674999999987
 31
0.0
  0
LINE
  5
1155
  8
0
 62
     0
 10
154.78124999999989
 20
61.866674999999987
 30
0.0
 11
155.5749999999999
 21
61.866674999999987
 31
0.0
  0
LINE
  5
1156
  8
0
 62
     0
 10
152.39999999999989
 20
61.866674999999987
 30
0.0
 11
153.19374999999991
 21
61.866674999999987
 31
0.0
  0
LINE
  5
1157
  8
0
 62
     0
 10
150.0187499999999
 20
61.866674999999987
 30
0.0
 11
150.81249999999989
 21
61.866674999999987
 31
0.0
  0
LINE
  5
1158
  8
0
 62
     0
 10
147.6374999999999
 20
61.866674999999987
 30
0.0
 11
148.43124999999989
 21
61.866674999999987
 31
0.0
  0
LINE
  5
1159
  8
0
 62
     0
 10
145.49894909819949
 20
61.866674999999987
 30
0.0
 11
146.0499999999999
 21
61.866674999999987
 31
0.0
  0
LINE
  5
115A
  8
0
 62
     0
 10
164.30624999999989
 20
63.241489999999999
 30
0.0
 11
164.5145578818703
 21
63.241489999999999
 31
0.0
  0
LINE
  5
115B
  8
0
 62
     0
 10
161.9249999999999
 20
63.241489999999999
 30
0.0
 11
162.71874999999989
 21
63.241489999999999
 31
0.0
  0
LINE
  5
115C
  8
0
 62
     0
 10
159.5437499999999
 20
63.241489999999999
 30
0.0
 11
160.33749999999989
 21
63.241489999999999
 31
0.0
  0
LINE
  5
115D
  8
0
 62
     0
 10
157.16249999999991
 20
63.241489999999999
 30
0.0
 11
157.9562499999999
 21
63.241489999999999
 31
0.0
  0
LINE
  5
115E
  8
0
 62
     0
 10
154.78124999999989
 20
63.241489999999999
 30
0.0
 11
155.5749999999999
 21
63.241489999999999
 31
0.0
  0
LINE
  5
115F
  8
0
 62
     0
 10
152.39999999999989
 20
63.241489999999999
 30
0.0
 11
153.19374999999991
 21
63.241489999999999
 31
0.0
  0
LINE
  5
1160
  8
0
 62
     0
 10
150.0187499999999
 20
63.241489999999999
 30
0.0
 11
150.81249999999989
 21
63.241489999999999
 31
0.0
  0
LINE
  5
1161
  8
0
 62
     0
 10
147.6374999999999
 20
63.241489999999999
 30
0.0
 11
148.43124999999989
 21
63.241489999999999
 31
0.0
  0
LINE
  5
1162
  8
0
 62
     0
 10
145.25624999999991
 20
63.241489999999999
 30
0.0
 11
146.0499999999999
 21
63.241489999999999
 31
0.0
  0
LINE
  5
1163
  8
0
 62
     0
 10
164.30624999999989
 20
64.616304999999997
 30
0.0
 11
164.74351714123301
 21
64.616304999999997
 31
0.0
  0
LINE
  5
1164
  8
0
 62
     0
 10
161.9249999999999
 20
64.616304999999997
 30
0.0
 11
162.71874999999989
 21
64.616304999999997
 31
0.0
  0
LINE
  5
1165
  8
0
 62
     0
 10
159.5437499999999
 20
64.616304999999997
 30
0.0
 11
160.33749999999989
 21
64.616304999999997
 31
0.0
  0
LINE
  5
1166
  8
0
 62
     0
 10
157.16249999999991
 20
64.616304999999997
 30
0.0
 11
157.9562499999999
 21
64.616304999999997
 31
0.0
  0
LINE
  5
1167
  8
0
 62
     0
 10
154.78124999999989
 20
64.616304999999997
 30
0.0
 11
155.5749999999999
 21
64.616304999999997
 31
0.0
  0
LINE
  5
1168
  8
0
 62
     0
 10
152.39999999999989
 20
64.616304999999997
 30
0.0
 11
153.19374999999991
 21
64.616304999999997
 31
0.0
  0
LINE
  5
1169
  8
0
 62
     0
 10
150.0187499999999
 20
64.616304999999997
 30
0.0
 11
150.81249999999989
 21
64.616304999999997
 31
0.0
  0
LINE
  5
116A
  8
0
 62
     0
 10
147.6374999999999
 20
64.616304999999997
 30
0.0
 11
148.43124999999989
 21
64.616304999999997
 31
0.0
  0
LINE
  5
116B
  8
0
 62
     0
 10
145.25624999999991
 20
64.616304999999997
 30
0.0
 11
146.0499999999999
 21
64.616304999999997
 31
0.0
  0
LINE
  5
116C
  8
0
 62
     0
 10
164.30624999999989
 20
65.991119999999995
 30
0.0
 11
164.77990400869811
 21
65.991119999999995
 31
0.0
  0
LINE
  5
116D
  8
0
 62
     0
 10
161.9249999999999
 20
65.991119999999995
 30
0.0
 11
162.71874999999989
 21
65.991119999999995
 31
0.0
  0
LINE
  5
116E
  8
0
 62
     0
 10
159.5437499999999
 20
65.991119999999995
 30
0.0
 11
160.33749999999989
 21
65.991119999999995
 31
0.0
  0
LINE
  5
116F
  8
0
 62
     0
 10
157.16249999999991
 20
65.991119999999995
 30
0.0
 11
157.9562499999999
 21
65.991119999999995
 31
0.0
  0
LINE
  5
1170
  8
0
 62
     0
 10
154.78124999999989
 20
65.991119999999995
 30
0.0
 11
155.5749999999999
 21
65.991119999999995
 31
0.0
  0
LINE
  5
1171
  8
0
 62
     0
 10
152.39999999999989
 20
65.991119999999995
 30
0.0
 11
153.19374999999991
 21
65.991119999999995
 31
0.0
  0
LINE
  5
1172
  8
0
 62
     0
 10
150.0187499999999
 20
65.991119999999995
 30
0.0
 11
150.81249999999989
 21
65.991119999999995
 31
0.0
  0
LINE
  5
1173
  8
0
 62
     0
 10
147.6374999999999
 20
65.991119999999995
 30
0.0
 11
148.43124999999989
 21
65.991119999999995
 31
0.0
  0
LINE
  5
1174
  8
0
 62
     0
 10
145.25624999999991
 20
65.991119999999995
 30
0.0
 11
146.0499999999999
 21
65.991119999999995
 31
0.0
  0
LINE
  5
1175
  8
0
 62
     0
 10
164.30624999999989
 20
67.365934999999993
 30
0.0
 11
164.6258556847402
 21
67.365934999999993
 31
0.0
  0
LINE
  5
1176
  8
0
 62
     0
 10
161.9249999999999
 20
67.365934999999993
 30
0.0
 11
162.71874999999989
 21
67.365934999999993
 31
0.0
  0
LINE
  5
1177
  8
0
 62
     0
 10
159.5437499999999
 20
67.365934999999993
 30
0.0
 11
160.33749999999989
 21
67.365934999999993
 31
0.0
  0
LINE
  5
1178
  8
0
 62
     0
 10
157.16249999999991
 20
67.365934999999993
 30
0.0
 11
157.9562499999999
 21
67.365934999999993
 31
0.0
  0
LINE
  5
1179
  8
0
 62
     0
 10
154.78124999999989
 20
67.365934999999993
 30
0.0
 11
155.5749999999999
 21
67.365934999999993
 31
0.0
  0
LINE
  5
117A
  8
0
 62
     0
 10
152.39999999999989
 20
67.365934999999993
 30
0.0
 11
153.19374999999991
 21
67.365934999999993
 31
0.0
  0
LINE
  5
117B
  8
0
 62
     0
 10
150.0187499999999
 20
67.365934999999993
 30
0.0
 11
150.81249999999989
 21
67.365934999999993
 31
0.0
  0
LINE
  5
117C
  8
0
 62
     0
 10
147.6374999999999
 20
67.365934999999993
 30
0.0
 11
148.43124999999989
 21
67.365934999999993
 31
0.0
  0
LINE
  5
117D
  8
0
 62
     0
 10
145.25624999999991
 20
67.365934999999993
 30
0.0
 11
146.0499999999999
 21
67.365934999999993
 31
0.0
  0
LINE
  5
117E
  8
0
 62
     0
 10
161.9249999999999
 20
68.740749999999991
 30
0.0
 11
162.71874999999989
 21
68.740749999999991
 31
0.0
  0
LINE
  5
117F
  8
0
 62
     0
 10
159.5437499999999
 20
68.740749999999991
 30
0.0
 11
160.33749999999989
 21
68.740749999999991
 31
0.0
  0
LINE
  5
1180
  8
0
 62
     0
 10
157.16249999999991
 20
68.740749999999991
 30
0.0
 11
157.9562499999999
 21
68.740749999999991
 31
0.0
  0
LINE
  5
1181
  8
0
 62
     0
 10
154.78124999999989
 20
68.740749999999991
 30
0.0
 11
155.5749999999999
 21
68.740749999999991
 31
0.0
  0
LINE
  5
1182
  8
0
 62
     0
 10
152.39999999999989
 20
68.740749999999991
 30
0.0
 11
153.19374999999991
 21
68.740749999999991
 31
0.0
  0
LINE
  5
1183
  8
0
 62
     0
 10
150.0187499999999
 20
68.740749999999991
 30
0.0
 11
150.81249999999989
 21
68.740749999999991
 31
0.0
  0
LINE
  5
1184
  8
0
 62
     0
 10
147.6374999999999
 20
68.740749999999991
 30
0.0
 11
148.43124999999989
 21
68.740749999999991
 31
0.0
  0
LINE
  5
1185
  8
0
 62
     0
 10
145.30565157428299
 20
68.740749999999991
 30
0.0
 11
146.0499999999999
 21
68.740749999999991
 31
0.0
  0
LINE
  5
1186
  8
0
 62
     0
 10
161.9249999999999
 20
70.115564999999989
 30
0.0
 11
162.71874999999989
 21
70.115564999999989
 31
0.0
  0
LINE
  5
1187
  8
0
 62
     0
 10
159.5437499999999
 20
70.115564999999989
 30
0.0
 11
160.33749999999989
 21
70.115564999999989
 31
0.0
  0
LINE
  5
1188
  8
0
 62
     0
 10
157.16249999999991
 20
70.115564999999989
 30
0.0
 11
157.9562499999999
 21
70.115564999999989
 31
0.0
  0
LINE
  5
1189
  8
0
 62
     0
 10
154.78124999999989
 20
70.115564999999989
 30
0.0
 11
155.5749999999999
 21
70.115564999999989
 31
0.0
  0
LINE
  5
118A
  8
0
 62
     0
 10
152.39999999999989
 20
70.115564999999989
 30
0.0
 11
153.19374999999991
 21
70.115564999999989
 31
0.0
  0
LINE
  5
118B
  8
0
 62
     0
 10
150.0187499999999
 20
70.115564999999989
 30
0.0
 11
150.81249999999989
 21
70.115564999999989
 31
0.0
  0
LINE
  5
118C
  8
0
 62
     0
 10
147.6374999999999
 20
70.115564999999989
 30
0.0
 11
148.43124999999989
 21
70.115564999999989
 31
0.0
  0
LINE
  5
118D
  8
0
 62
     0
 10
145.88288891476591
 20
70.115564999999989
 30
0.0
 11
146.0499999999999
 21
70.115564999999989
 31
0.0
  0
LINE
  5
118E
  8
0
 62
     0
 10
161.9249999999999
 20
71.490379999999988
 30
0.0
 11
162.71874999999989
 21
71.490379999999988
 31
0.0
  0
LINE
  5
118F
  8
0
 62
     0
 10
159.5437499999999
 20
71.490379999999988
 30
0.0
 11
160.33749999999989
 21
71.490379999999988
 31
0.0
  0
LINE
  5
1190
  8
0
 62
     0
 10
157.16249999999991
 20
71.490379999999988
 30
0.0
 11
157.9562499999999
 21
71.490379999999988
 31
0.0
  0
LINE
  5
1191
  8
0
 62
     0
 10
154.78124999999989
 20
71.490379999999988
 30
0.0
 11
155.5749999999999
 21
71.490379999999988
 31
0.0
  0
LINE
  5
1192
  8
0
 62
     0
 10
152.39999999999989
 20
71.490379999999988
 30
0.0
 11
153.19374999999991
 21
71.490379999999988
 31
0.0
  0
LINE
  5
1193
  8
0
 62
     0
 10
150.0187499999999
 20
71.490379999999988
 30
0.0
 11
150.81249999999989
 21
71.490379999999988
 31
0.0
  0
LINE
  5
1194
  8
0
 62
     0
 10
147.6374999999999
 20
71.490379999999988
 30
0.0
 11
148.43124999999989
 21
71.490379999999988
 31
0.0
  0
LINE
  5
1195
  8
0
 62
     0
 10
159.5437499999999
 20
72.865195
 30
0.0
 11
160.33749999999989
 21
72.865195
 31
0.0
  0
LINE
  5
1196
  8
0
 62
     0
 10
157.16249999999991
 20
72.865195
 30
0.0
 11
157.9562499999999
 21
72.865195
 31
0.0
  0
LINE
  5
1197
  8
0
 62
     0
 10
154.78125
 20
72.865195
 30
0.0
 11
155.5749999999999
 21
72.865195
 31
0.0
  0
LINE
  5
1198
  8
0
 62
     0
 10
152.40000000000001
 20
72.865195
 30
0.0
 11
153.19374999999991
 21
72.865195
 31
0.0
  0
LINE
  5
1199
  8
0
 62
     0
 10
150.01875000000001
 20
72.865195
 30
0.0
 11
150.81249999999989
 21
72.865195
 31
0.0
  0
LINE
  5
119A
  8
0
 62
     0
 10
147.95176949632381
 20
72.865195
 30
0.0
 11
148.43124999999989
 21
72.865195
 31
0.0
  0
LINE
  5
119B
  8
0
 62
     0
 10
159.5437499999999
 20
74.240009999999998
 30
0.0
 11
159.7678659693014
 21
74.240009999999998
 31
0.0
  0
LINE
  5
119C
  8
0
 62
     0
 10
157.16249999999991
 20
74.240009999999998
 30
0.0
 11
157.9562499999999
 21
74.240009999999998
 31
0.0
  0
LINE
  5
119D
  8
0
 62
     0
 10
154.78125
 20
74.240009999999998
 30
0.0
 11
155.5749999999999
 21
74.240009999999998
 31
0.0
  0
LINE
  5
119E
  8
0
 62
     0
 10
152.40000000000001
 20
74.240009999999998
 30
0.0
 11
153.19374999999991
 21
74.240009999999998
 31
0.0
  0
LINE
  5
119F
  8
0
 62
     0
 10
150.01875000000001
 20
74.240009999999998
 30
0.0
 11
150.81249999999989
 21
74.240009999999998
 31
0.0
  0
ENDBLK
  5
11A1
  8
0
  0
BLOCK
  8
0
  2
*U40
 70
     1
 10
0.0
 20
0.0
 30
0.0
  3
*U40
  1

  0
TEXT
  5
12B0
  8
0
 62
     2
 10
519.44555345861374
 20
444.85263631951398
 30
0.0
 40
6.0
  1
100
 50
90.0
  7
BYGG-01482201$0$ISO
  0
ENDBLK
  5
12B2
  8
0
  0
BLOCK
  8
0
  2
*U41
 70
     1
 10
0.0
 20
0.0
 30
0.0
  3
*U41
  1

  0
TEXT
  5
12B4
  8
0
 62
     2
 10
551.65528576274187
 20
514.06440195840526
 30
0.0
 40
6.0
  1
50
  7
BYGG-01482201$0$ISO
  0
ENDBLK
  5
12B6
  8
0
  0
BLOCK
  8
0
  2
*U42
 70
     1
 10
0.0
 20
0.0
 30
0.0
  3
*U42
  1

  0
TEXT
  5
132F
  8
0
 10
641.15247639990275
 20
316.63306531357932
 30
0.0
 40
3.0
  1
47.6
  7
BYGG-014357$0$ISO
  0
ENDBLK
  5
1331
  8
0
  0
BLOCK
  8
0
  2
*U43
 70
     1
 10
0.0
 20
0.0
 30
0.0
  3
*U43
  1

  0
TEXT
  5
1389
  8
0
 62
     2
 10
1.8600612505260341
 20
15.36917458955009
 30
0.0
 40
3.0
  1
18,5
 50
90.0
  7
BYGG-014279$0$ISO
  0
ENDBLK
  5
138B
  8
0
  0
BLOCK
  8
0
  2
*U44
 70
     1
 10
0.0
 20
0.0
 30
0.0
  3
*U44
  1

  0
TEXT
  5
138D
  8
0
 62
     2
 10
34.830704100513778
 20
1.248809543065921
 30
0.0
 40
3.0
  1
50
  7
BYGG-014279$0$ISO
  0
ENDBLK
  5
138F
  8
0
  0
BLOCK
  8
0
  2
*X45
 70
     1
 10
0.0
 20
0.0
 30
0.0
  3
*X45
  1

  0
LINE
  5
144A
  8
0
 62
     0
 10
27.047475049077178
 20
2.7464027910031059
 30
0.0
 11
27.047475049077178
 21
2.7464027910031059
 31
0.0
  0
LINE
  5
144B
  8
0
 62
     0
 10
24.269350049077179
 20
2.7464027910031059
 30
0.0
 11
24.269350049077179
 21
2.7464027910031059
 31
0.0
  0
LINE
  5
144C
  8
0
 62
     0
 10
21.49122504907718
 20
2.7464027910031059
 30
0.0
 11
21.49122504907718
 21
2.7464027910031059
 31
0.0
  0
LINE
  5
144D
  8
0
 62
     0
 10
18.71310004907718
 20
2.7464027910031059
 30
0.0
 11
18.71310004907718
 21
2.7464027910031059
 31
0.0
  0
LINE
  5
144E
  8
0
 62
     0
 10
15.934975049077179
 20
2.7464027910031059
 30
0.0
 11
15.934975049077179
 21
2.7464027910031059
 31
0.0
  0
LINE
  5
144F
  8
0
 62
     0
 10
38.159975049077147
 20
2.7464027910031059
 30
0.0
 11
38.159975049077147
 21
2.7464027910031059
 31
0.0
  0
LINE
  5
1450
  8
0
 62
     0
 10
35.381850049077151
 20
2.7464027910031059
 30
0.0
 11
35.381850049077151
 21
2.7464027910031059
 31
0.0
  0
LINE
  5
1451
  8
0
 62
     0
 10
32.603725049077148
 20
2.7464027910031059
 30
0.0
 11
32.603725049077148
 21
2.7464027910031059
 31
0.0
  0
LINE
  5
1452
  8
0
 62
     0
 10
29.825600049077149
 20
2.7464027910031059
 30
0.0
 11
29.825600049077149
 21
2.7464027910031059
 31
0.0
  0
LINE
  5
1453
  8
0
 62
     0
 10
13.15685004907716
 20
2.7464027910031059
 30
0.0
 11
13.15685004907716
 21
2.7464027910031059
 31
0.0
  0
LINE
  5
1454
  8
0
 62
     0
 10
10.378725049077159
 20
2.7464027910031059
 30
0.0
 11
10.378725049077159
 21
2.7464027910031059
 31
0.0
  0
LINE
  5
1455
  8
0
 62
     0
 10
7.6006000490771646
 20
2.7464027910031059
 30
0.0
 11
7.6006000490771646
 21
2.7464027910031059
 31
0.0
  0
LINE
  5
1456
  8
0
 62
     0
 10
4.8224750490771662
 20
2.7464027910031059
 30
0.0
 11
4.8224750490771662
 21
2.7464027910031059
 31
0.0
  0
LINE
  5
1457
  8
0
 62
     0
 10
25.65841254907717
 20
5.5245277910030941
 30
0.0
 11
25.65841254907717
 21
5.5245277910030941
 31
0.0
  0
LINE
  5
1458
  8
0
 62
     0
 10
22.88028754907717
 20
5.5245277910030941
 30
0.0
 11
22.88028754907717
 21
5.5245277910030941
 31
0.0
  0
LINE
  5
1459
  8
0
 62
     0
 10
20.102162549077171
 20
5.5245277910030941
 30
0.0
 11
20.102162549077171
 21
5.5245277910030941
 31
0.0
  0
LINE
  5
145A
  8
0
 62
     0
 10
17.324037549077168
 20
5.5245277910030941
 30
0.0
 11
17.324037549077168
 21
5.5245277910030941
 31
0.0
  0
LINE
  5
145B
  8
0
 62
     0
 10
36.770912549077131
 20
5.5245277910030941
 30
0.0
 11
36.770912549077131
 21
5.5245277910030941
 31
0.0
  0
LINE
  5
145C
  8
0
 62
     0
 10
33.992787549077129
 20
5.5245277910030941
 30
0.0
 11
33.992787549077129
 21
5.5245277910030941
 31
0.0
  0
LINE
  5
145D
  8
0
 62
     0
 10
31.214662549077129
 20
5.5245277910030941
 30
0.0
 11
31.214662549077129
 21
5.5245277910030941
 31
0.0
  0
LINE
  5
145E
  8
0
 62
     0
 10
28.43653754907713
 20
5.5245277910030941
 30
0.0
 11
28.43653754907713
 21
5.5245277910030941
 31
0.0
  0
LINE
  5
145F
  8
0
 62
     0
 10
14.54591254907716
 20
5.5245277910030941
 30
0.0
 11
14.54591254907716
 21
5.5245277910030941
 31
0.0
  0
LINE
  5
1460
  8
0
 62
     0
 10
11.767787549077161
 20
5.5245277910030941
 30
0.0
 11
11.767787549077161
 21
5.5245277910030941
 31
0.0
  0
LINE
  5
1461
  8
0
 62
     0
 10
8.9896625490771598
 20
5.5245277910030941
 30
0.0
 11
8.9896625490771598
 21
5.5245277910030941
 31
0.0
  0
LINE
  5
1462
  8
0
 62
     0
 10
6.2115375490771596
 20
5.5245277910030941
 30
0.0
 11
6.2115375490771596
 21
5.5245277910030941
 31
0.0
  0
LINE
  5
1463
  8
0
 62
     0
 10
27.04747504907715
 20
8.3026527910030836
 30
0.0
 11
27.04747504907715
 21
8.3026527910030836
 31
0.0
  0
LINE
  5
1464
  8
0
 62
     0
 10
24.269350049077151
 20
8.3026527910030836
 30
0.0
 11
24.269350049077151
 21
8.3026527910030836
 31
0.0
  0
LINE
  5
1465
  8
0
 62
     0
 10
21.491225049077151
 20
8.3026527910030836
 30
0.0
 11
21.491225049077151
 21
8.3026527910030836
 31
0.0
  0
LINE
  5
1466
  8
0
 62
     0
 10
18.713100049077148
 20
8.3026527910030836
 30
0.0
 11
18.713100049077148
 21
8.3026527910030836
 31
0.0
  0
LINE
  5
1467
  8
0
 62
     0
 10
15.934975049077149
 20
8.3026527910030836
 30
0.0
 11
15.934975049077149
 21
8.3026527910030836
 31
0.0
  0
LINE
  5
1468
  8
0
 62
     0
 10
38.159975049077147
 20
8.3026527910030836
 30
0.0
 11
38.159975049077147
 21
8.3026527910030836
 31
0.0
  0
LINE
  5
1469
  8
0
 62
     0
 10
35.381850049077151
 20
8.3026527910030836
 30
0.0
 11
35.381850049077151
 21
8.3026527910030836
 31
0.0
  0
LINE
  5
146A
  8
0
 62
     0
 10
32.603725049077148
 20
8.3026527910030836
 30
0.0
 11
32.603725049077148
 21
8.3026527910030836
 31
0.0
  0
LINE
  5
146B
  8
0
 62
     0
 10
29.825600049077149
 20
8.3026527910030836
 30
0.0
 11
29.825600049077149
 21
8.3026527910030836
 31
0.0
  0
LINE
  5
146C
  8
0
 62
     0
 10
13.15685004907716
 20
8.3026527910030836
 30
0.0
 11
13.15685004907716
 21
8.3026527910030836
 31
0.0
  0
LINE
  5
146D
  8
0
 62
     0
 10
10.378725049077159
 20
8.3026527910030836
 30
0.0
 11
10.378725049077159
 21
8.3026527910030836
 31
0.0
  0
LINE
  5
146E
  8
0
 62
     0
 10
7.6006000490771646
 20
8.3026527910030836
 30
0.0
 11
7.6006000490771646
 21
8.3026527910030836
 31
0.0
  0
LINE
  5
146F
  8
0
 62
     0
 10
4.8224750490771662
 20
8.3026527910030836
 30
0.0
 11
4.8224750490771662
 21
8.3026527910030836
 31
0.0
  0
LINE
  5
1470
  8
0
 62
     0
 10
25.658412549077141
 20
11.08077779100307
 30
0.0
 11
25.658412549077141
 21
11.08077779100307
 31
0.0
  0
LINE
  5
1471
  8
0
 62
     0
 10
22.880287549077138
 20
11.08077779100307
 30
0.0
 11
22.880287549077138
 21
11.08077779100307
 31
0.0
  0
LINE
  5
1472
  8
0
 62
     0
 10
20.102162549077139
 20
11.08077779100307
 30
0.0
 11
20.102162549077139
 21
11.08077779100307
 31
0.0
  0
LINE
  5
1473
  8
0
 62
     0
 10
17.32403754907714
 20
11.08077779100307
 30
0.0
 11
17.32403754907714
 21
11.08077779100307
 31
0.0
  0
LINE
  5
1474
  8
0
 62
     0
 10
36.770912549077188
 20
11.08077779100307
 30
0.0
 11
36.770912549077188
 21
11.08077779100307
 31
0.0
  0
LINE
  5
1475
  8
0
 62
     0
 10
33.992787549077192
 20
11.08077779100307
 30
0.0
 11
33.992787549077192
 21
11.08077779100307
 31
0.0
  0
LINE
  5
1476
  8
0
 62
     0
 10
31.214662549077179
 20
11.08077779100307
 30
0.0
 11
31.214662549077179
 21
11.08077779100307
 31
0.0
  0
LINE
  5
1477
  8
0
 62
     0
 10
28.43653754907718
 20
11.08077779100307
 30
0.0
 11
28.43653754907718
 21
11.08077779100307
 31
0.0
  0
LINE
  5
1478
  8
0
 62
     0
 10
14.54591254907716
 20
11.08077779100307
 30
0.0
 11
14.54591254907716
 21
11.08077779100307
 31
0.0
  0
LINE
  5
1479
  8
0
 62
     0
 10
11.767787549077161
 20
11.08077779100307
 30
0.0
 11
11.767787549077161
 21
11.08077779100307
 31
0.0
  0
LINE
  5
147A
  8
0
 62
     0
 10
8.9896625490771598
 20
11.08077779100307
 30
0.0
 11
8.9896625490771598
 21
11.08077779100307
 31
0.0
  0
LINE
  5
147B
  8
0
 62
     0
 10
6.2115375490771596
 20
11.08077779100307
 30
0.0
 11
6.2115375490771596
 21
11.08077779100307
 31
0.0
  0
LINE
  5
147C
  8
0
 62
     0
 10
27.04747504907715
 20
13.858902791003061
 30
0.0
 11
27.04747504907715
 21
13.858902791003061
 31
0.0
  0
LINE
  5
147D
  8
0
 62
     0
 10
24.269350049077151
 20
13.858902791003061
 30
0.0
 11
24.269350049077151
 21
13.858902791003061
 31
0.0
  0
LINE
  5
147E
  8
0
 62
     0
 10
21.491225049077151
 20
13.858902791003061
 30
0.0
 11
21.491225049077151
 21
13.858902791003061
 31
0.0
  0
LINE
  5
147F
  8
0
 62
     0
 10
18.713100049077148
 20
13.858902791003061
 30
0.0
 11
18.713100049077148
 21
13.858902791003061
 31
0.0
  0
LINE
  5
1480
  8
0
 62
     0
 10
15.934975049077149
 20
13.858902791003061
 30
0.0
 11
15.934975049077149
 21
13.858902791003061
 31
0.0
  0
LINE
  5
1481
  8
0
 62
     0
 10
40.93810004907715
 20
13.858902791003061
 30
0.0
 11
40.93810004907715
 21
13.858902791003061
 31
0.0
  0
LINE
  5
1482
  8
0
 62
     0
 10
38.159975049077147
 20
13.858902791003061
 30
0.0
 11
38.159975049077147
 21
13.858902791003061
 31
0.0
  0
LINE
  5
1483
  8
0
 62
     0
 10
35.381850049077151
 20
13.858902791003061
 30
0.0
 11
35.381850049077151
 21
13.858902791003061
 31
0.0
  0
LINE
  5
1484
  8
0
 62
     0
 10
32.603725049077148
 20
13.858902791003061
 30
0.0
 11
32.603725049077148
 21
13.858902791003061
 31
0.0
  0
LINE
  5
1485
  8
0
 62
     0
 10
29.825600049077149
 20
13.858902791003061
 30
0.0
 11
29.825600049077149
 21
13.858902791003061
 31
0.0
  0
LINE
  5
1486
  8
0
 62
     0
 10
13.15685004907715
 20
13.858902791003061
 30
0.0
 11
13.15685004907715
 21
13.858902791003061
 31
0.0
  0
LINE
  5
1487
  8
0
 62
     0
 10
10.378725049077151
 20
13.858902791003061
 30
0.0
 11
10.378725049077151
 21
13.858902791003061
 31
0.0
  0
LINE
  5
1488
  8
0
 62
     0
 10
7.6006000490771486
 20
13.858902791003061
 30
0.0
 11
7.6006000490771486
 21
13.858902791003061
 31
0.0
  0
LINE
  5
1489
  8
0
 62
     0
 10
4.8224750490771493
 20
13.858902791003061
 30
0.0
 11
4.8224750490771493
 21
13.858902791003061
 31
0.0
  0
LINE
  5
148A
  8
0
 62
     0
 10
2.0443500490771491
 20
13.858902791003061
 30
0.0
 11
2.0443500490771491
 21
13.858902791003061
 31
0.0
  0
LINE
  5
148B
  8
0
 62
     0
 10
25.65841254907717
 20
16.637027791003099
 30
0.0
 11
25.65841254907717
 21
16.637027791003099
 31
0.0
  0
LINE
  5
148C
  8
0
 62
     0
 10
22.88028754907717
 20
16.637027791003099
 30
0.0
 11
22.88028754907717
 21
16.637027791003099
 31
0.0
  0
LINE
  5
148D
  8
0
 62
     0
 10
20.102162549077171
 20
16.637027791003099
 30
0.0
 11
20.102162549077171
 21
16.637027791003099
 31
0.0
  0
LINE
  5
148E
  8
0
 62
     0
 10
17.324037549077168
 20
16.637027791003099
 30
0.0
 11
17.324037549077168
 21
16.637027791003099
 31
0.0
  0
LINE
  5
148F
  8
0
 62
     0
 10
42.327162549077187
 20
16.637027791003099
 30
0.0
 11
42.327162549077187
 21
16.637027791003099
 31
0.0
  0
LINE
  5
1490
  8
0
 62
     0
 10
39.549037549077191
 20
16.637027791003099
 30
0.0
 11
39.549037549077191
 21
16.637027791003099
 31
0.0
  0
LINE
  5
1491
  8
0
 62
     0
 10
36.770912549077188
 20
16.637027791003099
 30
0.0
 11
36.770912549077188
 21
16.637027791003099
 31
0.0
  0
LINE
  5
1492
  8
0
 62
     0
 10
33.992787549077192
 20
16.637027791003099
 30
0.0
 11
33.992787549077192
 21
16.637027791003099
 31
0.0
  0
LINE
  5
1493
  8
0
 62
     0
 10
31.214662549077179
 20
16.637027791003099
 30
0.0
 11
31.214662549077179
 21
16.637027791003099
 31
0.0
  0
LINE
  5
1494
  8
0
 62
     0
 10
28.43653754907718
 20
16.637027791003099
 30
0.0
 11
28.43653754907718
 21
16.637027791003099
 31
0.0
  0
LINE
  5
1495
  8
0
 62
     0
 10
14.54591254907718
 20
16.637027791003099
 30
0.0
 11
14.54591254907718
 21
16.637027791003099
 31
0.0
  0
LINE
  5
1496
  8
0
 62
     0
 10
11.76778754907718
 20
16.637027791003099
 30
0.0
 11
11.76778754907718
 21
16.637027791003099
 31
0.0
  0
LINE
  5
1497
  8
0
 62
     0
 10
8.9896625490771829
 20
16.637027791003099
 30
0.0
 11
8.9896625490771829
 21
16.637027791003099
 31
0.0
  0
LINE
  5
1498
  8
0
 62
     0
 10
6.2115375490771827
 20
16.637027791003099
 30
0.0
 11
6.2115375490771827
 21
16.637027791003099
 31
0.0
  0
LINE
  5
1499
  8
0
 62
     0
 10
3.433412549077183
 20
16.637027791003099
 30
0.0
 11
3.433412549077183
 21
16.637027791003099
 31
0.0
  0
LINE
  5
149A
  8
0
 62
     0
 10
0.6552875490771837
 20
16.637027791003099
 30
0.0
 11
0.6552875490771837
 21
16.637027791003099
 31
0.0
  0
LINE
  5
149B
  8
0
 62
     0
 10
27.047475049077178
 20
19.415152791003091
 30
0.0
 11
27.047475049077178
 21
19.415152791003091
 31
0.0
  0
LINE
  5
149C
  8
0
 62
     0
 10
24.269350049077179
 20
19.415152791003091
 30
0.0
 11
24.269350049077179
 21
19.415152791003091
 31
0.0
  0
LINE
  5
149D
  8
0
 62
     0
 10
21.49122504907718
 20
19.415152791003091
 30
0.0
 11
21.49122504907718
 21
19.415152791003091
 31
0.0
  0
LINE
  5
149E
  8
0
 62
     0
 10
18.71310004907718
 20
19.415152791003091
 30
0.0
 11
18.71310004907718
 21
19.415152791003091
 31
0.0
  0
LINE
  5
149F
  8
0
 62
     0
 10
15.934975049077179
 20
19.415152791003091
 30
0.0
 11
15.934975049077179
 21
19.415152791003091
 31
0.0
  0
LINE
  5
14A0
  8
0
 62
     0
 10
40.938100049077192
 20
19.415152791003091
 30
0.0
 11
40.938100049077192
 21
19.415152791003091
 31
0.0
  0
LINE
  5
14A1
  8
0
 62
     0
 10
38.159975049077183
 20
19.415152791003091
 30
0.0
 11
38.159975049077183
 21
19.415152791003091
 31
0.0
  0
LINE
  5
14A2
  8
0
 62
     0
 10
35.38185004907718
 20
19.415152791003091
 30
0.0
 11
35.38185004907718
 21
19.415152791003091
 31
0.0
  0
LINE
  5
14A3
  8
0
 62
     0
 10
32.603725049077177
 20
19.415152791003091
 30
0.0
 11
32.603725049077177
 21
19.415152791003091
 31
0.0
  0
LINE
  5
14A4
  8
0
 62
     0
 10
29.825600049077181
 20
19.415152791003091
 30
0.0
 11
29.825600049077181
 21
19.415152791003091
 31
0.0
  0
LINE
  5
14A5
  8
0
 62
     0
 10
13.15685004907718
 20
19.415152791003091
 30
0.0
 11
13.15685004907718
 21
19.415152791003091
 31
0.0
  0
LINE
  5
14A6
  8
0
 62
     0
 10
10.37872504907717
 20
19.415152791003091
 30
0.0
 11
10.37872504907717
 21
19.415152791003091
 31
0.0
  0
LINE
  5
14A7
  8
0
 62
     0
 10
7.600600049077177
 20
19.415152791003091
 30
0.0
 11
7.600600049077177
 21
19.415152791003091
 31
0.0
  0
LINE
  5
14A8
  8
0
 62
     0
 10
4.8224750490771768
 20
19.415152791003091
 30
0.0
 11
4.8224750490771768
 21
19.415152791003091
 31
0.0
  0
LINE
  5
14A9
  8
0
 62
     0
 10
2.0443500490771771
 20
19.415152791003091
 30
0.0
 11
2.0443500490771771
 21
19.415152791003091
 31
0.0
  0
LINE
  5
14AA
  8
0
 62
     0
 10
25.65841254907717
 20
22.19327779100308
 30
0.0
 11
25.65841254907717
 21
22.19327779100308
 31
0.0
  0
LINE
  5
14AB
  8
0
 62
     0
 10
22.88028754907717
 20
22.19327779100308
 30
0.0
 11
22.88028754907717
 21
22.19327779100308
 31
0.0
  0
LINE
  5
14AC
  8
0
 62
     0
 10
20.102162549077171
 20
22.19327779100308
 30
0.0
 11
20.102162549077171
 21
22.19327779100308
 31
0.0
  0
LINE
  5
14AD
  8
0
 62
     0
 10
17.324037549077168
 20
22.19327779100308
 30
0.0
 11
17.324037549077168
 21
22.19327779100308
 31
0.0
  0
LINE
  5
14AE
  8
0
 62
     0
 10
42.327162549077173
 20
22.19327779100308
 30
0.0
 11
42.327162549077173
 21
22.19327779100308
 31
0.0
  0
LINE
  5
14AF
  8
0
 62
     0
 10
39.549037549077163
 20
22.19327779100308
 30
0.0
 11
39.549037549077163
 21
22.19327779100308
 31
0.0
  0
LINE
  5
14B0
  8
0
 62
     0
 10
36.77091254907716
 20
22.19327779100308
 30
0.0
 11
36.77091254907716
 21
22.19327779100308
 31
0.0
  0
LINE
  5
14B1
  8
0
 62
     0
 10
33.992787549077157
 20
22.19327779100308
 30
0.0
 11
33.992787549077157
 21
22.19327779100308
 31
0.0
  0
LINE
  5
14B2
  8
0
 62
     0
 10
31.214662549077161
 20
22.19327779100308
 30
0.0
 11
31.214662549077161
 21
22.19327779100308
 31
0.0
  0
LINE
  5
14B3
  8
0
 62
     0
 10
28.436537549077158
 20
22.19327779100308
 30
0.0
 11
28.436537549077158
 21
22.19327779100308
 31
0.0
  0
LINE
  5
14B4
  8
0
 62
     0
 10
14.545912549077149
 20
22.19327779100308
 30
0.0
 11
14.545912549077149
 21
22.19327779100308
 31
0.0
  0
LINE
  5
14B5
  8
0
 62
     0
 10
11.76778754907715
 20
22.19327779100308
 30
0.0
 11
11.76778754907715
 21
22.19327779100308
 31
0.0
  0
LINE
  5
14B6
  8
0
 62
     0
 10
8.9896625490771545
 20
22.19327779100308
 30
0.0
 11
8.9896625490771545
 21
22.19327779100308
 31
0.0
  0
LINE
  5
14B7
  8
0
 62
     0
 10
6.2115375490771552
 20
22.19327779100308
 30
0.0
 11
6.2115375490771552
 21
22.19327779100308
 31
0.0
  0
LINE
  5
14B8
  8
0
 62
     0
 10
3.4334125490771541
 20
22.19327779100308
 30
0.0
 11
3.4334125490771541
 21
22.19327779100308
 31
0.0
  0
LINE
  5
14B9
  8
0
 62
     0
 10
0.6552875490771553
 20
22.19327779100308
 30
0.0
 11
0.6552875490771553
 21
22.19327779100308
 31
0.0
  0
LINE
  5
14BA
  8
0
 62
     0
 10
27.04747504907715
 20
24.971402791003069
 30
0.0
 11
27.04747504907715
 21
24.971402791003069
 31
0.0
  0
LINE
  5
14BB
  8
0
 62
     0
 10
24.269350049077151
 20
24.971402791003069
 30
0.0
 11
24.269350049077151
 21
24.971402791003069
 31
0.0
  0
LINE
  5
14BC
  8
0
 62
     0
 10
21.491225049077151
 20
24.971402791003069
 30
0.0
 11
21.491225049077151
 21
24.971402791003069
 31
0.0
  0
LINE
  5
14BD
  8
0
 62
     0
 10
18.713100049077148
 20
24.971402791003069
 30
0.0
 11
18.713100049077148
 21
24.971402791003069
 31
0.0
  0
LINE
  5
14BE
  8
0
 62
     0
 10
15.934975049077149
 20
24.971402791003069
 30
0.0
 11
15.934975049077149
 21
24.971402791003069
 31
0.0
  0
LINE
  5
14BF
  8
0
 62
     0
 10
40.93810004907715
 20
24.971402791003069
 30
0.0
 11
40.93810004907715
 21
24.971402791003069
 31
0.0
  0
LINE
  5
14C0
  8
0
 62
     0
 10
38.159975049077147
 20
24.971402791003069
 30
0.0
 11
38.159975049077147
 21
24.971402791003069
 31
0.0
  0
LINE
  5
14C1
  8
0
 62
     0
 10
35.381850049077151
 20
24.971402791003069
 30
0.0
 11
35.381850049077151
 21
24.971402791003069
 31
0.0
  0
LINE
  5
14C2
  8
0
 62
     0
 10
32.603725049077148
 20
24.971402791003069
 30
0.0
 11
32.603725049077148
 21
24.971402791003069
 31
0.0
  0
LINE
  5
14C3
  8
0
 62
     0
 10
29.825600049077149
 20
24.971402791003069
 30
0.0
 11
29.825600049077149
 21
24.971402791003069
 31
0.0
  0
LINE
  5
14C4
  8
0
 62
     0
 10
13.15685004907715
 20
24.971402791003069
 30
0.0
 11
13.15685004907715
 21
24.971402791003069
 31
0.0
  0
LINE
  5
14C5
  8
0
 62
     0
 10
10.378725049077151
 20
24.971402791003069
 30
0.0
 11
10.378725049077151
 21
24.971402791003069
 31
0.0
  0
LINE
  5
14C6
  8
0
 62
     0
 10
7.6006000490771486
 20
24.971402791003069
 30
0.0
 11
7.6006000490771486
 21
24.971402791003069
 31
0.0
  0
LINE
  5
14C7
  8
0
 62
     0
 10
4.8224750490771493
 20
24.971402791003069
 30
0.0
 11
4.8224750490771493
 21
24.971402791003069
 31
0.0
  0
LINE
  5
14C8
  8
0
 62
     0
 10
2.0443500490771491
 20
24.971402791003069
 30
0.0
 11
2.0443500490771491
 21
24.971402791003069
 31
0.0
  0
LINE
  5
14C9
  8
0
 62
     0
 10
25.658412549077141
 20
27.749527791003061
 30
0.0
 11
25.658412549077141
 21
27.749527791003061
 31
0.0
  0
LINE
  5
14CA
  8
0
 62
     0
 10
22.880287549077138
 20
27.749527791003061
 30
0.0
 11
22.880287549077138
 21
27.749527791003061
 31
0.0
  0
LINE
  5
14CB
  8
0
 62
     0
 10
20.102162549077139
 20
27.749527791003061
 30
0.0
 11
20.102162549077139
 21
27.749527791003061
 31
0.0
  0
LINE
  5
14CC
  8
0
 62
     0
 10
17.32403754907714
 20
27.749527791003061
 30
0.0
 11
17.32403754907714
 21
27.749527791003061
 31
0.0
  0
LINE
  5
14CD
  8
0
 62
     0
 10
42.327162549077173
 20
27.749527791003061
 30
0.0
 11
42.327162549077173
 21
27.749527791003061
 31
0.0
  0
LINE
  5
14CE
  8
0
 62
     0
 10
39.549037549077163
 20
27.749527791003061
 30
0.0
 11
39.549037549077163
 21
27.749527791003061
 31
0.0
  0
LINE
  5
14CF
  8
0
 62
     0
 10
36.77091254907716
 20
27.749527791003061
 30
0.0
 11
36.77091254907716
 21
27.749527791003061
 31
0.0
  0
LINE
  5
14D0
  8
0
 62
     0
 10
33.992787549077157
 20
27.749527791003061
 30
0.0
 11
33.992787549077157
 21
27.749527791003061
 31
0.0
  0
LINE
  5
14D1
  8
0
 62
     0
 10
31.214662549077161
 20
27.749527791003061
 30
0.0
 11
31.214662549077161
 21
27.749527791003061
 31
0.0
  0
LINE
  5
14D2
  8
0
 62
     0
 10
28.436537549077158
 20
27.749527791003061
 30
0.0
 11
28.436537549077158
 21
27.749527791003061
 31
0.0
  0
LINE
  5
14D3
  8
0
 62
     0
 10
14.545912549077149
 20
27.749527791003061
 30
0.0
 11
14.545912549077149
 21
27.749527791003061
 31
0.0
  0
LINE
  5
14D4
  8
0
 62
     0
 10
11.76778754907715
 20
27.749527791003061
 30
0.0
 11
11.76778754907715
 21
27.749527791003061
 31
0.0
  0
LINE
  5
14D5
  8
0
 62
     0
 10
8.9896625490771545
 20
27.749527791003061
 30
0.0
 11
8.9896625490771545
 21
27.749527791003061
 31
0.0
  0
LINE
  5
14D6
  8
0
 62
     0
 10
6.2115375490771552
 20
27.749527791003061
 30
0.0
 11
6.2115375490771552
 21
27.749527791003061
 31
0.0
  0
LINE
  5
14D7
  8
0
 62
     0
 10
3.4334125490771541
 20
27.749527791003061
 30
0.0
 11
3.4334125490771541
 21
27.749527791003061
 31
0.0
  0
LINE
  5
14D8
  8
0
 62
     0
 10
0.6552875490771553
 20
27.749527791003061
 30
0.0
 11
0.6552875490771553
 21
27.749527791003061
 31
0.0
  0
LINE
  5
14D9
  8
0
 62
     0
 10
27.047475049077178
 20
30.52765279100311
 30
0.0
 11
27.047475049077178
 21
30.52765279100311
 31
0.0
  0
LINE
  5
14DA
  8
0
 62
     0
 10
24.269350049077179
 20
30.52765279100311
 30
0.0
 11
24.269350049077179
 21
30.52765279100311
 31
0.0
  0
LINE
  5
14DB
  8
0
 62
     0
 10
21.49122504907718
 20
30.52765279100311
 30
0.0
 11
21.49122504907718
 21
30.52765279100311
 31
0.0
  0
LINE
  5
14DC
  8
0
 62
     0
 10
18.71310004907718
 20
30.52765279100311
 30
0.0
 11
18.71310004907718
 21
30.52765279100311
 31
0.0
  0
LINE
  5
14DD
  8
0
 62
     0
 10
15.934975049077179
 20
30.52765279100311
 30
0.0
 11
15.934975049077179
 21
30.52765279100311
 31
0.0
  0
LINE
  5
14DE
  8
0
 62
     0
 10
40.938100049077192
 20
30.52765279100311
 30
0.0
 11
40.938100049077192
 21
30.52765279100311
 31
0.0
  0
LINE
  5
14DF
  8
0
 62
     0
 10
38.159975049077183
 20
30.52765279100311
 30
0.0
 11
38.159975049077183
 21
30.52765279100311
 31
0.0
  0
LINE
  5
14E0
  8
0
 62
     0
 10
35.38185004907718
 20
30.52765279100311
 30
0.0
 11
35.38185004907718
 21
30.52765279100311
 31
0.0
  0
LINE
  5
14E1
  8
0
 62
     0
 10
32.603725049077177
 20
30.52765279100311
 30
0.0
 11
32.603725049077177
 21
30.52765279100311
 31
0.0
  0
LINE
  5
14E2
  8
0
 62
     0
 10
29.825600049077181
 20
30.52765279100311
 30
0.0
 11
29.825600049077181
 21
30.52765279100311
 31
0.0
  0
LINE
  5
14E3
  8
0
 62
     0
 10
13.15685004907718
 20
30.52765279100311
 30
0.0
 11
13.15685004907718
 21
30.52765279100311
 31
0.0
  0
LINE
  5
14E4
  8
0
 62
     0
 10
10.37872504907717
 20
30.52765279100311
 30
0.0
 11
10.37872504907717
 21
30.52765279100311
 31
0.0
  0
LINE
  5
14E5
  8
0
 62
     0
 10
7.600600049077177
 20
30.52765279100311
 30
0.0
 11
7.600600049077177
 21
30.52765279100311
 31
0.0
  0
LINE
  5
14E6
  8
0
 62
     0
 10
4.8224750490771768
 20
30.52765279100311
 30
0.0
 11
4.8224750490771768
 21
30.52765279100311
 31
0.0
  0
LINE
  5
14E7
  8
0
 62
     0
 10
2.0443500490771771
 20
30.52765279100311
 30
0.0
 11
2.0443500490771771
 21
30.52765279100311
 31
0.0
  0
LINE
  5
14E8
  8
0
 62
     0
 10
25.65841254907717
 20
33.305777791003088
 30
0.0
 11
25.65841254907717
 21
33.305777791003088
 31
0.0
  0
LINE
  5
14E9
  8
0
 62
     0
 10
22.88028754907717
 20
33.305777791003088
 30
0.0
 11
22.88028754907717
 21
33.305777791003088
 31
0.0
  0
LINE
  5
14EA
  8
0
 62
     0
 10
20.102162549077171
 20
33.305777791003088
 30
0.0
 11
20.102162549077171
 21
33.305777791003088
 31
0.0
  0
LINE
  5
14EB
  8
0
 62
     0
 10
17.324037549077168
 20
33.305777791003088
 30
0.0
 11
17.324037549077168
 21
33.305777791003088
 31
0.0
  0
LINE
  5
14EC
  8
0
 62
     0
 10
42.327162549077173
 20
33.305777791003088
 30
0.0
 11
42.327162549077173
 21
33.305777791003088
 31
0.0
  0
LINE
  5
14ED
  8
0
 62
     0
 10
39.549037549077163
 20
33.305777791003088
 30
0.0
 11
39.549037549077163
 21
33.305777791003088
 31
0.0
  0
LINE
  5
14EE
  8
0
 62
     0
 10
36.77091254907716
 20
33.305777791003088
 30
0.0
 11
36.77091254907716
 21
33.305777791003088
 31
0.0
  0
LINE
  5
14EF
  8
0
 62
     0
 10
33.992787549077157
 20
33.305777791003088
 30
0.0
 11
33.992787549077157
 21
33.305777791003088
 31
0.0
  0
LINE
  5
14F0
  8
0
 62
     0
 10
31.214662549077161
 20
33.305777791003088
 30
0.0
 11
31.214662549077161
 21
33.305777791003088
 31
0.0
  0
LINE
  5
14F1
  8
0
 62
     0
 10
28.436537549077158
 20
33.305777791003088
 30
0.0
 11
28.436537549077158
 21
33.305777791003088
 31
0.0
  0
LINE
  5
14F2
  8
0
 62
     0
 10
14.545912549077149
 20
33.305777791003088
 30
0.0
 11
14.545912549077149
 21
33.305777791003088
 31
0.0
  0
LINE
  5
14F3
  8
0
 62
     0
 10
11.76778754907715
 20
33.305777791003088
 30
0.0
 11
11.76778754907715
 21
33.305777791003088
 31
0.0
  0
LINE
  5
14F4
  8
0
 62
     0
 10
8.9896625490771545
 20
33.305777791003088
 30
0.0
 11
8.9896625490771545
 21
33.305777791003088
 31
0.0
  0
LINE
  5
14F5
  8
0
 62
     0
 10
6.2115375490771552
 20
33.305777791003088
 30
0.0
 11
6.2115375490771552
 21
33.305777791003088
 31
0.0
  0
LINE
  5
14F6
  8
0
 62
     0
 10
3.4334125490771541
 20
33.305777791003088
 30
0.0
 11
3.4334125490771541
 21
33.305777791003088
 31
0.0
  0
LINE
  5
14F7
  8
0
 62
     0
 10
0.6552875490771553
 20
33.305777791003088
 30
0.0
 11
0.6552875490771553
 21
33.305777791003088
 31
0.0
  0
LINE
  5
14F8
  8
0
 62
     0
 10
27.04747504907715
 20
36.083902791003091
 30
0.0
 11
27.04747504907715
 21
36.083902791003091
 31
0.0
  0
LINE
  5
14F9
  8
0
 62
     0
 10
24.269350049077151
 20
36.083902791003091
 30
0.0
 11
24.269350049077151
 21
36.083902791003091
 31
0.0
  0
LINE
  5
14FA
  8
0
 62
     0
 10
21.491225049077151
 20
36.083902791003091
 30
0.0
 11
21.491225049077151
 21
36.083902791003091
 31
0.0
  0
LINE
  5
14FB
  8
0
 62
     0
 10
18.713100049077148
 20
36.083902791003091
 30
0.0
 11
18.713100049077148
 21
36.083902791003091
 31
0.0
  0
LINE
  5
14FC
  8
0
 62
     0
 10
15.934975049077149
 20
36.083902791003091
 30
0.0
 11
15.934975049077149
 21
36.083902791003091
 31
0.0
  0
LINE
  5
14FD
  8
0
 62
     0
 10
40.93810004907715
 20
36.083902791003091
 30
0.0
 11
40.93810004907715
 21
36.083902791003091
 31
0.0
  0
LINE
  5
14FE
  8
0
 62
     0
 10
38.159975049077147
 20
36.083902791003091
 30
0.0
 11
38.159975049077147
 21
36.083902791003091
 31
0.0
  0
LINE
  5
14FF
  8
0
 62
     0
 10
35.381850049077151
 20
36.083902791003091
 30
0.0
 11
35.381850049077151
 21
36.083902791003091
 31
0.0
  0
LINE
  5
1500
  8
0
 62
     0
 10
32.603725049077148
 20
36.083902791003091
 30
0.0
 11
32.603725049077148
 21
36.083902791003091
 31
0.0
  0
LINE
  5
1501
  8
0
 62
     0
 10
29.825600049077149
 20
36.083902791003091
 30
0.0
 11
29.825600049077149
 21
36.083902791003091
 31
0.0
  0
LINE
  5
1502
  8
0
 62
     0
 10
13.15685004907715
 20
36.083902791003091
 30
0.0
 11
13.15685004907715
 21
36.083902791003091
 31
0.0
  0
LINE
  5
1503
  8
0
 62
     0
 10
10.378725049077151
 20
36.083902791003091
 30
0.0
 11
10.378725049077151
 21
36.083902791003091
 31
0.0
  0
LINE
  5
1504
  8
0
 62
     0
 10
7.6006000490771486
 20
36.083902791003091
 30
0.0
 11
7.6006000490771486
 21
36.083902791003091
 31
0.0
  0
LINE
  5
1505
  8
0
 62
     0
 10
4.8224750490771493
 20
36.083902791003091
 30
0.0
 11
4.8224750490771493
 21
36.083902791003091
 31
0.0
  0
LINE
  5
1506
  8
0
 62
     0
 10
2.0443500490771491
 20
36.083902791003091
 30
0.0
 11
2.0443500490771491
 21
36.083902791003091
 31
0.0
  0
LINE
  5
1507
  8
0
 62
     0
 10
25.658412549077141
 20
38.862027791003072
 30
0.0
 11
25.658412549077141
 21
38.862027791003072
 31
0.0
  0
LINE
  5
1508
  8
0
 62
     0
 10
22.880287549077138
 20
38.862027791003072
 30
0.0
 11
22.880287549077138
 21
38.862027791003072
 31
0.0
  0
LINE
  5
1509
  8
0
 62
     0
 10
20.102162549077139
 20
38.862027791003072
 30
0.0
 11
20.102162549077139
 21
38.862027791003072
 31
0.0
  0
LINE
  5
150A
  8
0
 62
     0
 10
17.32403754907714
 20
38.862027791003072
 30
0.0
 11
17.32403754907714
 21
38.862027791003072
 31
0.0
  0
LINE
  5
150B
  8
0
 62
     0
 10
42.327162549077173
 20
38.862027791003072
 30
0.0
 11
42.327162549077173
 21
38.862027791003072
 31
0.0
  0
LINE
  5
150C
  8
0
 62
     0
 10
39.549037549077163
 20
38.862027791003072
 30
0.0
 11
39.549037549077163
 21
38.862027791003072
 31
0.0
  0
LINE
  5
150D
  8
0
 62
     0
 10
36.77091254907716
 20
38.862027791003072
 30
0.0
 11
36.77091254907716
 21
38.862027791003072
 31
0.0
  0
LINE
  5
150E
  8
0
 62
     0
 10
33.992787549077157
 20
38.862027791003072
 30
0.0
 11
33.992787549077157
 21
38.862027791003072
 31
0.0
  0
LINE
  5
150F
  8
0
 62
     0
 10
31.214662549077161
 20
38.862027791003072
 30
0.0
 11
31.214662549077161
 21
38.862027791003072
 31
0.0
  0
LINE
  5
1510
  8
0
 62
     0
 10
28.436537549077158
 20
38.862027791003072
 30
0.0
 11
28.436537549077158
 21
38.862027791003072
 31
0.0
  0
LINE
  5
1511
  8
0
 62
     0
 10
14.545912549077149
 20
38.862027791003072
 30
0.0
 11
14.545912549077149
 21
38.862027791003072
 31
0.0
  0
LINE
  5
1512
  8
0
 62
     0
 10
11.76778754907715
 20
38.862027791003072
 30
0.0
 11
11.76778754907715
 21
38.862027791003072
 31
0.0
  0
LINE
  5
1513
  8
0
 62
     0
 10
8.9896625490771545
 20
38.862027791003072
 30
0.0
 11
8.9896625490771545
 21
38.862027791003072
 31
0.0
  0
LINE
  5
1514
  8
0
 62
     0
 10
6.2115375490771552
 20
38.862027791003072
 30
0.0
 11
6.2115375490771552
 21
38.862027791003072
 31
0.0
  0
LINE
  5
1515
  8
0
 62
     0
 10
3.4334125490771541
 20
38.862027791003072
 30
0.0
 11
3.4334125490771541
 21
38.862027791003072
 31
0.0
  0
LINE
  5
1516
  8
0
 62
     0
 10
0.6552875490771553
 20
38.862027791003072
 30
0.0
 11
0.6552875490771553
 21
38.862027791003072
 31
0.0
  0
LINE
  5
1517
  8
0
 62
     0
 10
27.04747504907715
 20
41.640152791003061
 30
0.0
 11
27.04747504907715
 21
41.640152791003061
 31
0.0
  0
LINE
  5
1518
  8
0
 62
     0
 10
24.269350049077151
 20
41.640152791003061
 30
0.0
 11
24.269350049077151
 21
41.640152791003061
 31
0.0
  0
LINE
  5
1519
  8
0
 62
     0
 10
21.491225049077151
 20
41.640152791003061
 30
0.0
 11
21.491225049077151
 21
41.640152791003061
 31
0.0
  0
LINE
  5
151A
  8
0
 62
     0
 10
18.713100049077148
 20
41.640152791003061
 30
0.0
 11
18.713100049077148
 21
41.640152791003061
 31
0.0
  0
LINE
  5
151B
  8
0
 62
     0
 10
15.934975049077149
 20
41.640152791003061
 30
0.0
 11
15.934975049077149
 21
41.640152791003061
 31
0.0
  0
LINE
  5
151C
  8
0
 62
     0
 10
40.93810004907715
 20
41.640152791003061
 30
0.0
 11
40.93810004907715
 21
41.640152791003061
 31
0.0
  0
LINE
  5
151D
  8
0
 62
     0
 10
38.159975049077147
 20
41.640152791003061
 30
0.0
 11
38.159975049077147
 21
41.640152791003061
 31
0.0
  0
LINE
  5
151E
  8
0
 62
     0
 10
35.381850049077151
 20
41.640152791003061
 30
0.0
 11
35.381850049077151
 21
41.640152791003061
 31
0.0
  0
LINE
  5
151F
  8
0
 62
     0
 10
32.603725049077148
 20
41.640152791003061
 30
0.0
 11
32.603725049077148
 21
41.640152791003061
 31
0.0
  0
LINE
  5
1520
  8
0
 62
     0
 10
29.825600049077149
 20
41.640152791003061
 30
0.0
 11
29.825600049077149
 21
41.640152791003061
 31
0.0
  0
LINE
  5
1521
  8
0
 62
     0
 10
13.15685004907715
 20
41.640152791003061
 30
0.0
 11
13.15685004907715
 21
41.640152791003061
 31
0.0
  0
LINE
  5
1522
  8
0
 62
     0
 10
10.378725049077151
 20
41.640152791003061
 30
0.0
 11
10.378725049077151
 21
41.640152791003061
 31
0.0
  0
LINE
  5
1523
  8
0
 62
     0
 10
7.6006000490771486
 20
41.640152791003061
 30
0.0
 11
7.6006000490771486
 21
41.640152791003061
 31
0.0
  0
LINE
  5
1524
  8
0
 62
     0
 10
4.8224750490771493
 20
41.640152791003061
 30
0.0
 11
4.8224750490771493
 21
41.640152791003061
 31
0.0
  0
LINE
  5
1525
  8
0
 62
     0
 10
2.0443500490771491
 20
41.640152791003061
 30
0.0
 11
2.0443500490771491
 21
41.640152791003061
 31
0.0
  0
LINE
  5
1526
  8
0
 62
     0
 10
25.65841254907717
 20
44.418277791003099
 30
0.0
 11
25.65841254907717
 21
44.418277791003099
 31
0.0
  0
LINE
  5
1527
  8
0
 62
     0
 10
22.88028754907717
 20
44.418277791003099
 30
0.0
 11
22.88028754907717
 21
44.418277791003099
 31
0.0
  0
LINE
  5
1528
  8
0
 62
     0
 10
20.102162549077171
 20
44.418277791003099
 30
0.0
 11
20.102162549077171
 21
44.418277791003099
 31
0.0
  0
LINE
  5
1529
  8
0
 62
     0
 10
17.324037549077168
 20
44.418277791003099
 30
0.0
 11
17.324037549077168
 21
44.418277791003099
 31
0.0
  0
LINE
  5
152A
  8
0
 62
     0
 10
42.327162549077187
 20
44.418277791003099
 30
0.0
 11
42.327162549077187
 21
44.418277791003099
 31
0.0
  0
LINE
  5
152B
  8
0
 62
     0
 10
39.549037549077191
 20
44.418277791003099
 30
0.0
 11
39.549037549077191
 21
44.418277791003099
 31
0.0
  0
LINE
  5
152C
  8
0
 62
     0
 10
36.770912549077188
 20
44.418277791003099
 30
0.0
 11
36.770912549077188
 21
44.418277791003099
 31
0.0
  0
LINE
  5
152D
  8
0
 62
     0
 10
33.992787549077192
 20
44.418277791003099
 30
0.0
 11
33.992787549077192
 21
44.418277791003099
 31
0.0
  0
LINE
  5
152E
  8
0
 62
     0
 10
31.214662549077179
 20
44.418277791003099
 30
0.0
 11
31.214662549077179
 21
44.418277791003099
 31
0.0
  0
LINE
  5
152F
  8
0
 62
     0
 10
28.43653754907718
 20
44.418277791003099
 30
0.0
 11
28.43653754907718
 21
44.418277791003099
 31
0.0
  0
LINE
  5
1530
  8
0
 62
     0
 10
14.54591254907718
 20
44.418277791003099
 30
0.0
 11
14.54591254907718
 21
44.418277791003099
 31
0.0
  0
LINE
  5
1531
  8
0
 62
     0
 10
11.76778754907718
 20
44.418277791003099
 30
0.0
 11
11.76778754907718
 21
44.418277791003099
 31
0.0
  0
LINE
  5
1532
  8
0
 62
     0
 10
8.9896625490771829
 20
44.418277791003099
 30
0.0
 11
8.9896625490771829
 21
44.418277791003099
 31
0.0
  0
LINE
  5
1533
  8
0
 62
     0
 10
6.2115375490771827
 20
44.418277791003099
 30
0.0
 11
6.2115375490771827
 21
44.418277791003099
 31
0.0
  0
LINE
  5
1534
  8
0
 62
     0
 10
3.433412549077183
 20
44.418277791003099
 30
0.0
 11
3.433412549077183
 21
44.418277791003099
 31
0.0
  0
LINE
  5
1535
  8
0
 62
     0
 10
0.6552875490771837
 20
44.418277791003099
 30
0.0
 11
0.6552875490771837
 21
44.418277791003099
 31
0.0
  0
LINE
  5
1536
  8
0
 62
     0
 10
27.047475049077178
 20
47.196402791003102
 30
0.0
 11
27.047475049077178
 21
47.196402791003102
 31
0.0
  0
LINE
  5
1537
  8
0
 62
     0
 10
24.269350049077179
 20
47.196402791003102
 30
0.0
 11
24.269350049077179
 21
47.196402791003102
 31
0.0
  0
LINE
  5
1538
  8
0
 62
     0
 10
21.49122504907718
 20
47.196402791003102
 30
0.0
 11
21.49122504907718
 21
47.196402791003102
 31
0.0
  0
LINE
  5
1539
  8
0
 62
     0
 10
18.71310004907718
 20
47.196402791003102
 30
0.0
 11
18.71310004907718
 21
47.196402791003102
 31
0.0
  0
LINE
  5
153A
  8
0
 62
     0
 10
15.934975049077179
 20
47.196402791003102
 30
0.0
 11
15.934975049077179
 21
47.196402791003102
 31
0.0
  0
LINE
  5
153B
  8
0
 62
     0
 10
38.159975049077183
 20
47.196402791003102
 30
0.0
 11
38.159975049077183
 21
47.196402791003102
 31
0.0
  0
LINE
  5
153C
  8
0
 62
     0
 10
35.38185004907718
 20
47.196402791003102
 30
0.0
 11
35.38185004907718
 21
47.196402791003102
 31
0.0
  0
LINE
  5
153D
  8
0
 62
     0
 10
32.603725049077177
 20
47.196402791003102
 30
0.0
 11
32.603725049077177
 21
47.196402791003102
 31
0.0
  0
LINE
  5
153E
  8
0
 62
     0
 10
29.825600049077181
 20
47.196402791003102
 30
0.0
 11
29.825600049077181
 21
47.196402791003102
 31
0.0
  0
LINE
  5
153F
  8
0
 62
     0
 10
13.15685004907716
 20
47.196402791003102
 30
0.0
 11
13.15685004907716
 21
47.196402791003102
 31
0.0
  0
LINE
  5
1540
  8
0
 62
     0
 10
10.378725049077159
 20
47.196402791003102
 30
0.0
 11
10.378725049077159
 21
47.196402791003102
 31
0.0
  0
LINE
  5
1541
  8
0
 62
     0
 10
7.6006000490771646
 20
47.196402791003102
 30
0.0
 11
7.6006000490771646
 21
47.196402791003102
 31
0.0
  0
LINE
  5
1542
  8
0
 62
     0
 10
4.8224750490771662
 20
47.196402791003102
 30
0.0
 11
4.8224750490771662
 21
47.196402791003102
 31
0.0
  0
LINE
  5
1543
  8
0
 62
     0
 10
25.65841254907717
 20
49.974527791003077
 30
0.0
 11
25.65841254907717
 21
49.974527791003077
 31
0.0
  0
LINE
  5
1544
  8
0
 62
     0
 10
22.88028754907717
 20
49.974527791003077
 30
0.0
 11
22.88028754907717
 21
49.974527791003077
 31
0.0
  0
LINE
  5
1545
  8
0
 62
     0
 10
20.102162549077171
 20
49.974527791003077
 30
0.0
 11
20.102162549077171
 21
49.974527791003077
 31
0.0
  0
LINE
  5
1546
  8
0
 62
     0
 10
17.324037549077168
 20
49.974527791003077
 30
0.0
 11
17.324037549077168
 21
49.974527791003077
 31
0.0
  0
LINE
  5
1547
  8
0
 62
     0
 10
36.77091254907716
 20
49.974527791003077
 30
0.0
 11
36.77091254907716
 21
49.974527791003077
 31
0.0
  0
LINE
  5
1548
  8
0
 62
     0
 10
33.992787549077157
 20
49.974527791003077
 30
0.0
 11
33.992787549077157
 21
49.974527791003077
 31
0.0
  0
LINE
  5
1549
  8
0
 62
     0
 10
31.214662549077161
 20
49.974527791003077
 30
0.0
 11
31.214662549077161
 21
49.974527791003077
 31
0.0
  0
LINE
  5
154A
  8
0
 62
     0
 10
28.436537549077158
 20
49.974527791003077
 30
0.0
 11
28.436537549077158
 21
49.974527791003077
 31
0.0
  0
LINE
  5
154B
  8
0
 62
     0
 10
14.54591254907716
 20
49.974527791003077
 30
0.0
 11
14.54591254907716
 21
49.974527791003077
 31
0.0
  0
LINE
  5
154C
  8
0
 62
     0
 10
11.767787549077161
 20
49.974527791003077
 30
0.0
 11
11.767787549077161
 21
49.974527791003077
 31
0.0
  0
LINE
  5
154D
  8
0
 62
     0
 10
8.9896625490771598
 20
49.974527791003077
 30
0.0
 11
8.9896625490771598
 21
49.974527791003077
 31
0.0
  0
LINE
  5
154E
  8
0
 62
     0
 10
6.2115375490771596
 20
49.974527791003077
 30
0.0
 11
6.2115375490771596
 21
49.974527791003077
 31
0.0
  0
LINE
  5
154F
  8
0
 62
     0
 10
27.04747504907715
 20
52.752652791003072
 30
0.0
 11
27.04747504907715
 21
52.752652791003072
 31
0.0
  0
LINE
  5
1550
  8
0
 62
     0
 10
24.269350049077151
 20
52.752652791003072
 30
0.0
 11
24.269350049077151
 21
52.752652791003072
 31
0.0
  0
LINE
  5
1551
  8
0
 62
     0
 10
21.491225049077151
 20
52.752652791003072
 30
0.0
 11
21.491225049077151
 21
52.752652791003072
 31
0.0
  0
LINE
  5
1552
  8
0
 62
     0
 10
18.713100049077148
 20
52.752652791003072
 30
0.0
 11
18.713100049077148
 21
52.752652791003072
 31
0.0
  0
LINE
  5
1553
  8
0
 62
     0
 10
15.934975049077149
 20
52.752652791003072
 30
0.0
 11
15.934975049077149
 21
52.752652791003072
 31
0.0
  0
LINE
  5
1554
  8
0
 62
     0
 10
38.159975049077147
 20
52.752652791003072
 30
0.0
 11
38.159975049077147
 21
52.752652791003072
 31
0.0
  0
LINE
  5
1555
  8
0
 62
     0
 10
35.381850049077151
 20
52.752652791003072
 30
0.0
 11
35.381850049077151
 21
52.752652791003072
 31
0.0
  0
LINE
  5
1556
  8
0
 62
     0
 10
32.603725049077148
 20
52.752652791003072
 30
0.0
 11
32.603725049077148
 21
52.752652791003072
 31
0.0
  0
LINE
  5
1557
  8
0
 62
     0
 10
29.825600049077149
 20
52.752652791003072
 30
0.0
 11
29.825600049077149
 21
52.752652791003072
 31
0.0
  0
LINE
  5
1558
  8
0
 62
     0
 10
13.15685004907716
 20
52.752652791003072
 30
0.0
 11
13.15685004907716
 21
52.752652791003072
 31
0.0
  0
LINE
  5
1559
  8
0
 62
     0
 10
10.378725049077159
 20
52.752652791003072
 30
0.0
 11
10.378725049077159
 21
52.752652791003072
 31
0.0
  0
LINE
  5
155A
  8
0
 62
     0
 10
7.6006000490771646
 20
52.752652791003072
 30
0.0
 11
7.6006000490771646
 21
52.752652791003072
 31
0.0
  0
LINE
  5
155B
  8
0
 62
     0
 10
4.8224750490771662
 20
52.752652791003072
 30
0.0
 11
4.8224750490771662
 21
52.752652791003072
 31
0.0
  0
LINE
  5
155C
  8
0
 62
     0
 10
25.658412549077141
 20
55.530777791003061
 30
0.0
 11
25.658412549077141
 21
55.530777791003061
 31
0.0
  0
LINE
  5
155D
  8
0
 62
     0
 10
22.880287549077138
 20
55.530777791003061
 30
0.0
 11
22.880287549077138
 21
55.530777791003061
 31
0.0
  0
LINE
  5
155E
  8
0
 62
     0
 10
20.102162549077139
 20
55.530777791003061
 30
0.0
 11
20.102162549077139
 21
55.530777791003061
 31
0.0
  0
LINE
  5
155F
  8
0
 62
     0
 10
17.32403754907714
 20
55.530777791003061
 30
0.0
 11
17.32403754907714
 21
55.530777791003061
 31
0.0
  0
LINE
  5
1560
  8
0
 62
     0
 10
36.77091254907716
 20
55.530777791003061
 30
0.0
 11
36.77091254907716
 21
55.530777791003061
 31
0.0
  0
LINE
  5
1561
  8
0
 62
     0
 10
33.992787549077157
 20
55.530777791003061
 30
0.0
 11
33.992787549077157
 21
55.530777791003061
 31
0.0
  0
LINE
  5
1562
  8
0
 62
     0
 10
31.214662549077161
 20
55.530777791003061
 30
0.0
 11
31.214662549077161
 21
55.530777791003061
 31
0.0
  0
LINE
  5
1563
  8
0
 62
     0
 10
28.436537549077158
 20
55.530777791003061
 30
0.0
 11
28.436537549077158
 21
55.530777791003061
 31
0.0
  0
LINE
  5
1564
  8
0
 62
     0
 10
14.54591254907716
 20
55.530777791003061
 30
0.0
 11
14.54591254907716
 21
55.530777791003061
 31
0.0
  0
LINE
  5
1565
  8
0
 62
     0
 10
11.767787549077161
 20
55.530777791003061
 30
0.0
 11
11.767787549077161
 21
55.530777791003061
 31
0.0
  0
LINE
  5
1566
  8
0
 62
     0
 10
8.9896625490771598
 20
55.530777791003061
 30
0.0
 11
8.9896625490771598
 21
55.530777791003061
 31
0.0
  0
LINE
  5
1567
  8
0
 62
     0
 10
6.2115375490771596
 20
55.530777791003061
 30
0.0
 11
6.2115375490771596
 21
55.530777791003061
 31
0.0
  0
LINE
  5
1568
  8
0
 62
     0
 10
27.047475049077178
 20
58.308902791003099
 30
0.0
 11
27.047475049077178
 21
58.308902791003099
 31
0.0
  0
LINE
  5
1569
  8
0
 62
     0
 10
24.269350049077179
 20
58.308902791003099
 30
0.0
 11
24.269350049077179
 21
58.308902791003099
 31
0.0
  0
LINE
  5
156A
  8
0
 62
     0
 10
21.49122504907718
 20
58.308902791003099
 30
0.0
 11
21.49122504907718
 21
58.308902791003099
 31
0.0
  0
LINE
  5
156B
  8
0
 62
     0
 10
18.71310004907718
 20
58.308902791003099
 30
0.0
 11
18.71310004907718
 21
58.308902791003099
 31
0.0
  0
LINE
  5
156C
  8
0
 62
     0
 10
15.934975049077179
 20
58.308902791003099
 30
0.0
 11
15.934975049077179
 21
58.308902791003099
 31
0.0
  0
LINE
  5
156D
  8
0
 62
     0
 10
38.159975049077183
 20
58.308902791003099
 30
0.0
 11
38.159975049077183
 21
58.308902791003099
 31
0.0
  0
LINE
  5
156E
  8
0
 62
     0
 10
35.38185004907718
 20
58.308902791003099
 30
0.0
 11
35.38185004907718
 21
58.308902791003099
 31
0.0
  0
LINE
  5
156F
  8
0
 62
     0
 10
32.603725049077177
 20
58.308902791003099
 30
0.0
 11
32.603725049077177
 21
58.308902791003099
 31
0.0
  0
LINE
  5
1570
  8
0
 62
     0
 10
29.825600049077181
 20
58.308902791003099
 30
0.0
 11
29.825600049077181
 21
58.308902791003099
 31
0.0
  0
LINE
  5
1571
  8
0
 62
     0
 10
13.15685004907716
 20
58.308902791003099
 30
0.0
 11
13.15685004907716
 21
58.308902791003099
 31
0.0
  0
LINE
  5
1572
  8
0
 62
     0
 10
10.378725049077159
 20
58.308902791003099
 30
0.0
 11
10.378725049077159
 21
58.308902791003099
 31
0.0
  0
LINE
  5
1573
  8
0
 62
     0
 10
7.6006000490771646
 20
58.308902791003099
 30
0.0
 11
7.6006000490771646
 21
58.308902791003099
 31
0.0
  0
LINE
  5
1574
  8
0
 62
     0
 10
4.8224750490771662
 20
58.308902791003099
 30
0.0
 11
4.8224750490771662
 21
58.308902791003099
 31
0.0
  0
LINE
  5
1575
  8
0
 62
     0
 10
25.65841254907717
 20
61.087027791003088
 30
0.0
 11
25.65841254907717
 21
61.087027791003088
 31
0.0
  0
LINE
  5
1576
  8
0
 62
     0
 10
22.88028754907717
 20
61.087027791003088
 30
0.0
 11
22.88028754907717
 21
61.087027791003088
 31
0.0
  0
LINE
  5
1577
  8
0
 62
     0
 10
20.102162549077171
 20
61.087027791003088
 30
0.0
 11
20.102162549077171
 21
61.087027791003088
 31
0.0
  0
LINE
  5
1578
  8
0
 62
     0
 10
17.324037549077168
 20
61.087027791003088
 30
0.0
 11
17.324037549077168
 21
61.087027791003088
 31
0.0
  0
LINE
  5
1579
  8
0
 62
     0
 10
36.77091254907716
 20
61.087027791003088
 30
0.0
 11
36.77091254907716
 21
61.087027791003088
 31
0.0
  0
LINE
  5
157A
  8
0
 62
     0
 10
33.992787549077157
 20
61.087027791003088
 30
0.0
 11
33.992787549077157
 21
61.087027791003088
 31
0.0
  0
LINE
  5
157B
  8
0
 62
     0
 10
31.214662549077161
 20
61.087027791003088
 30
0.0
 11
31.214662549077161
 21
61.087027791003088
 31
0.0
  0
LINE
  5
157C
  8
0
 62
     0
 10
28.436537549077158
 20
61.087027791003088
 30
0.0
 11
28.436537549077158
 21
61.087027791003088
 31
0.0
  0
LINE
  5
157D
  8
0
 62
     0
 10
14.54591254907716
 20
61.087027791003088
 30
0.0
 11
14.54591254907716
 21
61.087027791003088
 31
0.0
  0
LINE
  5
157E
  8
0
 62
     0
 10
11.767787549077161
 20
61.087027791003088
 30
0.0
 11
11.767787549077161
 21
61.087027791003088
 31
0.0
  0
LINE
  5
157F
  8
0
 62
     0
 10
8.9896625490771598
 20
61.087027791003088
 30
0.0
 11
8.9896625490771598
 21
61.087027791003088
 31
0.0
  0
LINE
  5
1580
  8
0
 62
     0
 10
6.2115375490771596
 20
61.087027791003088
 30
0.0
 11
6.2115375490771596
 21
61.087027791003088
 31
0.0
  0
LINE
  5
1581
  8
0
 62
     0
 10
27.04747504907715
 20
63.865152791003077
 30
0.0
 11
27.04747504907715
 21
63.865152791003077
 31
0.0
  0
LINE
  5
1582
  8
0
 62
     0
 10
24.269350049077151
 20
63.865152791003077
 30
0.0
 11
24.269350049077151
 21
63.865152791003077
 31
0.0
  0
LINE
  5
1583
  8
0
 62
     0
 10
21.491225049077151
 20
63.865152791003077
 30
0.0
 11
21.491225049077151
 21
63.865152791003077
 31
0.0
  0
LINE
  5
1584
  8
0
 62
     0
 10
18.713100049077148
 20
63.865152791003077
 30
0.0
 11
18.713100049077148
 21
63.865152791003077
 31
0.0
  0
LINE
  5
1585
  8
0
 62
     0
 10
15.934975049077149
 20
63.865152791003077
 30
0.0
 11
15.934975049077149
 21
63.865152791003077
 31
0.0
  0
LINE
  5
1586
  8
0
 62
     0
 10
38.159975049077147
 20
63.865152791003077
 30
0.0
 11
38.159975049077147
 21
63.865152791003077
 31
0.0
  0
LINE
  5
1587
  8
0
 62
     0
 10
35.381850049077151
 20
63.865152791003077
 30
0.0
 11
35.381850049077151
 21
63.865152791003077
 31
0.0
  0
LINE
  5
1588
  8
0
 62
     0
 10
32.603725049077148
 20
63.865152791003077
 30
0.0
 11
32.603725049077148
 21
63.865152791003077
 31
0.0
  0
LINE
  5
1589
  8
0
 62
     0
 10
29.825600049077149
 20
63.865152791003077
 30
0.0
 11
29.825600049077149
 21
63.865152791003077
 31
0.0
  0
LINE
  5
158A
  8
0
 62
     0
 10
13.15685004907716
 20
63.865152791003077
 30
0.0
 11
13.15685004907716
 21
63.865152791003077
 31
0.0
  0
LINE
  5
158B
  8
0
 62
     0
 10
10.378725049077159
 20
63.865152791003077
 30
0.0
 11
10.378725049077159
 21
63.865152791003077
 31
0.0
  0
LINE
  5
158C
  8
0
 62
     0
 10
7.6006000490771646
 20
63.865152791003077
 30
0.0
 11
7.6006000490771646
 21
63.865152791003077
 31
0.0
  0
LINE
  5
158D
  8
0
 62
     0
 10
4.8224750490771662
 20
63.865152791003077
 30
0.0
 11
4.8224750490771662
 21
63.865152791003077
 31
0.0
  0
LINE
  5
158E
  8
0
 62
     0
 10
25.658412549077141
 20
66.643277791003072
 30
0.0
 11
25.658412549077141
 21
66.643277791003072
 31
0.0
  0
LINE
  5
158F
  8
0
 62
     0
 10
22.880287549077138
 20
66.643277791003072
 30
0.0
 11
22.880287549077138
 21
66.643277791003072
 31
0.0
  0
LINE
  5
1590
  8
0
 62
     0
 10
20.102162549077139
 20
66.643277791003072
 30
0.0
 11
20.102162549077139
 21
66.643277791003072
 31
0.0
  0
LINE
  5
1591
  8
0
 62
     0
 10
17.32403754907714
 20
66.643277791003072
 30
0.0
 11
17.32403754907714
 21
66.643277791003072
 31
0.0
  0
LINE
  5
1592
  8
0
 62
     0
 10
36.77091254907716
 20
66.643277791003072
 30
0.0
 11
36.77091254907716
 21
66.643277791003072
 31
0.0
  0
LINE
  5
1593
  8
0
 62
     0
 10
33.992787549077157
 20
66.643277791003072
 30
0.0
 11
33.992787549077157
 21
66.643277791003072
 31
0.0
  0
LINE
  5
1594
  8
0
 62
     0
 10
31.214662549077161
 20
66.643277791003072
 30
0.0
 11
31.214662549077161
 21
66.643277791003072
 31
0.0
  0
LINE
  5
1595
  8
0
 62
     0
 10
28.436537549077158
 20
66.643277791003072
 30
0.0
 11
28.436537549077158
 21
66.643277791003072
 31
0.0
  0
LINE
  5
1596
  8
0
 62
     0
 10
14.54591254907716
 20
66.643277791003072
 30
0.0
 11
14.54591254907716
 21
66.643277791003072
 31
0.0
  0
LINE
  5
1597
  8
0
 62
     0
 10
11.767787549077161
 20
66.643277791003072
 30
0.0
 11
11.767787549077161
 21
66.643277791003072
 31
0.0
  0
LINE
  5
1598
  8
0
 62
     0
 10
8.9896625490771598
 20
66.643277791003072
 30
0.0
 11
8.9896625490771598
 21
66.643277791003072
 31
0.0
  0
LINE
  5
1599
  8
0
 62
     0
 10
6.2115375490771596
 20
66.643277791003072
 30
0.0
 11
6.2115375490771596
 21
66.643277791003072
 31
0.0
  0
ENDBLK
  5
159B
  8
0
  0
BLOCK
  8
0
  2
*U46
 70
     1
 10
0.0
 20
0.0
 30
0.0
  3
*U46
  1

  0
TEXT
  5
159D
  8
0
 62
     2
 10
17.750000002984859
 20
77.124925948734443
 30
0.0
 40
2.999999997612111
  1
43.3
  7
BYGG-024364$0$ISO
  0
ENDBLK
  5
159F
  8
0
  0
BLOCK
  8
0
  2
*U47
 70
     1
 10
0.0
 20
0.0
 30
0.0
  3
*U47
  1

  0
TEXT
  5
15A1
  8
0
 62
     2
 10
-5.5843227993721474
 20
53.95000000262668
 30
0.0
 40
2.999999997612111
  1
21.5
 50
90.0
  7
BYGG-024364$0$ISO
  0
ENDBLK
  5
15A3
  8
0
  0
BLOCK
  8
0
  2
*U48
 70
     1
 10
0.0
 20
0.0
 30
0.0
  3
*U48
  1

  0
TEXT
  5
15A5
  8
0
 62
     2
 10
-5.5843227993721403
 20
3.4500000026266782
 30
0.0
 40
2.999999997612111
  1
13.5
 50
90.0
  7
BYGG-024364$0$ISO
  0
ENDBLK
  5
15A7
  8
0
  0
BLOCK
  8
0
  2
*U49
 70
     1
 10
0.0
 20
0.0
 30
0.0
  3
*U49
  1

  0
TEXT
  5
15A9
  8
0
 62
     2
 10
-12.365229340811389
 20
31.899999999999999
 30
0.0
 40
3.0
  1
68
 50
90.0
  7
BYGG-024364$0$ISO
  0
ENDBLK
  5
15AB
  8
0
  0
BLOCK
  8
0
  2
*U50
 70
     1
 10
0.0
 20
0.0
 30
0.0
  3
*U50
  1

  0
TEXT
  5
15AD
  8
0
 62
     2
 10
11.64999999999981
 20
-9.0914471506167729
 30
0.0
 40
3.0
  1
5.1
  7
BYGG-024364$0$ISO
  0
ENDBLK
  5
15AF
  8
0
  0
BLOCK
  8
0
  2
*U51
 70
     1
 10
0.0
 20
0.0
 30
0.0
  3
*U51
  1

  0
TEXT
  5
15B1
  8
0
 62
     2
 10
49.849999999999987
 20
-9.0914471506167729
 30
0.0
 40
3.0
  1
5.1
  7
BYGG-024364$0$ISO
  0
ENDBLK
  5
15B3
  8
0
  0
BLOCK
  8
0
  2
*U52
 70
     1
 10
0.0
 20
0.0
 30
0.0
  3
*U52
  1

  0
TEXT
  5
15CF
  8
0
 10
1.702857514213689
 20
26.742526116476121
 30
0.0
 40
3.0
  1
47.6
 50
90.0
  7
BYGG-014357$0$ISO
  0
ENDBLK
  5
15D1
  8
0
  0
BLOCK
  8
0
  2
*U53
 70
     1
 10
0.0
 20
0.0
 30
0.0
  3
*U53
  1

  0
TEXT
  5
15D3
  8
0
 62
     2
 10
157.01002171129269
 20
26.881873159252841
 30
0.0
 40
2.999999997612111
  1
43.3
 50
90.0
  7
BYGG-024364$0$ISO
  0
ENDBLK
  5
15D5
  8
0
  0
BLOCK
  8
0
  2
*U54
 70
     1
 10
0.0
 20
0.0
 30
0.0
  3
*U54
  1

  0
TEXT
  5
15D7
  8
0
 62
     2
 10
135.83509576359299
 20
57.716195955640103
 30
0.0
 40
2.999999997612111
  1
21.5
  7
BYGG-024364$0$ISO
  0
ENDBLK
  5
15D9
  8
0
  0
BLOCK
  8
0
  2
*U55
 70
     1
 10
0.0
 20
0.0
 30
0.0
  3
*U55
  1

  0
TEXT
  5
15DB
  8
0
 62
     2
 10
85.335095763593031
 20
57.716195955640103
 30
0.0
 40
2.999999997612111
  1
13.5
  7
BYGG-024364$0$ISO
  0
ENDBLK
  5
15DD
  8
0
  0
BLOCK
  8
0
  2
*U56
 70
     1
 10
0.0
 20
0.0
 30
0.0
  3
*U56
  1

  0
TEXT
  5
15DF
  8
0
 62
     2
 10
113.7850957609663
 20
64.497102497079368
 30
0.0
 40
3.0
  1
68
  7
BYGG-024364$0$ISO
  0
ENDBLK
  5
15E1
  8
0
  0
BLOCK
  8
0
  2
*U57
 70
     1
 10
0.0
 20
0.0
 30
0.0
  3
*U57
  1

  0
TEXT
  5
15E3
  8
0
 62
     2
 10
70.793648610349564
 20
35.981873156268172
 30
0.0
 40
3.0
  1
5.1
 50
90.0
  7
BYGG-024364$0$ISO
  0
ENDBLK
  5
15E5
  8
0
  0
BLOCK
  8
0
  2
*U58
 70
     1
 10
0.0
 20
0.0
 30
0.0
  3
*U58
  1

  0
TEXT
  5
15E7
  8
0
 62
     2
 10
70.793648610349564
 20
-2.2181268437320072
 30
0.0
 40
3.0
  1
5.1
 50
90.0
  7
BYGG-024364$0$ISO
  0
ENDBLK
  5
15E9
  8
0
  0
BLOCK
  8
0
  2
*U59
 70
     1
 10
0.0
 20
0.0
 30
0.0
  3
*U59
  1

  0
TEXT
  5
15EB
  8
0
 62
     2
 10
118.39727372708251
 20
66.979030074147545
 30
0.0
 40
6.0
  1
100
  7
BYGG-01482201$0$ISO
  0
ENDBLK
  5
15ED
  8
0
  0
BLOCK
  8
0
  2
*U60
 70
     1
 10
0.0
 20
0.0
 30
0.0
  3
*U60
  1

  0
TEXT
  5
15EF
  8
0
 62
     2
 10
183.6090393659737
 20
26.364573360570802
 30
0.0
 40
6.0
  1
50
 50
90.0
  7
BYGG-01482201$0$ISO
  0
ENDBLK
  5
15F1
  8
0
  0
BLOCK
  8
0
  2
*U61
 70
     1
 10
0.0
 20
0.0
 30
0.0
  3
*U61
  1

  0
TEXT
  5
19AD
  8
0
 62
     2
 10
9.0465926224206328
 20
65.370255580637192
 30
0.0
 40
3.0
  1
18,5
  7
BYGG-014279$0$ISO
  0
ENDBLK
  5
19AF
  8
0
  0
BLOCK
  8
0
  2
*U62
 70
     1
 10
0.0
 20
0.0
 30
0.0
  3
*U62
  1

  0
TEXT
  5
19B1
  8
0
 62
     2
 10
-7.236502082856191
 20
28.734258399940341
 30
0.0
 40
3.0
  1
50
 50
90.0
  7
BYGG-014279$0$ISO
  0
ENDBLK
  5
19B3
  8
0
  0
BLOCK
  8
0
  2
*X63
 70
     1
 10
0.0
 20
0.0
 30
0.0
  3
*X63
  1

  0
LINE
  5
19DD
  8
0
 62
     0
 10
84.631498551969429
 20
25.084398107190822
 30
0.0
 11
84.631498551969429
 21
25.084398107190822
 31
0.0
  0
LINE
  5
19DE
  8
0
 62
     0
 10
84.631498551969429
 20
27.862523107190821
 30
0.0
 11
84.631498551969429
 21
27.862523107190821
 31
0.0
  0
LINE
  5
19DF
  8
0
 62
     0
 10
84.631498551969429
 20
30.64064810719082
 30
0.0
 11
84.631498551969429
 21
30.64064810719082
 31
0.0
  0
LINE
  5
19E0
  8
0
 62
     0
 10
84.631498551969429
 20
33.418773107190823
 30
0.0
 11
84.631498551969429
 21
33.418773107190823
 31
0.0
  0
LINE
  5
19E1
  8
0
 62
     0
 10
84.631498551969429
 20
36.196898107190819
 30
0.0
 11
84.631498551969429
 21
36.196898107190819
 31
0.0
  0
LINE
  5
19E2
  8
0
 62
     0
 10
84.631498551969429
 20
13.971898107190849
 30
0.0
 11
84.631498551969429
 21
13.971898107190849
 31
0.0
  0
LINE
  5
19E3
  8
0
 62
     0
 10
84.631498551969429
 20
16.750023107190849
 30
0.0
 11
84.631498551969429
 21
16.750023107190849
 31
0.0
  0
LINE
  5
19E4
  8
0
 62
     0
 10
84.631498551969429
 20
19.528148107190852
 30
0.0
 11
84.631498551969429
 21
19.528148107190852
 31
0.0
  0
LINE
  5
19E5
  8
0
 62
     0
 10
84.631498551969429
 20
22.306273107190851
 30
0.0
 11
84.631498551969429
 21
22.306273107190851
 31
0.0
  0
LINE
  5
19E6
  8
0
 62
     0
 10
84.631498551969429
 20
38.975023107190822
 30
0.0
 11
84.631498551969429
 21
38.975023107190822
 31
0.0
  0
LINE
  5
19E7
  8
0
 62
     0
 10
84.631498551969429
 20
41.753148107190817
 30
0.0
 11
84.631498551969429
 21
41.753148107190817
 31
0.0
  0
LINE
  5
19E8
  8
0
 62
     0
 10
84.631498551969429
 20
44.53127310719082
 30
0.0
 11
84.631498551969429
 21
44.53127310719082
 31
0.0
  0
LINE
  5
19E9
  8
0
 62
     0
 10
84.631498551969429
 20
47.30939810719083
 30
0.0
 11
84.631498551969429
 21
47.30939810719083
 31
0.0
  0
LINE
  5
19EA
  8
0
 62
     0
 10
87.409623551969403
 20
26.473460607190798
 30
0.0
 11
87.409623551969403
 21
26.473460607190798
 31
0.0
  0
LINE
  5
19EB
  8
0
 62
     0
 10
87.409623551969403
 20
29.251585607190801
 30
0.0
 11
87.409623551969403
 21
29.251585607190801
 31
0.0
  0
LINE
  5
19EC
  8
0
 62
     0
 10
87.409623551969403
 20
32.029710607190793
 30
0.0
 11
87.409623551969403
 21
32.029710607190793
 31
0.0
  0
LINE
  5
19ED
  8
0
 62
     0
 10
87.409623551969403
 20
34.807835607190803
 30
0.0
 11
87.409623551969403
 21
34.807835607190803
 31
0.0
  0
LINE
  5
19EE
  8
0
 62
     0
 10
87.409623551969403
 20
15.360960607190821
 30
0.0
 11
87.409623551969403
 21
15.360960607190821
 31
0.0
  0
LINE
  5
19EF
  8
0
 62
     0
 10
87.409623551969403
 20
18.139085607190822
 30
0.0
 11
87.409623551969403
 21
18.139085607190822
 31
0.0
  0
LINE
  5
19F0
  8
0
 62
     0
 10
87.409623551969403
 20
20.917210607190821
 30
0.0
 11
87.409623551969403
 21
20.917210607190821
 31
0.0
  0
LINE
  5
19F1
  8
0
 62
     0
 10
87.409623551969403
 20
23.69533560719082
 30
0.0
 11
87.409623551969403
 21
23.69533560719082
 31
0.0
  0
LINE
  5
19F2
  8
0
 62
     0
 10
87.409623551969403
 20
37.585960607190799
 30
0.0
 11
87.409623551969403
 21
37.585960607190799
 31
0.0
  0
LINE
  5
19F3
  8
0
 62
     0
 10
87.409623551969403
 20
40.364085607190802
 30
0.0
 11
87.409623551969403
 21
40.364085607190802
 31
0.0
  0
LINE
  5
19F4
  8
0
 62
     0
 10
87.409623551969403
 20
43.142210607190798
 30
0.0
 11
87.409623551969403
 21
43.142210607190798
 31
0.0
  0
LINE
  5
19F5
  8
0
 62
     0
 10
87.409623551969403
 20
45.9203356071908
 30
0.0
 11
87.409623551969403
 21
45.9203356071908
 31
0.0
  0
LINE
  5
19F6
  8
0
 62
     0
 10
90.187748551969406
 20
25.08439810719085
 30
0.0
 11
90.187748551969406
 21
25.08439810719085
 31
0.0
  0
LINE
  5
19F7
  8
0
 62
     0
 10
90.187748551969406
 20
27.862523107190849
 30
0.0
 11
90.187748551969406
 21
27.862523107190849
 31
0.0
  0
LINE
  5
19F8
  8
0
 62
     0
 10
90.187748551969406
 20
30.640648107190849
 30
0.0
 11
90.187748551969406
 21
30.640648107190849
 31
0.0
  0
LINE
  5
19F9
  8
0
 62
     0
 10
90.187748551969406
 20
33.418773107190837
 30
0.0
 11
90.187748551969406
 21
33.418773107190837
 31
0.0
  0
LINE
  5
19FA
  8
0
 62
     0
 10
90.187748551969406
 20
36.196898107190847
 30
0.0
 11
90.187748551969406
 21
36.196898107190847
 31
0.0
  0
LINE
  5
19FB
  8
0
 62
     0
 10
90.187748551969406
 20
13.971898107190849
 30
0.0
 11
90.187748551969406
 21
13.971898107190849
 31
0.0
  0
LINE
  5
19FC
  8
0
 62
     0
 10
90.187748551969406
 20
16.750023107190849
 30
0.0
 11
90.187748551969406
 21
16.750023107190849
 31
0.0
  0
LINE
  5
19FD
  8
0
 62
     0
 10
90.187748551969406
 20
19.528148107190852
 30
0.0
 11
90.187748551969406
 21
19.528148107190852
 31
0.0
  0
LINE
  5
19FE
  8
0
 62
     0
 10
90.187748551969406
 20
22.306273107190851
 30
0.0
 11
90.187748551969406
 21
22.306273107190851
 31
0.0
  0
LINE
  5
19FF
  8
0
 62
     0
 10
90.187748551969406
 20
38.975023107190822
 30
0.0
 11
90.187748551969406
 21
38.975023107190822
 31
0.0
  0
LINE
  5
1A00
  8
0
 62
     0
 10
90.187748551969406
 20
41.753148107190817
 30
0.0
 11
90.187748551969406
 21
41.753148107190817
 31
0.0
  0
LINE
  5
1A01
  8
0
 62
     0
 10
90.187748551969406
 20
44.53127310719082
 30
0.0
 11
90.187748551969406
 21
44.53127310719082
 31
0.0
  0
LINE
  5
1A02
  8
0
 62
     0
 10
90.187748551969406
 20
47.30939810719083
 30
0.0
 11
90.187748551969406
 21
47.30939810719083
 31
0.0
  0
LINE
  5
1A03
  8
0
 62
     0
 10
92.965873551969395
 20
26.47346060719082
 30
0.0
 11
92.965873551969395
 21
26.47346060719082
 31
0.0
  0
LINE
  5
1A04
  8
0
 62
     0
 10
92.965873551969395
 20
29.251585607190819
 30
0.0
 11
92.965873551969395
 21
29.251585607190819
 31
0.0
  0
LINE
  5
1A05
  8
0
 62
     0
 10
92.965873551969395
 20
32.029710607190822
 30
0.0
 11
92.965873551969395
 21
32.029710607190822
 31
0.0
  0
LINE
  5
1A06
  8
0
 62
     0
 10
92.965873551969395
 20
34.807835607190817
 30
0.0
 11
92.965873551969395
 21
34.807835607190817
 31
0.0
  0
LINE
  5
1A07
  8
0
 62
     0
 10
92.965873551969395
 20
15.360960607190821
 30
0.0
 11
92.965873551969395
 21
15.360960607190821
 31
0.0
  0
LINE
  5
1A08
  8
0
 62
     0
 10
92.965873551969395
 20
18.139085607190822
 30
0.0
 11
92.965873551969395
 21
18.139085607190822
 31
0.0
  0
LINE
  5
1A09
  8
0
 62
     0
 10
92.965873551969395
 20
20.917210607190821
 30
0.0
 11
92.965873551969395
 21
20.917210607190821
 31
0.0
  0
LINE
  5
1A0A
  8
0
 62
     0
 10
92.965873551969395
 20
23.69533560719082
 30
0.0
 11
92.965873551969395
 21
23.69533560719082
 31
0.0
  0
LINE
  5
1A0B
  8
0
 62
     0
 10
92.965873551969395
 20
37.585960607190799
 30
0.0
 11
92.965873551969395
 21
37.585960607190799
 31
0.0
  0
LINE
  5
1A0C
  8
0
 62
     0
 10
92.965873551969395
 20
40.364085607190802
 30
0.0
 11
92.965873551969395
 21
40.364085607190802
 31
0.0
  0
LINE
  5
1A0D
  8
0
 62
     0
 10
92.965873551969395
 20
43.142210607190798
 30
0.0
 11
92.965873551969395
 21
43.142210607190798
 31
0.0
  0
LINE
  5
1A0E
  8
0
 62
     0
 10
92.965873551969395
 20
45.9203356071908
 30
0.0
 11
92.965873551969395
 21
45.9203356071908
 31
0.0
  0
LINE
  5
1A0F
  8
0
 62
     0
 10
95.743998551969383
 20
25.08439810719085
 30
0.0
 11
95.743998551969383
 21
25.08439810719085
 31
0.0
  0
LINE
  5
1A10
  8
0
 62
     0
 10
95.743998551969383
 20
27.862523107190849
 30
0.0
 11
95.743998551969383
 21
27.862523107190849
 31
0.0
  0
LINE
  5
1A11
  8
0
 62
     0
 10
95.743998551969383
 20
30.640648107190849
 30
0.0
 11
95.743998551969383
 21
30.640648107190849
 31
0.0
  0
LINE
  5
1A12
  8
0
 62
     0
 10
95.743998551969383
 20
33.418773107190837
 30
0.0
 11
95.743998551969383
 21
33.418773107190837
 31
0.0
  0
LINE
  5
1A13
  8
0
 62
     0
 10
95.743998551969383
 20
36.196898107190847
 30
0.0
 11
95.743998551969383
 21
36.196898107190847
 31
0.0
  0
LINE
  5
1A14
  8
0
 62
     0
 10
95.743998551969383
 20
11.19377310719085
 30
0.0
 11
95.743998551969383
 21
11.19377310719085
 31
0.0
  0
LINE
  5
1A15
  8
0
 62
     0
 10
95.743998551969383
 20
13.971898107190849
 30
0.0
 11
95.743998551969383
 21
13.971898107190849
 31
0.0
  0
LINE
  5
1A16
  8
0
 62
     0
 10
95.743998551969383
 20
16.750023107190849
 30
0.0
 11
95.743998551969383
 21
16.750023107190849
 31
0.0
  0
LINE
  5
1A17
  8
0
 62
     0
 10
95.743998551969383
 20
19.528148107190852
 30
0.0
 11
95.743998551969383
 21
19.528148107190852
 31
0.0
  0
LINE
  5
1A18
  8
0
 62
     0
 10
95.743998551969383
 20
22.306273107190851
 30
0.0
 11
95.743998551969383
 21
22.306273107190851
 31
0.0
  0
LINE
  5
1A19
  8
0
 62
     0
 10
95.743998551969383
 20
38.975023107190829
 30
0.0
 11
95.743998551969383
 21
38.975023107190829
 31
0.0
  0
LINE
  5
1A1A
  8
0
 62
     0
 10
95.743998551969383
 20
41.753148107190839
 30
0.0
 11
95.743998551969383
 21
41.753148107190839
 31
0.0
  0
LINE
  5
1A1B
  8
0
 62
     0
 10
95.743998551969383
 20
44.531273107190842
 30
0.0
 11
95.743998551969383
 21
44.531273107190842
 31
0.0
  0
LINE
  5
1A1C
  8
0
 62
     0
 10
95.743998551969383
 20
47.309398107190837
 30
0.0
 11
95.743998551969383
 21
47.309398107190837
 31
0.0
  0
LINE
  5
1A1D
  8
0
 62
     0
 10
95.743998551969383
 20
50.087523107190847
 30
0.0
 11
95.743998551969383
 21
50.087523107190847
 31
0.0
  0
LINE
  5
1A1E
  8
0
 62
     0
 10
98.522123551969429
 20
26.473460607190798
 30
0.0
 11
98.522123551969429
 21
26.473460607190798
 31
0.0
  0
LINE
  5
1A1F
  8
0
 62
     0
 10
98.522123551969429
 20
29.251585607190801
 30
0.0
 11
98.522123551969429
 21
29.251585607190801
 31
0.0
  0
LINE
  5
1A20
  8
0
 62
     0
 10
98.522123551969429
 20
32.029710607190793
 30
0.0
 11
98.522123551969429
 21
32.029710607190793
 31
0.0
  0
LINE
  5
1A21
  8
0
 62
     0
 10
98.522123551969429
 20
34.807835607190803
 30
0.0
 11
98.522123551969429
 21
34.807835607190803
 31
0.0
  0
LINE
  5
1A22
  8
0
 62
     0
 10
98.522123551969429
 20
9.8047106071907901
 30
0.0
 11
98.522123551969429
 21
9.8047106071907901
 31
0.0
  0
LINE
  5
1A23
  8
0
 62
     0
 10
98.522123551969429
 20
12.582835607190789
 30
0.0
 11
98.522123551969429
 21
12.582835607190789
 31
0.0
  0
LINE
  5
1A24
  8
0
 62
     0
 10
98.522123551969429
 20
15.36096060719079
 30
0.0
 11
98.522123551969429
 21
15.36096060719079
 31
0.0
  0
LINE
  5
1A25
  8
0
 62
     0
 10
98.522123551969429
 20
18.13908560719079
 30
0.0
 11
98.522123551969429
 21
18.13908560719079
 31
0.0
  0
LINE
  5
1A26
  8
0
 62
     0
 10
98.522123551969429
 20
20.917210607190789
 30
0.0
 11
98.522123551969429
 21
20.917210607190789
 31
0.0
  0
LINE
  5
1A27
  8
0
 62
     0
 10
98.522123551969429
 20
23.695335607190788
 30
0.0
 11
98.522123551969429
 21
23.695335607190788
 31
0.0
  0
LINE
  5
1A28
  8
0
 62
     0
 10
98.522123551969429
 20
37.585960607190771
 30
0.0
 11
98.522123551969429
 21
37.585960607190771
 31
0.0
  0
LINE
  5
1A29
  8
0
 62
     0
 10
98.522123551969429
 20
40.364085607190773
 30
0.0
 11
98.522123551969429
 21
40.364085607190773
 31
0.0
  0
LINE
  5
1A2A
  8
0
 62
     0
 10
98.522123551969429
 20
43.142210607190769
 30
0.0
 11
98.522123551969429
 21
43.142210607190769
 31
0.0
  0
LINE
  5
1A2B
  8
0
 62
     0
 10
98.522123551969429
 20
45.920335607190779
 30
0.0
 11
98.522123551969429
 21
45.920335607190779
 31
0.0
  0
LINE
  5
1A2C
  8
0
 62
     0
 10
98.522123551969429
 20
48.698460607190782
 30
0.0
 11
98.522123551969429
 21
48.698460607190782
 31
0.0
  0
LINE
  5
1A2D
  8
0
 62
     0
 10
98.522123551969429
 20
51.476585607190792
 30
0.0
 11
98.522123551969429
 21
51.476585607190792
 31
0.0
  0
LINE
  5
1A2E
  8
0
 62
     0
 10
101.3002485519694
 20
25.084398107190761
 30
0.0
 11
101.3002485519694
 21
25.084398107190761
 31
0.0
  0
LINE
  5
1A2F
  8
0
 62
     0
 10
101.3002485519694
 20
27.862523107190761
 30
0.0
 11
101.3002485519694
 21
27.862523107190761
 31
0.0
  0
LINE
  5
1A30
  8
0
 62
     0
 10
101.3002485519694
 20
30.64064810719076
 30
0.0
 11
101.3002485519694
 21
30.64064810719076
 31
0.0
  0
LINE
  5
1A31
  8
0
 62
     0
 10
101.3002485519694
 20
33.418773107190759
 30
0.0
 11
101.3002485519694
 21
33.418773107190759
 31
0.0
  0
LINE
  5
1A32
  8
0
 62
     0
 10
101.3002485519694
 20
36.196898107190762
 30
0.0
 11
101.3002485519694
 21
36.196898107190762
 31
0.0
  0
LINE
  5
1A33
  8
0
 62
     0
 10
101.3002485519694
 20
11.19377310719077
 30
0.0
 11
101.3002485519694
 21
11.19377310719077
 31
0.0
  0
LINE
  5
1A34
  8
0
 62
     0
 10
101.3002485519694
 20
13.971898107190761
 30
0.0
 11
101.3002485519694
 21
13.971898107190761
 31
0.0
  0
LINE
  5
1A35
  8
0
 62
     0
 10
101.3002485519694
 20
16.750023107190771
 30
0.0
 11
101.3002485519694
 21
16.750023107190771
 31
0.0
  0
LINE
  5
1A36
  8
0
 62
     0
 10
101.3002485519694
 20
19.528148107190759
 30
0.0
 11
101.3002485519694
 21
19.528148107190759
 31
0.0
  0
LINE
  5
1A37
  8
0
 62
     0
 10
101.3002485519694
 20
22.306273107190769
 30
0.0
 11
101.3002485519694
 21
22.306273107190769
 31
0.0
  0
LINE
  5
1A38
  8
0
 62
     0
 10
101.3002485519694
 20
38.975023107190751
 30
0.0
 11
101.3002485519694
 21
38.975023107190751
 31
0.0
  0
LINE
  5
1A39
  8
0
 62
     0
 10
101.3002485519694
 20
41.753148107190754
 30
0.0
 11
101.3002485519694
 21
41.753148107190754
 31
0.0
  0
LINE
  5
1A3A
  8
0
 62
     0
 10
101.3002485519694
 20
44.531273107190749
 30
0.0
 11
101.3002485519694
 21
44.531273107190749
 31
0.0
  0
LINE
  5
1A3B
  8
0
 62
     0
 10
101.3002485519694
 20
47.309398107190759
 30
0.0
 11
101.3002485519694
 21
47.309398107190759
 31
0.0
  0
LINE
  5
1A3C
  8
0
 62
     0
 10
101.3002485519694
 20
50.087523107190762
 30
0.0
 11
101.3002485519694
 21
50.087523107190762
 31
0.0
  0
LINE
  5
1A3D
  8
0
 62
     0
 10
104.07837355196941
 20
26.473460607190798
 30
0.0
 11
104.07837355196941
 21
26.473460607190798
 31
0.0
  0
LINE
  5
1A3E
  8
0
 62
     0
 10
104.07837355196941
 20
29.251585607190801
 30
0.0
 11
104.07837355196941
 21
29.251585607190801
 31
0.0
  0
LINE
  5
1A3F
  8
0
 62
     0
 10
104.07837355196941
 20
32.029710607190793
 30
0.0
 11
104.07837355196941
 21
32.029710607190793
 31
0.0
  0
LINE
  5
1A40
  8
0
 62
     0
 10
104.07837355196941
 20
34.807835607190803
 30
0.0
 11
104.07837355196941
 21
34.807835607190803
 31
0.0
  0
LINE
  5
1A41
  8
0
 62
     0
 10
104.07837355196941
 20
9.8047106071908203
 30
0.0
 11
104.07837355196941
 21
9.8047106071908203
 31
0.0
  0
LINE
  5
1A42
  8
0
 62
     0
 10
104.07837355196941
 20
12.58283560719082
 30
0.0
 11
104.07837355196941
 21
12.58283560719082
 31
0.0
  0
LINE
  5
1A43
  8
0
 62
     0
 10
104.07837355196941
 20
15.360960607190821
 30
0.0
 11
104.07837355196941
 21
15.360960607190821
 31
0.0
  0
LINE
  5
1A44
  8
0
 62
     0
 10
104.07837355196941
 20
18.139085607190822
 30
0.0
 11
104.07837355196941
 21
18.139085607190822
 31
0.0
  0
LINE
  5
1A45
  8
0
 62
     0
 10
104.07837355196941
 20
20.917210607190821
 30
0.0
 11
104.07837355196941
 21
20.917210607190821
 31
0.0
  0
LINE
  5
1A46
  8
0
 62
     0
 10
104.07837355196941
 20
23.69533560719082
 30
0.0
 11
104.07837355196941
 21
23.69533560719082
 31
0.0
  0
LINE
  5
1A47
  8
0
 62
     0
 10
104.07837355196941
 20
37.585960607190799
 30
0.0
 11
104.07837355196941
 21
37.585960607190799
 31
0.0
  0
LINE
  5
1A48
  8
0
 62
     0
 10
104.07837355196941
 20
40.364085607190802
 30
0.0
 11
104.07837355196941
 21
40.364085607190802
 31
0.0
  0
LINE
  5
1A49
  8
0
 62
     0
 10
104.07837355196941
 20
43.142210607190798
 30
0.0
 11
104.07837355196941
 21
43.142210607190798
 31
0.0
  0
LINE
  5
1A4A
  8
0
 62
     0
 10
104.07837355196941
 20
45.9203356071908
 30
0.0
 11
104.07837355196941
 21
45.9203356071908
 31
0.0
  0
LINE
  5
1A4B
  8
0
 62
     0
 10
104.07837355196941
 20
48.69846060719081
 30
0.0
 11
104.07837355196941
 21
48.69846060719081
 31
0.0
  0
LINE
  5
1A4C
  8
0
 62
     0
 10
104.07837355196941
 20
51.476585607190813
 30
0.0
 11
104.07837355196941
 21
51.476585607190813
 31
0.0
  0
LINE
  5
1A4D
  8
0
 62
     0
 10
106.85649855196939
 20
25.08439810719079
 30
0.0
 11
106.85649855196939
 21
25.08439810719079
 31
0.0
  0
LINE
  5
1A4E
  8
0
 62
     0
 10
106.85649855196939
 20
27.862523107190789
 30
0.0
 11
106.85649855196939
 21
27.862523107190789
 31
0.0
  0
LINE
  5
1A4F
  8
0
 62
     0
 10
106.85649855196939
 20
30.640648107190788
 30
0.0
 11
106.85649855196939
 21
30.640648107190788
 31
0.0
  0
LINE
  5
1A50
  8
0
 62
     0
 10
106.85649855196939
 20
33.418773107190788
 30
0.0
 11
106.85649855196939
 21
33.418773107190788
 31
0.0
  0
LINE
  5
1A51
  8
0
 62
     0
 10
106.85649855196939
 20
36.19689810719079
 30
0.0
 11
106.85649855196939
 21
36.19689810719079
 31
0.0
  0
LINE
  5
1A52
  8
0
 62
     0
 10
106.85649855196939
 20
11.19377310719079
 30
0.0
 11
106.85649855196939
 21
11.19377310719079
 31
0.0
  0
LINE
  5
1A53
  8
0
 62
     0
 10
106.85649855196939
 20
13.971898107190791
 30
0.0
 11
106.85649855196939
 21
13.971898107190791
 31
0.0
  0
LINE
  5
1A54
  8
0
 62
     0
 10
106.85649855196939
 20
16.750023107190788
 30
0.0
 11
106.85649855196939
 21
16.750023107190788
 31
0.0
  0
LINE
  5
1A55
  8
0
 62
     0
 10
106.85649855196939
 20
19.528148107190791
 30
0.0
 11
106.85649855196939
 21
19.528148107190791
 31
0.0
  0
LINE
  5
1A56
  8
0
 62
     0
 10
106.85649855196939
 20
22.30627310719079
 30
0.0
 11
106.85649855196939
 21
22.30627310719079
 31
0.0
  0
LINE
  5
1A57
  8
0
 62
     0
 10
106.85649855196939
 20
38.975023107190779
 30
0.0
 11
106.85649855196939
 21
38.975023107190779
 31
0.0
  0
LINE
  5
1A58
  8
0
 62
     0
 10
106.85649855196939
 20
41.753148107190782
 30
0.0
 11
106.85649855196939
 21
41.753148107190782
 31
0.0
  0
LINE
  5
1A59
  8
0
 62
     0
 10
106.85649855196939
 20
44.531273107190778
 30
0.0
 11
106.85649855196939
 21
44.531273107190778
 31
0.0
  0
LINE
  5
1A5A
  8
0
 62
     0
 10
106.85649855196939
 20
47.309398107190781
 30
0.0
 11
106.85649855196939
 21
47.309398107190781
 31
0.0
  0
LINE
  5
1A5B
  8
0
 62
     0
 10
106.85649855196939
 20
50.08752310719079
 30
0.0
 11
106.85649855196939
 21
50.08752310719079
 31
0.0
  0
LINE
  5
1A5C
  8
0
 62
     0
 10
109.6346235519694
 20
26.47346060719082
 30
0.0
 11
109.6346235519694
 21
26.47346060719082
 31
0.0
  0
LINE
  5
1A5D
  8
0
 62
     0
 10
109.6346235519694
 20
29.251585607190819
 30
0.0
 11
109.6346235519694
 21
29.251585607190819
 31
0.0
  0
LINE
  5
1A5E
  8
0
 62
     0
 10
109.6346235519694
 20
32.029710607190822
 30
0.0
 11
109.6346235519694
 21
32.029710607190822
 31
0.0
  0
LINE
  5
1A5F
  8
0
 62
     0
 10
109.6346235519694
 20
34.807835607190817
 30
0.0
 11
109.6346235519694
 21
34.807835607190817
 31
0.0
  0
LINE
  5
1A60
  8
0
 62
     0
 10
109.6346235519694
 20
9.8047106071908203
 30
0.0
 11
109.6346235519694
 21
9.8047106071908203
 31
0.0
  0
LINE
  5
1A61
  8
0
 62
     0
 10
109.6346235519694
 20
12.58283560719082
 30
0.0
 11
109.6346235519694
 21
12.58283560719082
 31
0.0
  0
LINE
  5
1A62
  8
0
 62
     0
 10
109.6346235519694
 20
15.360960607190821
 30
0.0
 11
109.6346235519694
 21
15.360960607190821
 31
0.0
  0
LINE
  5
1A63
  8
0
 62
     0
 10
109.6346235519694
 20
18.139085607190822
 30
0.0
 11
109.6346235519694
 21
18.139085607190822
 31
0.0
  0
LINE
  5
1A64
  8
0
 62
     0
 10
109.6346235519694
 20
20.917210607190821
 30
0.0
 11
109.6346235519694
 21
20.917210607190821
 31
0.0
  0
LINE
  5
1A65
  8
0
 62
     0
 10
109.6346235519694
 20
23.69533560719082
 30
0.0
 11
109.6346235519694
 21
23.69533560719082
 31
0.0
  0
LINE
  5
1A66
  8
0
 62
     0
 10
109.6346235519694
 20
37.585960607190799
 30
0.0
 11
109.6346235519694
 21
37.585960607190799
 31
0.0
  0
LINE
  5
1A67
  8
0
 62
     0
 10
109.6346235519694
 20
40.364085607190802
 30
0.0
 11
109.6346235519694
 21
40.364085607190802
 31
0.0
  0
LINE
  5
1A68
  8
0
 62
     0
 10
109.6346235519694
 20
43.142210607190798
 30
0.0
 11
109.6346235519694
 21
43.142210607190798
 31
0.0
  0
LINE
  5
1A69
  8
0
 62
     0
 10
109.6346235519694
 20
45.9203356071908
 30
0.0
 11
109.6346235519694
 21
45.9203356071908
 31
0.0
  0
LINE
  5
1A6A
  8
0
 62
     0
 10
109.6346235519694
 20
48.69846060719081
 30
0.0
 11
109.6346235519694
 21
48.69846060719081
 31
0.0
  0
LINE
  5
1A6B
  8
0
 62
     0
 10
109.6346235519694
 20
51.476585607190813
 30
0.0
 11
109.6346235519694
 21
51.476585607190813
 31
0.0
  0
LINE
  5
1A6C
  8
0
 62
     0
 10
112.4127485519694
 20
25.08439810719079
 30
0.0
 11
112.4127485519694
 21
25.08439810719079
 31
0.0
  0
LINE
  5
1A6D
  8
0
 62
     0
 10
112.4127485519694
 20
27.862523107190789
 30
0.0
 11
112.4127485519694
 21
27.862523107190789
 31
0.0
  0
LINE
  5
1A6E
  8
0
 62
     0
 10
112.4127485519694
 20
30.640648107190788
 30
0.0
 11
112.4127485519694
 21
30.640648107190788
 31
0.0
  0
LINE
  5
1A6F
  8
0
 62
     0
 10
112.4127485519694
 20
33.418773107190788
 30
0.0
 11
112.4127485519694
 21
33.418773107190788
 31
0.0
  0
LINE
  5
1A70
  8
0
 62
     0
 10
112.4127485519694
 20
36.19689810719079
 30
0.0
 11
112.4127485519694
 21
36.19689810719079
 31
0.0
  0
LINE
  5
1A71
  8
0
 62
     0
 10
112.4127485519694
 20
11.19377310719079
 30
0.0
 11
112.4127485519694
 21
11.19377310719079
 31
0.0
  0
LINE
  5
1A72
  8
0
 62
     0
 10
112.4127485519694
 20
13.971898107190791
 30
0.0
 11
112.4127485519694
 21
13.971898107190791
 31
0.0
  0
LINE
  5
1A73
  8
0
 62
     0
 10
112.4127485519694
 20
16.750023107190788
 30
0.0
 11
112.4127485519694
 21
16.750023107190788
 31
0.0
  0
LINE
  5
1A74
  8
0
 62
     0
 10
112.4127485519694
 20
19.528148107190791
 30
0.0
 11
112.4127485519694
 21
19.528148107190791
 31
0.0
  0
LINE
  5
1A75
  8
0
 62
     0
 10
112.4127485519694
 20
22.30627310719079
 30
0.0
 11
112.4127485519694
 21
22.30627310719079
 31
0.0
  0
LINE
  5
1A76
  8
0
 62
     0
 10
112.4127485519694
 20
38.975023107190779
 30
0.0
 11
112.4127485519694
 21
38.975023107190779
 31
0.0
  0
LINE
  5
1A77
  8
0
 62
     0
 10
112.4127485519694
 20
41.753148107190782
 30
0.0
 11
112.4127485519694
 21
41.753148107190782
 31
0.0
  0
LINE
  5
1A78
  8
0
 62
     0
 10
112.4127485519694
 20
44.531273107190778
 30
0.0
 11
112.4127485519694
 21
44.531273107190778
 31
0.0
  0
LINE
  5
1A79
  8
0
 62
     0
 10
112.4127485519694
 20
47.309398107190781
 30
0.0
 11
112.4127485519694
 21
47.309398107190781
 31
0.0
  0
LINE
  5
1A7A
  8
0
 62
     0
 10
112.4127485519694
 20
50.08752310719079
 30
0.0
 11
112.4127485519694
 21
50.08752310719079
 31
0.0
  0
LINE
  5
1A7B
  8
0
 62
     0
 10
115.1908735519694
 20
26.47346060719077
 30
0.0
 11
115.1908735519694
 21
26.47346060719077
 31
0.0
  0
LINE
  5
1A7C
  8
0
 62
     0
 10
115.1908735519694
 20
29.251585607190769
 30
0.0
 11
115.1908735519694
 21
29.251585607190769
 31
0.0
  0
LINE
  5
1A7D
  8
0
 62
     0
 10
115.1908735519694
 20
32.029710607190772
 30
0.0
 11
115.1908735519694
 21
32.029710607190772
 31
0.0
  0
LINE
  5
1A7E
  8
0
 62
     0
 10
115.1908735519694
 20
34.807835607190768
 30
0.0
 11
115.1908735519694
 21
34.807835607190768
 31
0.0
  0
LINE
  5
1A7F
  8
0
 62
     0
 10
115.1908735519694
 20
9.8047106071907901
 30
0.0
 11
115.1908735519694
 21
9.8047106071907901
 31
0.0
  0
LINE
  5
1A80
  8
0
 62
     0
 10
115.1908735519694
 20
12.582835607190789
 30
0.0
 11
115.1908735519694
 21
12.582835607190789
 31
0.0
  0
LINE
  5
1A81
  8
0
 62
     0
 10
115.1908735519694
 20
15.36096060719079
 30
0.0
 11
115.1908735519694
 21
15.36096060719079
 31
0.0
  0
LINE
  5
1A82
  8
0
 62
     0
 10
115.1908735519694
 20
18.13908560719079
 30
0.0
 11
115.1908735519694
 21
18.13908560719079
 31
0.0
  0
LINE
  5
1A83
  8
0
 62
     0
 10
115.1908735519694
 20
20.917210607190789
 30
0.0
 11
115.1908735519694
 21
20.917210607190789
 31
0.0
  0
LINE
  5
1A84
  8
0
 62
     0
 10
115.1908735519694
 20
23.695335607190788
 30
0.0
 11
115.1908735519694
 21
23.695335607190788
 31
0.0
  0
LINE
  5
1A85
  8
0
 62
     0
 10
115.1908735519694
 20
37.585960607190771
 30
0.0
 11
115.1908735519694
 21
37.585960607190771
 31
0.0
  0
LINE
  5
1A86
  8
0
 62
     0
 10
115.1908735519694
 20
40.364085607190773
 30
0.0
 11
115.1908735519694
 21
40.364085607190773
 31
0.0
  0
LINE
  5
1A87
  8
0
 62
     0
 10
115.1908735519694
 20
43.142210607190769
 30
0.0
 11
115.1908735519694
 21
43.142210607190769
 31
0.0
  0
LINE
  5
1A88
  8
0
 62
     0
 10
115.1908735519694
 20
45.920335607190779
 30
0.0
 11
115.1908735519694
 21
45.920335607190779
 31
0.0
  0
LINE
  5
1A89
  8
0
 62
     0
 10
115.1908735519694
 20
48.698460607190782
 30
0.0
 11
115.1908735519694
 21
48.698460607190782
 31
0.0
  0
LINE
  5
1A8A
  8
0
 62
     0
 10
115.1908735519694
 20
51.476585607190792
 30
0.0
 11
115.1908735519694
 21
51.476585607190792
 31
0.0
  0
LINE
  5
1A8B
  8
0
 62
     0
 10
117.96899855196941
 20
25.084398107190761
 30
0.0
 11
117.96899855196941
 21
25.084398107190761
 31
0.0
  0
LINE
  5
1A8C
  8
0
 62
     0
 10
117.96899855196941
 20
27.862523107190761
 30
0.0
 11
117.96899855196941
 21
27.862523107190761
 31
0.0
  0
LINE
  5
1A8D
  8
0
 62
     0
 10
117.96899855196941
 20
30.64064810719076
 30
0.0
 11
117.96899855196941
 21
30.64064810719076
 31
0.0
  0
LINE
  5
1A8E
  8
0
 62
     0
 10
117.96899855196941
 20
33.418773107190759
 30
0.0
 11
117.96899855196941
 21
33.418773107190759
 31
0.0
  0
LINE
  5
1A8F
  8
0
 62
     0
 10
117.96899855196941
 20
36.196898107190762
 30
0.0
 11
117.96899855196941
 21
36.196898107190762
 31
0.0
  0
LINE
  5
1A90
  8
0
 62
     0
 10
117.96899855196941
 20
11.19377310719077
 30
0.0
 11
117.96899855196941
 21
11.19377310719077
 31
0.0
  0
LINE
  5
1A91
  8
0
 62
     0
 10
117.96899855196941
 20
13.971898107190761
 30
0.0
 11
117.96899855196941
 21
13.971898107190761
 31
0.0
  0
LINE
  5
1A92
  8
0
 62
     0
 10
117.96899855196941
 20
16.750023107190771
 30
0.0
 11
117.96899855196941
 21
16.750023107190771
 31
0.0
  0
LINE
  5
1A93
  8
0
 62
     0
 10
117.96899855196941
 20
19.528148107190759
 30
0.0
 11
117.96899855196941
 21
19.528148107190759
 31
0.0
  0
LINE
  5
1A94
  8
0
 62
     0
 10
117.96899855196941
 20
22.306273107190769
 30
0.0
 11
117.96899855196941
 21
22.306273107190769
 31
0.0
  0
LINE
  5
1A95
  8
0
 62
     0
 10
117.96899855196941
 20
38.975023107190751
 30
0.0
 11
117.96899855196941
 21
38.975023107190751
 31
0.0
  0
LINE
  5
1A96
  8
0
 62
     0
 10
117.96899855196941
 20
41.753148107190754
 30
0.0
 11
117.96899855196941
 21
41.753148107190754
 31
0.0
  0
LINE
  5
1A97
  8
0
 62
     0
 10
117.96899855196941
 20
44.531273107190749
 30
0.0
 11
117.96899855196941
 21
44.531273107190749
 31
0.0
  0
LINE
  5
1A98
  8
0
 62
     0
 10
117.96899855196941
 20
47.309398107190759
 30
0.0
 11
117.96899855196941
 21
47.309398107190759
 31
0.0
  0
LINE
  5
1A99
  8
0
 62
     0
 10
117.96899855196941
 20
50.087523107190762
 30
0.0
 11
117.96899855196941
 21
50.087523107190762
 31
0.0
  0
LINE
  5
1A9A
  8
0
 62
     0
 10
120.74712355196939
 20
26.473460607190798
 30
0.0
 11
120.74712355196939
 21
26.473460607190798
 31
0.0
  0
LINE
  5
1A9B
  8
0
 62
     0
 10
120.74712355196939
 20
29.251585607190801
 30
0.0
 11
120.74712355196939
 21
29.251585607190801
 31
0.0
  0
LINE
  5
1A9C
  8
0
 62
     0
 10
120.74712355196939
 20
32.029710607190793
 30
0.0
 11
120.74712355196939
 21
32.029710607190793
 31
0.0
  0
LINE
  5
1A9D
  8
0
 62
     0
 10
120.74712355196939
 20
34.807835607190803
 30
0.0
 11
120.74712355196939
 21
34.807835607190803
 31
0.0
  0
LINE
  5
1A9E
  8
0
 62
     0
 10
120.74712355196939
 20
9.8047106071907901
 30
0.0
 11
120.74712355196939
 21
9.8047106071907901
 31
0.0
  0
LINE
  5
1A9F
  8
0
 62
     0
 10
120.74712355196939
 20
12.582835607190789
 30
0.0
 11
120.74712355196939
 21
12.582835607190789
 31
0.0
  0
LINE
  5
1AA0
  8
0
 62
     0
 10
120.74712355196939
 20
15.36096060719079
 30
0.0
 11
120.74712355196939
 21
15.36096060719079
 31
0.0
  0
LINE
  5
1AA1
  8
0
 62
     0
 10
120.74712355196939
 20
18.13908560719079
 30
0.0
 11
120.74712355196939
 21
18.13908560719079
 31
0.0
  0
LINE
  5
1AA2
  8
0
 62
     0
 10
120.74712355196939
 20
20.917210607190789
 30
0.0
 11
120.74712355196939
 21
20.917210607190789
 31
0.0
  0
LINE
  5
1AA3
  8
0
 62
     0
 10
120.74712355196939
 20
23.695335607190788
 30
0.0
 11
120.74712355196939
 21
23.695335607190788
 31
0.0
  0
LINE
  5
1AA4
  8
0
 62
     0
 10
120.74712355196939
 20
37.585960607190771
 30
0.0
 11
120.74712355196939
 21
37.585960607190771
 31
0.0
  0
LINE
  5
1AA5
  8
0
 62
     0
 10
120.74712355196939
 20
40.364085607190773
 30
0.0
 11
120.74712355196939
 21
40.364085607190773
 31
0.0
  0
LINE
  5
1AA6
  8
0
 62
     0
 10
120.74712355196939
 20
43.142210607190769
 30
0.0
 11
120.74712355196939
 21
43.142210607190769
 31
0.0
  0
LINE
  5
1AA7
  8
0
 62
     0
 10
120.74712355196939
 20
45.920335607190779
 30
0.0
 11
120.74712355196939
 21
45.920335607190779
 31
0.0
  0
LINE
  5
1AA8
  8
0
 62
     0
 10
120.74712355196939
 20
48.698460607190782
 30
0.0
 11
120.74712355196939
 21
48.698460607190782
 31
0.0
  0
LINE
  5
1AA9
  8
0
 62
     0
 10
120.74712355196939
 20
51.476585607190792
 30
0.0
 11
120.74712355196939
 21
51.476585607190792
 31
0.0
  0
LINE
  5
1AAA
  8
0
 62
     0
 10
123.5252485519694
 20
25.084398107190822
 30
0.0
 11
123.5252485519694
 21
25.084398107190822
 31
0.0
  0
LINE
  5
1AAB
  8
0
 62
     0
 10
123.5252485519694
 20
27.862523107190821
 30
0.0
 11
123.5252485519694
 21
27.862523107190821
 31
0.0
  0
LINE
  5
1AAC
  8
0
 62
     0
 10
123.5252485519694
 20
30.64064810719082
 30
0.0
 11
123.5252485519694
 21
30.64064810719082
 31
0.0
  0
LINE
  5
1AAD
  8
0
 62
     0
 10
123.5252485519694
 20
33.418773107190823
 30
0.0
 11
123.5252485519694
 21
33.418773107190823
 31
0.0
  0
LINE
  5
1AAE
  8
0
 62
     0
 10
123.5252485519694
 20
36.196898107190819
 30
0.0
 11
123.5252485519694
 21
36.196898107190819
 31
0.0
  0
LINE
  5
1AAF
  8
0
 62
     0
 10
123.5252485519694
 20
11.19377310719082
 30
0.0
 11
123.5252485519694
 21
11.19377310719082
 31
0.0
  0
LINE
  5
1AB0
  8
0
 62
     0
 10
123.5252485519694
 20
13.971898107190819
 30
0.0
 11
123.5252485519694
 21
13.971898107190819
 31
0.0
  0
LINE
  5
1AB1
  8
0
 62
     0
 10
123.5252485519694
 20
16.75002310719082
 30
0.0
 11
123.5252485519694
 21
16.75002310719082
 31
0.0
  0
LINE
  5
1AB2
  8
0
 62
     0
 10
123.5252485519694
 20
19.52814810719082
 30
0.0
 11
123.5252485519694
 21
19.52814810719082
 31
0.0
  0
LINE
  5
1AB3
  8
0
 62
     0
 10
123.5252485519694
 20
22.306273107190819
 30
0.0
 11
123.5252485519694
 21
22.306273107190819
 31
0.0
  0
LINE
  5
1AB4
  8
0
 62
     0
 10
123.5252485519694
 20
38.975023107190808
 30
0.0
 11
123.5252485519694
 21
38.975023107190808
 31
0.0
  0
LINE
  5
1AB5
  8
0
 62
     0
 10
123.5252485519694
 20
41.75314810719081
 30
0.0
 11
123.5252485519694
 21
41.75314810719081
 31
0.0
  0
LINE
  5
1AB6
  8
0
 62
     0
 10
123.5252485519694
 20
44.531273107190813
 30
0.0
 11
123.5252485519694
 21
44.531273107190813
 31
0.0
  0
LINE
  5
1AB7
  8
0
 62
     0
 10
123.5252485519694
 20
47.309398107190809
 30
0.0
 11
123.5252485519694
 21
47.309398107190809
 31
0.0
  0
LINE
  5
1AB8
  8
0
 62
     0
 10
123.5252485519694
 20
50.087523107190812
 30
0.0
 11
123.5252485519694
 21
50.087523107190812
 31
0.0
  0
LINE
  5
1AB9
  8
0
 62
     0
 10
126.3033735519694
 20
26.473460607190798
 30
0.0
 11
126.3033735519694
 21
26.473460607190798
 31
0.0
  0
LINE
  5
1ABA
  8
0
 62
     0
 10
126.3033735519694
 20
29.251585607190801
 30
0.0
 11
126.3033735519694
 21
29.251585607190801
 31
0.0
  0
LINE
  5
1ABB
  8
0
 62
     0
 10
126.3033735519694
 20
32.029710607190793
 30
0.0
 11
126.3033735519694
 21
32.029710607190793
 31
0.0
  0
LINE
  5
1ABC
  8
0
 62
     0
 10
126.3033735519694
 20
34.807835607190803
 30
0.0
 11
126.3033735519694
 21
34.807835607190803
 31
0.0
  0
LINE
  5
1ABD
  8
0
 62
     0
 10
126.3033735519694
 20
9.8047106071907901
 30
0.0
 11
126.3033735519694
 21
9.8047106071907901
 31
0.0
  0
LINE
  5
1ABE
  8
0
 62
     0
 10
126.3033735519694
 20
12.582835607190789
 30
0.0
 11
126.3033735519694
 21
12.582835607190789
 31
0.0
  0
LINE
  5
1ABF
  8
0
 62
     0
 10
126.3033735519694
 20
15.36096060719079
 30
0.0
 11
126.3033735519694
 21
15.36096060719079
 31
0.0
  0
LINE
  5
1AC0
  8
0
 62
     0
 10
126.3033735519694
 20
18.13908560719079
 30
0.0
 11
126.3033735519694
 21
18.13908560719079
 31
0.0
  0
LINE
  5
1AC1
  8
0
 62
     0
 10
126.3033735519694
 20
20.917210607190789
 30
0.0
 11
126.3033735519694
 21
20.917210607190789
 31
0.0
  0
LINE
  5
1AC2
  8
0
 62
     0
 10
126.3033735519694
 20
23.695335607190788
 30
0.0
 11
126.3033735519694
 21
23.695335607190788
 31
0.0
  0
LINE
  5
1AC3
  8
0
 62
     0
 10
126.3033735519694
 20
37.585960607190771
 30
0.0
 11
126.3033735519694
 21
37.585960607190771
 31
0.0
  0
LINE
  5
1AC4
  8
0
 62
     0
 10
126.3033735519694
 20
40.364085607190773
 30
0.0
 11
126.3033735519694
 21
40.364085607190773
 31
0.0
  0
LINE
  5
1AC5
  8
0
 62
     0
 10
126.3033735519694
 20
43.142210607190769
 30
0.0
 11
126.3033735519694
 21
43.142210607190769
 31
0.0
  0
LINE
  5
1AC6
  8
0
 62
     0
 10
126.3033735519694
 20
45.920335607190779
 30
0.0
 11
126.3033735519694
 21
45.920335607190779
 31
0.0
  0
LINE
  5
1AC7
  8
0
 62
     0
 10
126.3033735519694
 20
48.698460607190782
 30
0.0
 11
126.3033735519694
 21
48.698460607190782
 31
0.0
  0
LINE
  5
1AC8
  8
0
 62
     0
 10
126.3033735519694
 20
51.476585607190792
 30
0.0
 11
126.3033735519694
 21
51.476585607190792
 31
0.0
  0
LINE
  5
1AC9
  8
0
 62
     0
 10
129.08149855196939
 20
25.084398107190761
 30
0.0
 11
129.08149855196939
 21
25.084398107190761
 31
0.0
  0
LINE
  5
1ACA
  8
0
 62
     0
 10
129.08149855196939
 20
27.862523107190761
 30
0.0
 11
129.08149855196939
 21
27.862523107190761
 31
0.0
  0
LINE
  5
1ACB
  8
0
 62
     0
 10
129.08149855196939
 20
30.64064810719076
 30
0.0
 11
129.08149855196939
 21
30.64064810719076
 31
0.0
  0
LINE
  5
1ACC
  8
0
 62
     0
 10
129.08149855196939
 20
33.418773107190759
 30
0.0
 11
129.08149855196939
 21
33.418773107190759
 31
0.0
  0
LINE
  5
1ACD
  8
0
 62
     0
 10
129.08149855196939
 20
36.196898107190762
 30
0.0
 11
129.08149855196939
 21
36.196898107190762
 31
0.0
  0
LINE
  5
1ACE
  8
0
 62
     0
 10
129.08149855196939
 20
13.971898107190761
 30
0.0
 11
129.08149855196939
 21
13.971898107190761
 31
0.0
  0
LINE
  5
1ACF
  8
0
 62
     0
 10
129.08149855196939
 20
16.750023107190771
 30
0.0
 11
129.08149855196939
 21
16.750023107190771
 31
0.0
  0
LINE
  5
1AD0
  8
0
 62
     0
 10
129.08149855196939
 20
19.528148107190759
 30
0.0
 11
129.08149855196939
 21
19.528148107190759
 31
0.0
  0
LINE
  5
1AD1
  8
0
 62
     0
 10
129.08149855196939
 20
22.306273107190769
 30
0.0
 11
129.08149855196939
 21
22.306273107190769
 31
0.0
  0
LINE
  5
1AD2
  8
0
 62
     0
 10
129.08149855196939
 20
38.975023107190758
 30
0.0
 11
129.08149855196939
 21
38.975023107190758
 31
0.0
  0
LINE
  5
1AD3
  8
0
 62
     0
 10
129.08149855196939
 20
41.753148107190761
 30
0.0
 11
129.08149855196939
 21
41.753148107190761
 31
0.0
  0
LINE
  5
1AD4
  8
0
 62
     0
 10
129.08149855196939
 20
44.531273107190771
 30
0.0
 11
129.08149855196939
 21
44.531273107190771
 31
0.0
  0
LINE
  5
1AD5
  8
0
 62
     0
 10
129.08149855196939
 20
47.309398107190773
 30
0.0
 11
129.08149855196939
 21
47.309398107190773
 31
0.0
  0
LINE
  5
1AD6
  8
0
 62
     0
 10
131.85962355196941
 20
26.473460607190741
 30
0.0
 11
131.85962355196941
 21
26.473460607190741
 31
0.0
  0
LINE
  5
1AD7
  8
0
 62
     0
 10
131.85962355196941
 20
29.251585607190741
 30
0.0
 11
131.85962355196941
 21
29.251585607190741
 31
0.0
  0
LINE
  5
1AD8
  8
0
 62
     0
 10
131.85962355196941
 20
32.029710607190736
 30
0.0
 11
131.85962355196941
 21
32.029710607190736
 31
0.0
  0
LINE
  5
1AD9
  8
0
 62
     0
 10
131.85962355196941
 20
34.807835607190739
 30
0.0
 11
131.85962355196941
 21
34.807835607190739
 31
0.0
  0
LINE
  5
1ADA
  8
0
 62
     0
 10
131.85962355196941
 20
15.36096060719076
 30
0.0
 11
131.85962355196941
 21
15.36096060719076
 31
0.0
  0
LINE
  5
1ADB
  8
0
 62
     0
 10
131.85962355196941
 20
18.139085607190761
 30
0.0
 11
131.85962355196941
 21
18.139085607190761
 31
0.0
  0
LINE
  5
1ADC
  8
0
 62
     0
 10
131.85962355196941
 20
20.917210607190761
 30
0.0
 11
131.85962355196941
 21
20.917210607190761
 31
0.0
  0
LINE
  5
1ADD
  8
0
 62
     0
 10
131.85962355196941
 20
23.69533560719076
 30
0.0
 11
131.85962355196941
 21
23.69533560719076
 31
0.0
  0
LINE
  5
1ADE
  8
0
 62
     0
 10
131.85962355196941
 20
37.585960607190742
 30
0.0
 11
131.85962355196941
 21
37.585960607190742
 31
0.0
  0
LINE
  5
1ADF
  8
0
 62
     0
 10
131.85962355196941
 20
40.364085607190738
 30
0.0
 11
131.85962355196941
 21
40.364085607190738
 31
0.0
  0
LINE
  5
1AE0
  8
0
 62
     0
 10
131.85962355196941
 20
43.142210607190741
 30
0.0
 11
131.85962355196941
 21
43.142210607190741
 31
0.0
  0
LINE
  5
1AE1
  8
0
 62
     0
 10
131.85962355196941
 20
45.920335607190751
 30
0.0
 11
131.85962355196941
 21
45.920335607190751
 31
0.0
  0
LINE
  5
1AE2
  8
0
 62
     0
 10
134.63774855196939
 20
25.08439810719079
 30
0.0
 11
134.63774855196939
 21
25.08439810719079
 31
0.0
  0
LINE
  5
1AE3
  8
0
 62
     0
 10
134.63774855196939
 20
27.862523107190789
 30
0.0
 11
134.63774855196939
 21
27.862523107190789
 31
0.0
  0
LINE
  5
1AE4
  8
0
 62
     0
 10
134.63774855196939
 20
30.640648107190788
 30
0.0
 11
134.63774855196939
 21
30.640648107190788
 31
0.0
  0
LINE
  5
1AE5
  8
0
 62
     0
 10
134.63774855196939
 20
33.418773107190788
 30
0.0
 11
134.63774855196939
 21
33.418773107190788
 31
0.0
  0
LINE
  5
1AE6
  8
0
 62
     0
 10
134.63774855196939
 20
36.19689810719079
 30
0.0
 11
134.63774855196939
 21
36.19689810719079
 31
0.0
  0
LINE
  5
1AE7
  8
0
 62
     0
 10
134.63774855196939
 20
13.971898107190791
 30
0.0
 11
134.63774855196939
 21
13.971898107190791
 31
0.0
  0
LINE
  5
1AE8
  8
0
 62
     0
 10
134.63774855196939
 20
16.750023107190788
 30
0.0
 11
134.63774855196939
 21
16.750023107190788
 31
0.0
  0
LINE
  5
1AE9
  8
0
 62
     0
 10
134.63774855196939
 20
19.528148107190791
 30
0.0
 11
134.63774855196939
 21
19.528148107190791
 31
0.0
  0
LINE
  5
1AEA
  8
0
 62
     0
 10
134.63774855196939
 20
22.30627310719079
 30
0.0
 11
134.63774855196939
 21
22.30627310719079
 31
0.0
  0
LINE
  5
1AEB
  8
0
 62
     0
 10
134.63774855196939
 20
38.975023107190758
 30
0.0
 11
134.63774855196939
 21
38.975023107190758
 31
0.0
  0
LINE
  5
1AEC
  8
0
 62
     0
 10
134.63774855196939
 20
41.753148107190761
 30
0.0
 11
134.63774855196939
 21
41.753148107190761
 31
0.0
  0
LINE
  5
1AED
  8
0
 62
     0
 10
134.63774855196939
 20
44.531273107190771
 30
0.0
 11
134.63774855196939
 21
44.531273107190771
 31
0.0
  0
LINE
  5
1AEE
  8
0
 62
     0
 10
134.63774855196939
 20
47.309398107190773
 30
0.0
 11
134.63774855196939
 21
47.309398107190773
 31
0.0
  0
LINE
  5
1AEF
  8
0
 62
     0
 10
137.41587355196941
 20
26.47346060719082
 30
0.0
 11
137.41587355196941
 21
26.47346060719082
 31
0.0
  0
LINE
  5
1AF0
  8
0
 62
     0
 10
137.41587355196941
 20
29.251585607190819
 30
0.0
 11
137.41587355196941
 21
29.251585607190819
 31
0.0
  0
LINE
  5
1AF1
  8
0
 62
     0
 10
137.41587355196941
 20
32.029710607190822
 30
0.0
 11
137.41587355196941
 21
32.029710607190822
 31
0.0
  0
LINE
  5
1AF2
  8
0
 62
     0
 10
137.41587355196941
 20
34.807835607190817
 30
0.0
 11
137.41587355196941
 21
34.807835607190817
 31
0.0
  0
LINE
  5
1AF3
  8
0
 62
     0
 10
137.41587355196941
 20
15.360960607190821
 30
0.0
 11
137.41587355196941
 21
15.360960607190821
 31
0.0
  0
LINE
  5
1AF4
  8
0
 62
     0
 10
137.41587355196941
 20
18.139085607190822
 30
0.0
 11
137.41587355196941
 21
18.139085607190822
 31
0.0
  0
LINE
  5
1AF5
  8
0
 62
     0
 10
137.41587355196941
 20
20.917210607190821
 30
0.0
 11
137.41587355196941
 21
20.917210607190821
 31
0.0
  0
LINE
  5
1AF6
  8
0
 62
     0
 10
137.41587355196941
 20
23.69533560719082
 30
0.0
 11
137.41587355196941
 21
23.69533560719082
 31
0.0
  0
LINE
  5
1AF7
  8
0
 62
     0
 10
137.41587355196941
 20
37.585960607190799
 30
0.0
 11
137.41587355196941
 21
37.585960607190799
 31
0.0
  0
LINE
  5
1AF8
  8
0
 62
     0
 10
137.41587355196941
 20
40.364085607190802
 30
0.0
 11
137.41587355196941
 21
40.364085607190802
 31
0.0
  0
LINE
  5
1AF9
  8
0
 62
     0
 10
137.41587355196941
 20
43.142210607190798
 30
0.0
 11
137.41587355196941
 21
43.142210607190798
 31
0.0
  0
LINE
  5
1AFA
  8
0
 62
     0
 10
137.41587355196941
 20
45.9203356071908
 30
0.0
 11
137.41587355196941
 21
45.9203356071908
 31
0.0
  0
LINE
  5
1AFB
  8
0
 62
     0
 10
140.1939985519694
 20
25.08439810719079
 30
0.0
 11
140.1939985519694
 21
25.08439810719079
 31
0.0
  0
LINE
  5
1AFC
  8
0
 62
     0
 10
140.1939985519694
 20
27.862523107190789
 30
0.0
 11
140.1939985519694
 21
27.862523107190789
 31
0.0
  0
LINE
  5
1AFD
  8
0
 62
     0
 10
140.1939985519694
 20
30.640648107190788
 30
0.0
 11
140.1939985519694
 21
30.640648107190788
 31
0.0
  0
LINE
  5
1AFE
  8
0
 62
     0
 10
140.1939985519694
 20
33.418773107190788
 30
0.0
 11
140.1939985519694
 21
33.418773107190788
 31
0.0
  0
LINE
  5
1AFF
  8
0
 62
     0
 10
140.1939985519694
 20
36.19689810719079
 30
0.0
 11
140.1939985519694
 21
36.19689810719079
 31
0.0
  0
LINE
  5
1B00
  8
0
 62
     0
 10
140.1939985519694
 20
13.971898107190791
 30
0.0
 11
140.1939985519694
 21
13.971898107190791
 31
0.0
  0
LINE
  5
1B01
  8
0
 62
     0
 10
140.1939985519694
 20
16.750023107190788
 30
0.0
 11
140.1939985519694
 21
16.750023107190788
 31
0.0
  0
LINE
  5
1B02
  8
0
 62
     0
 10
140.1939985519694
 20
19.528148107190791
 30
0.0
 11
140.1939985519694
 21
19.528148107190791
 31
0.0
  0
LINE
  5
1B03
  8
0
 62
     0
 10
140.1939985519694
 20
22.30627310719079
 30
0.0
 11
140.1939985519694
 21
22.30627310719079
 31
0.0
  0
LINE
  5
1B04
  8
0
 62
     0
 10
140.1939985519694
 20
38.9750231071908
 30
0.0
 11
140.1939985519694
 21
38.9750231071908
 31
0.0
  0
LINE
  5
1B05
  8
0
 62
     0
 10
140.1939985519694
 20
41.753148107190789
 30
0.0
 11
140.1939985519694
 21
41.753148107190789
 31
0.0
  0
LINE
  5
1B06
  8
0
 62
     0
 10
140.1939985519694
 20
44.531273107190799
 30
0.0
 11
140.1939985519694
 21
44.531273107190799
 31
0.0
  0
LINE
  5
1B07
  8
0
 62
     0
 10
140.1939985519694
 20
47.309398107190802
 30
0.0
 11
140.1939985519694
 21
47.309398107190802
 31
0.0
  0
LINE
  5
1B08
  8
0
 62
     0
 10
142.97212355196939
 20
26.47346060719077
 30
0.0
 11
142.97212355196939
 21
26.47346060719077
 31
0.0
  0
LINE
  5
1B09
  8
0
 62
     0
 10
142.97212355196939
 20
29.251585607190769
 30
0.0
 11
142.97212355196939
 21
29.251585607190769
 31
0.0
  0
LINE
  5
1B0A
  8
0
 62
     0
 10
142.97212355196939
 20
32.029710607190772
 30
0.0
 11
142.97212355196939
 21
32.029710607190772
 31
0.0
  0
LINE
  5
1B0B
  8
0
 62
     0
 10
142.97212355196939
 20
34.807835607190768
 30
0.0
 11
142.97212355196939
 21
34.807835607190768
 31
0.0
  0
LINE
  5
1B0C
  8
0
 62
     0
 10
142.97212355196939
 20
15.36096060719079
 30
0.0
 11
142.97212355196939
 21
15.36096060719079
 31
0.0
  0
LINE
  5
1B0D
  8
0
 62
     0
 10
142.97212355196939
 20
18.13908560719079
 30
0.0
 11
142.97212355196939
 21
18.13908560719079
 31
0.0
  0
LINE
  5
1B0E
  8
0
 62
     0
 10
142.97212355196939
 20
20.917210607190789
 30
0.0
 11
142.97212355196939
 21
20.917210607190789
 31
0.0
  0
LINE
  5
1B0F
  8
0
 62
     0
 10
142.97212355196939
 20
23.695335607190788
 30
0.0
 11
142.97212355196939
 21
23.695335607190788
 31
0.0
  0
LINE
  5
1B10
  8
0
 62
     0
 10
142.97212355196939
 20
37.585960607190771
 30
0.0
 11
142.97212355196939
 21
37.585960607190771
 31
0.0
  0
LINE
  5
1B11
  8
0
 62
     0
 10
142.97212355196939
 20
40.364085607190773
 30
0.0
 11
142.97212355196939
 21
40.364085607190773
 31
0.0
  0
LINE
  5
1B12
  8
0
 62
     0
 10
142.97212355196939
 20
43.142210607190769
 30
0.0
 11
142.97212355196939
 21
43.142210607190769
 31
0.0
  0
LINE
  5
1B13
  8
0
 62
     0
 10
142.97212355196939
 20
45.920335607190779
 30
0.0
 11
142.97212355196939
 21
45.920335607190779
 31
0.0
  0
LINE
  5
1B14
  8
0
 62
     0
 10
145.75024855196941
 20
25.084398107190822
 30
0.0
 11
145.75024855196941
 21
25.084398107190822
 31
0.0
  0
LINE
  5
1B15
  8
0
 62
     0
 10
145.75024855196941
 20
27.862523107190821
 30
0.0
 11
145.75024855196941
 21
27.862523107190821
 31
0.0
  0
LINE
  5
1B16
  8
0
 62
     0
 10
145.75024855196941
 20
30.64064810719082
 30
0.0
 11
145.75024855196941
 21
30.64064810719082
 31
0.0
  0
LINE
  5
1B17
  8
0
 62
     0
 10
145.75024855196941
 20
33.418773107190823
 30
0.0
 11
145.75024855196941
 21
33.418773107190823
 31
0.0
  0
LINE
  5
1B18
  8
0
 62
     0
 10
145.75024855196941
 20
36.196898107190819
 30
0.0
 11
145.75024855196941
 21
36.196898107190819
 31
0.0
  0
LINE
  5
1B19
  8
0
 62
     0
 10
145.75024855196941
 20
13.971898107190819
 30
0.0
 11
145.75024855196941
 21
13.971898107190819
 31
0.0
  0
LINE
  5
1B1A
  8
0
 62
     0
 10
145.75024855196941
 20
16.75002310719082
 30
0.0
 11
145.75024855196941
 21
16.75002310719082
 31
0.0
  0
LINE
  5
1B1B
  8
0
 62
     0
 10
145.75024855196941
 20
19.52814810719082
 30
0.0
 11
145.75024855196941
 21
19.52814810719082
 31
0.0
  0
LINE
  5
1B1C
  8
0
 62
     0
 10
145.75024855196941
 20
22.306273107190819
 30
0.0
 11
145.75024855196941
 21
22.306273107190819
 31
0.0
  0
LINE
  5
1B1D
  8
0
 62
     0
 10
145.75024855196941
 20
38.9750231071908
 30
0.0
 11
145.75024855196941
 21
38.9750231071908
 31
0.0
  0
LINE
  5
1B1E
  8
0
 62
     0
 10
145.75024855196941
 20
41.753148107190789
 30
0.0
 11
145.75024855196941
 21
41.753148107190789
 31
0.0
  0
LINE
  5
1B1F
  8
0
 62
     0
 10
145.75024855196941
 20
44.531273107190799
 30
0.0
 11
145.75024855196941
 21
44.531273107190799
 31
0.0
  0
LINE
  5
1B20
  8
0
 62
     0
 10
145.75024855196941
 20
47.309398107190802
 30
0.0
 11
145.75024855196941
 21
47.309398107190802
 31
0.0
  0
LINE
  5
1B21
  8
0
 62
     0
 10
148.52837355196939
 20
26.47346060719082
 30
0.0
 11
148.52837355196939
 21
26.47346060719082
 31
0.0
  0
LINE
  5
1B22
  8
0
 62
     0
 10
148.52837355196939
 20
29.251585607190819
 30
0.0
 11
148.52837355196939
 21
29.251585607190819
 31
0.0
  0
LINE
  5
1B23
  8
0
 62
     0
 10
148.52837355196939
 20
32.029710607190822
 30
0.0
 11
148.52837355196939
 21
32.029710607190822
 31
0.0
  0
LINE
  5
1B24
  8
0
 62
     0
 10
148.52837355196939
 20
34.807835607190817
 30
0.0
 11
148.52837355196939
 21
34.807835607190817
 31
0.0
  0
LINE
  5
1B25
  8
0
 62
     0
 10
148.52837355196939
 20
15.360960607190821
 30
0.0
 11
148.52837355196939
 21
15.360960607190821
 31
0.0
  0
LINE
  5
1B26
  8
0
 62
     0
 10
148.52837355196939
 20
18.139085607190822
 30
0.0
 11
148.52837355196939
 21
18.139085607190822
 31
0.0
  0
LINE
  5
1B27
  8
0
 62
     0
 10
148.52837355196939
 20
20.917210607190821
 30
0.0
 11
148.52837355196939
 21
20.917210607190821
 31
0.0
  0
LINE
  5
1B28
  8
0
 62
     0
 10
148.52837355196939
 20
23.69533560719082
 30
0.0
 11
148.52837355196939
 21
23.69533560719082
 31
0.0
  0
LINE
  5
1B29
  8
0
 62
     0
 10
148.52837355196939
 20
37.585960607190799
 30
0.0
 11
148.52837355196939
 21
37.585960607190799
 31
0.0
  0
LINE
  5
1B2A
  8
0
 62
     0
 10
148.52837355196939
 20
40.364085607190802
 30
0.0
 11
148.52837355196939
 21
40.364085607190802
 31
0.0
  0
LINE
  5
1B2B
  8
0
 62
     0
 10
148.52837355196939
 20
43.142210607190798
 30
0.0
 11
148.52837355196939
 21
43.142210607190798
 31
0.0
  0
LINE
  5
1B2C
  8
0
 62
     0
 10
148.52837355196939
 20
45.9203356071908
 30
0.0
 11
148.52837355196939
 21
45.9203356071908
 31
0.0
  0
ENDBLK
  5
1B2E
  8
0
  0
BLOCK
  8
0
  2
*X64
 70
     1
 10
0.0
 20
0.0
 30
0.0
  3
*X64
  1

  0
LINE
  5
1B30
  8
0
 62
     0
 10
84.631498551969429
 20
25.084398107190822
 30
0.0
 11
84.631498551969429
 21
25.084398107190822
 31
0.0
  0
LINE
  5
1B31
  8
0
 62
     0
 10
84.631498551969429
 20
27.862523107190821
 30
0.0
 11
84.631498551969429
 21
27.862523107190821
 31
0.0
  0
LINE
  5
1B32
  8
0
 62
     0
 10
84.631498551969429
 20
30.64064810719082
 30
0.0
 11
84.631498551969429
 21
30.64064810719082
 31
0.0
  0
LINE
  5
1B33
  8
0
 62
     0
 10
84.631498551969429
 20
33.418773107190823
 30
0.0
 11
84.631498551969429
 21
33.418773107190823
 31
0.0
  0
LINE
  5
1B34
  8
0
 62
     0
 10
84.631498551969429
 20
36.196898107190819
 30
0.0
 11
84.631498551969429
 21
36.196898107190819
 31
0.0
  0
LINE
  5
1B35
  8
0
 62
     0
 10
84.631498551969429
 20
13.971898107190849
 30
0.0
 11
84.631498551969429
 21
13.971898107190849
 31
0.0
  0
LINE
  5
1B36
  8
0
 62
     0
 10
84.631498551969429
 20
16.750023107190849
 30
0.0
 11
84.631498551969429
 21
16.750023107190849
 31
0.0
  0
LINE
  5
1B37
  8
0
 62
     0
 10
84.631498551969429
 20
19.528148107190852
 30
0.0
 11
84.631498551969429
 21
19.528148107190852
 31
0.0
  0
LINE
  5
1B38
  8
0
 62
     0
 10
84.631498551969429
 20
22.306273107190851
 30
0.0
 11
84.631498551969429
 21
22.306273107190851
 31
0.0
  0
LINE
  5
1B39
  8
0
 62
     0
 10
84.631498551969429
 20
38.975023107190822
 30
0.0
 11
84.631498551969429
 21
38.975023107190822
 31
0.0
  0
LINE
  5
1B3A
  8
0
 62
     0
 10
84.631498551969429
 20
41.753148107190817
 30
0.0
 11
84.631498551969429
 21
41.753148107190817
 31
0.0
  0
LINE
  5
1B3B
  8
0
 62
     0
 10
84.631498551969429
 20
44.53127310719082
 30
0.0
 11
84.631498551969429
 21
44.53127310719082
 31
0.0
  0
LINE
  5
1B3C
  8
0
 62
     0
 10
84.631498551969429
 20
47.30939810719083
 30
0.0
 11
84.631498551969429
 21
47.30939810719083
 31
0.0
  0
LINE
  5
1B3D
  8
0
 62
     0
 10
87.409623551969403
 20
26.473460607190798
 30
0.0
 11
87.409623551969403
 21
26.473460607190798
 31
0.0
  0
LINE
  5
1B3E
  8
0
 62
     0
 10
87.409623551969403
 20
29.251585607190801
 30
0.0
 11
87.409623551969403
 21
29.251585607190801
 31
0.0
  0
LINE
  5
1B3F
  8
0
 62
     0
 10
87.409623551969403
 20
32.029710607190793
 30
0.0
 11
87.409623551969403
 21
32.029710607190793
 31
0.0
  0
LINE
  5
1B40
  8
0
 62
     0
 10
87.409623551969403
 20
34.807835607190803
 30
0.0
 11
87.409623551969403
 21
34.807835607190803
 31
0.0
  0
LINE
  5
1B41
  8
0
 62
     0
 10
87.409623551969403
 20
15.360960607190821
 30
0.0
 11
87.409623551969403
 21
15.360960607190821
 31
0.0
  0
LINE
  5
1B42
  8
0
 62
     0
 10
87.409623551969403
 20
18.139085607190822
 30
0.0
 11
87.409623551969403
 21
18.139085607190822
 31
0.0
  0
LINE
  5
1B43
  8
0
 62
     0
 10
87.409623551969403
 20
20.917210607190821
 30
0.0
 11
87.409623551969403
 21
20.917210607190821
 31
0.0
  0
LINE
  5
1B44
  8
0
 62
     0
 10
87.409623551969403
 20
23.69533560719082
 30
0.0
 11
87.409623551969403
 21
23.69533560719082
 31
0.0
  0
LINE
  5
1B45
  8
0
 62
     0
 10
87.409623551969403
 20
37.585960607190799
 30
0.0
 11
87.409623551969403
 21
37.585960607190799
 31
0.0
  0
LINE
  5
1B46
  8
0
 62
     0
 10
87.409623551969403
 20
40.364085607190802
 30
0.0
 11
87.409623551969403
 21
40.364085607190802
 31
0.0
  0
LINE
  5
1B47
  8
0
 62
     0
 10
87.409623551969403
 20
43.142210607190798
 30
0.0
 11
87.409623551969403
 21
43.142210607190798
 31
0.0
  0
LINE
  5
1B48
  8
0
 62
     0
 10
87.409623551969403
 20
45.9203356071908
 30
0.0
 11
87.409623551969403
 21
45.9203356071908
 31
0.0
  0
LINE
  5
1B49
  8
0
 62
     0
 10
90.187748551969406
 20
25.08439810719085
 30
0.0
 11
90.187748551969406
 21
25.08439810719085
 31
0.0
  0
LINE
  5
1B4A
  8
0
 62
     0
 10
90.187748551969406
 20
27.862523107190849
 30
0.0
 11
90.187748551969406
 21
27.862523107190849
 31
0.0
  0
LINE
  5
1B4B
  8
0
 62
     0
 10
90.187748551969406
 20
30.640648107190849
 30
0.0
 11
90.187748551969406
 21
30.640648107190849
 31
0.0
  0
LINE
  5
1B4C
  8
0
 62
     0
 10
90.187748551969406
 20
33.418773107190837
 30
0.0
 11
90.187748551969406
 21
33.418773107190837
 31
0.0
  0
LINE
  5
1B4D
  8
0
 62
     0
 10
90.187748551969406
 20
36.196898107190847
 30
0.0
 11
90.187748551969406
 21
36.196898107190847
 31
0.0
  0
LINE
  5
1B4E
  8
0
 62
     0
 10
90.187748551969406
 20
13.971898107190849
 30
0.0
 11
90.187748551969406
 21
13.971898107190849
 31
0.0
  0
LINE
  5
1B4F
  8
0
 62
     0
 10
90.187748551969406
 20
16.750023107190849
 30
0.0
 11
90.187748551969406
 21
16.750023107190849
 31
0.0
  0
LINE
  5
1B50
  8
0
 62
     0
 10
90.187748551969406
 20
19.528148107190852
 30
0.0
 11
90.187748551969406
 21
19.528148107190852
 31
0.0
  0
LINE
  5
1B51
  8
0
 62
     0
 10
90.187748551969406
 20
22.306273107190851
 30
0.0
 11
90.187748551969406
 21
22.306273107190851
 31
0.0
  0
LINE
  5
1B52
  8
0
 62
     0
 10
90.187748551969406
 20
38.975023107190822
 30
0.0
 11
90.187748551969406
 21
38.975023107190822
 31
0.0
  0
LINE
  5
1B53
  8
0
 62
     0
 10
90.187748551969406
 20
41.753148107190817
 30
0.0
 11
90.187748551969406
 21
41.753148107190817
 31
0.0
  0
LINE
  5
1B54
  8
0
 62
     0
 10
90.187748551969406
 20
44.53127310719082
 30
0.0
 11
90.187748551969406
 21
44.53127310719082
 31
0.0
  0
LINE
  5
1B55
  8
0
 62
     0
 10
90.187748551969406
 20
47.30939810719083
 30
0.0
 11
90.187748551969406
 21
47.30939810719083
 31
0.0
  0
LINE
  5
1B56
  8
0
 62
     0
 10
92.965873551969395
 20
26.47346060719082
 30
0.0
 11
92.965873551969395
 21
26.47346060719082
 31
0.0
  0
LINE
  5
1B57
  8
0
 62
     0
 10
92.965873551969395
 20
29.251585607190819
 30
0.0
 11
92.965873551969395
 21
29.251585607190819
 31
0.0
  0
LINE
  5
1B58
  8
0
 62
     0
 10
92.965873551969395
 20
32.029710607190822
 30
0.0
 11
92.965873551969395
 21
32.029710607190822
 31
0.0
  0
LINE
  5
1B59
  8
0
 62
     0
 10
92.965873551969395
 20
34.807835607190817
 30
0.0
 11
92.965873551969395
 21
34.807835607190817
 31
0.0
  0
LINE
  5
1B5A
  8
0
 62
     0
 10
92.965873551969395
 20
15.360960607190821
 30
0.0
 11
92.965873551969395
 21
15.360960607190821
 31
0.0
  0
LINE
  5
1B5B
  8
0
 62
     0
 10
92.965873551969395
 20
18.139085607190822
 30
0.0
 11
92.965873551969395
 21
18.139085607190822
 31
0.0
  0
LINE
  5
1B5C
  8
0
 62
     0
 10
92.965873551969395
 20
20.917210607190821
 30
0.0
 11
92.965873551969395
 21
20.917210607190821
 31
0.0
  0
LINE
  5
1B5D
  8
0
 62
     0
 10
92.965873551969395
 20
23.69533560719082
 30
0.0
 11
92.965873551969395
 21
23.69533560719082
 31
0.0
  0
LINE
  5
1B5E
  8
0
 62
     0
 10
92.965873551969395
 20
37.585960607190799
 30
0.0
 11
92.965873551969395
 21
37.585960607190799
 31
0.0
  0
LINE
  5
1B5F
  8
0
 62
     0
 10
92.965873551969395
 20
40.364085607190802
 30
0.0
 11
92.965873551969395
 21
40.364085607190802
 31
0.0
  0
LINE
  5
1B60
  8
0
 62
     0
 10
92.965873551969395
 20
43.142210607190798
 30
0.0
 11
92.965873551969395
 21
43.142210607190798
 31
0.0
  0
LINE
  5
1B61
  8
0
 62
     0
 10
92.965873551969395
 20
45.9203356071908
 30
0.0
 11
92.965873551969395
 21
45.9203356071908
 31
0.0
  0
LINE
  5
1B62
  8
0
 62
     0
 10
95.743998551969383
 20
25.08439810719085
 30
0.0
 11
95.743998551969383
 21
25.08439810719085
 31
0.0
  0
LINE
  5
1B63
  8
0
 62
     0
 10
95.743998551969383
 20
27.862523107190849
 30
0.0
 11
95.743998551969383
 21
27.862523107190849
 31
0.0
  0
LINE
  5
1B64
  8
0
 62
     0
 10
95.743998551969383
 20
30.640648107190849
 30
0.0
 11
95.743998551969383
 21
30.640648107190849
 31
0.0
  0
LINE
  5
1B65
  8
0
 62
     0
 10
95.743998551969383
 20
33.418773107190837
 30
0.0
 11
95.743998551969383
 21
33.418773107190837
 31
0.0
  0
LINE
  5
1B66
  8
0
 62
     0
 10
95.743998551969383
 20
36.196898107190847
 30
0.0
 11
95.743998551969383
 21
36.196898107190847
 31
0.0
  0
LINE
  5
1B67
  8
0
 62
     0
 10
95.743998551969383
 20
11.19377310719085
 30
0.0
 11
95.743998551969383
 21
11.19377310719085
 31
0.0
  0
LINE
  5
1B68
  8
0
 62
     0
 10
95.743998551969383
 20
13.971898107190849
 30
0.0
 11
95.743998551969383
 21
13.971898107190849
 31
0.0
  0
LINE
  5
1B69
  8
0
 62
     0
 10
95.743998551969383
 20
16.750023107190849
 30
0.0
 11
95.743998551969383
 21
16.750023107190849
 31
0.0
  0
LINE
  5
1B6A
  8
0
 62
     0
 10
95.743998551969383
 20
19.528148107190852
 30
0.0
 11
95.743998551969383
 21
19.528148107190852
 31
0.0
  0
LINE
  5
1B6B
  8
0
 62
     0
 10
95.743998551969383
 20
22.306273107190851
 30
0.0
 11
95.743998551969383
 21
22.306273107190851
 31
0.0
  0
LINE
  5
1B6C
  8
0
 62
     0
 10
95.743998551969383
 20
38.975023107190829
 30
0.0
 11
95.743998551969383
 21
38.975023107190829
 31
0.0
  0
LINE
  5
1B6D
  8
0
 62
     0
 10
95.743998551969383
 20
41.753148107190839
 30
0.0
 11
95.743998551969383
 21
41.753148107190839
 31
0.0
  0
LINE
  5
1B6E
  8
0
 62
     0
 10
95.743998551969383
 20
44.531273107190842
 30
0.0
 11
95.743998551969383
 21
44.531273107190842
 31
0.0
  0
LINE
  5
1B6F
  8
0
 62
     0
 10
95.743998551969383
 20
47.309398107190837
 30
0.0
 11
95.743998551969383
 21
47.309398107190837
 31
0.0
  0
LINE
  5
1B70
  8
0
 62
     0
 10
95.743998551969383
 20
50.087523107190847
 30
0.0
 11
95.743998551969383
 21
50.087523107190847
 31
0.0
  0
LINE
  5
1B71
  8
0
 62
     0
 10
98.522123551969429
 20
26.473460607190798
 30
0.0
 11
98.522123551969429
 21
26.473460607190798
 31
0.0
  0
LINE
  5
1B72
  8
0
 62
     0
 10
98.522123551969429
 20
29.251585607190801
 30
0.0
 11
98.522123551969429
 21
29.251585607190801
 31
0.0
  0
LINE
  5
1B73
  8
0
 62
     0
 10
98.522123551969429
 20
32.029710607190793
 30
0.0
 11
98.522123551969429
 21
32.029710607190793
 31
0.0
  0
LINE
  5
1B74
  8
0
 62
     0
 10
98.522123551969429
 20
34.807835607190803
 30
0.0
 11
98.522123551969429
 21
34.807835607190803
 31
0.0
  0
LINE
  5
1B75
  8
0
 62
     0
 10
98.522123551969429
 20
9.8047106071907901
 30
0.0
 11
98.522123551969429
 21
9.8047106071907901
 31
0.0
  0
LINE
  5
1B76
  8
0
 62
     0
 10
98.522123551969429
 20
12.582835607190789
 30
0.0
 11
98.522123551969429
 21
12.582835607190789
 31
0.0
  0
LINE
  5
1B77
  8
0
 62
     0
 10
98.522123551969429
 20
15.36096060719079
 30
0.0
 11
98.522123551969429
 21
15.36096060719079
 31
0.0
  0
LINE
  5
1B78
  8
0
 62
     0
 10
98.522123551969429
 20
18.13908560719079
 30
0.0
 11
98.522123551969429
 21
18.13908560719079
 31
0.0
  0
LINE
  5
1B79
  8
0
 62
     0
 10
98.522123551969429
 20
20.917210607190789
 30
0.0
 11
98.522123551969429
 21
20.917210607190789
 31
0.0
  0
LINE
  5
1B7A
  8
0
 62
     0
 10
98.522123551969429
 20
23.695335607190788
 30
0.0
 11
98.522123551969429
 21
23.695335607190788
 31
0.0
  0
LINE
  5
1B7B
  8
0
 62
     0
 10
98.522123551969429
 20
37.585960607190771
 30
0.0
 11
98.522123551969429
 21
37.585960607190771
 31
0.0
  0
LINE
  5
1B7C
  8
0
 62
     0
 10
98.522123551969429
 20
40.364085607190773
 30
0.0
 11
98.522123551969429
 21
40.364085607190773
 31
0.0
  0
LINE
  5
1B7D
  8
0
 62
     0
 10
98.522123551969429
 20
43.142210607190769
 30
0.0
 11
98.522123551969429
 21
43.142210607190769
 31
0.0
  0
LINE
  5
1B7E
  8
0
 62
     0
 10
98.522123551969429
 20
45.920335607190779
 30
0.0
 11
98.522123551969429
 21
45.920335607190779
 31
0.0
  0
LINE
  5
1B7F
  8
0
 62
     0
 10
98.522123551969429
 20
48.698460607190782
 30
0.0
 11
98.522123551969429
 21
48.698460607190782
 31
0.0
  0
LINE
  5
1B80
  8
0
 62
     0
 10
98.522123551969429
 20
51.476585607190792
 30
0.0
 11
98.522123551969429
 21
51.476585607190792
 31
0.0
  0
LINE
  5
1B81
  8
0
 62
     0
 10
101.3002485519694
 20
25.084398107190761
 30
0.0
 11
101.3002485519694
 21
25.084398107190761
 31
0.0
  0
LINE
  5
1B82
  8
0
 62
     0
 10
101.3002485519694
 20
27.862523107190761
 30
0.0
 11
101.3002485519694
 21
27.862523107190761
 31
0.0
  0
LINE
  5
1B83
  8
0
 62
     0
 10
101.3002485519694
 20
30.64064810719076
 30
0.0
 11
101.3002485519694
 21
30.64064810719076
 31
0.0
  0
LINE
  5
1B84
  8
0
 62
     0
 10
101.3002485519694
 20
33.418773107190759
 30
0.0
 11
101.3002485519694
 21
33.418773107190759
 31
0.0
  0
LINE
  5
1B85
  8
0
 62
     0
 10
101.3002485519694
 20
36.196898107190762
 30
0.0
 11
101.3002485519694
 21
36.196898107190762
 31
0.0
  0
LINE
  5
1B86
  8
0
 62
     0
 10
101.3002485519694
 20
11.19377310719077
 30
0.0
 11
101.3002485519694
 21
11.19377310719077
 31
0.0
  0
LINE
  5
1B87
  8
0
 62
     0
 10
101.3002485519694
 20
13.971898107190761
 30
0.0
 11
101.3002485519694
 21
13.971898107190761
 31
0.0
  0
LINE
  5
1B88
  8
0
 62
     0
 10
101.3002485519694
 20
16.750023107190771
 30
0.0
 11
101.3002485519694
 21
16.750023107190771
 31
0.0
  0
LINE
  5
1B89
  8
0
 62
     0
 10
101.3002485519694
 20
19.528148107190759
 30
0.0
 11
101.3002485519694
 21
19.528148107190759
 31
0.0
  0
LINE
  5
1B8A
  8
0
 62
     0
 10
101.3002485519694
 20
22.306273107190769
 30
0.0
 11
101.3002485519694
 21
22.306273107190769
 31
0.0
  0
LINE
  5
1B8B
  8
0
 62
     0
 10
101.3002485519694
 20
38.975023107190751
 30
0.0
 11
101.3002485519694
 21
38.975023107190751
 31
0.0
  0
LINE
  5
1B8C
  8
0
 62
     0
 10
101.3002485519694
 20
41.753148107190754
 30
0.0
 11
101.3002485519694
 21
41.753148107190754
 31
0.0
  0
LINE
  5
1B8D
  8
0
 62
     0
 10
101.3002485519694
 20
44.531273107190749
 30
0.0
 11
101.3002485519694
 21
44.531273107190749
 31
0.0
  0
LINE
  5
1B8E
  8
0
 62
     0
 10
101.3002485519694
 20
47.309398107190759
 30
0.0
 11
101.3002485519694
 21
47.309398107190759
 31
0.0
  0
LINE
  5
1B8F
  8
0
 62
     0
 10
101.3002485519694
 20
50.087523107190762
 30
0.0
 11
101.3002485519694
 21
50.087523107190762
 31
0.0
  0
LINE
  5
1B90
  8
0
 62
     0
 10
104.07837355196941
 20
26.473460607190798
 30
0.0
 11
104.07837355196941
 21
26.473460607190798
 31
0.0
  0
LINE
  5
1B91
  8
0
 62
     0
 10
104.07837355196941
 20
29.251585607190801
 30
0.0
 11
104.07837355196941
 21
29.251585607190801
 31
0.0
  0
LINE
  5
1B92
  8
0
 62
     0
 10
104.07837355196941
 20
32.029710607190793
 30
0.0
 11
104.07837355196941
 21
32.029710607190793
 31
0.0
  0
LINE
  5
1B93
  8
0
 62
     0
 10
104.07837355196941
 20
34.807835607190803
 30
0.0
 11
104.07837355196941
 21
34.807835607190803
 31
0.0
  0
LINE
  5
1B94
  8
0
 62
     0
 10
104.07837355196941
 20
9.8047106071908203
 30
0.0
 11
104.07837355196941
 21
9.8047106071908203
 31
0.0
  0
LINE
  5
1B95
  8
0
 62
     0
 10
104.07837355196941
 20
12.58283560719082
 30
0.0
 11
104.07837355196941
 21
12.58283560719082
 31
0.0
  0
LINE
  5
1B96
  8
0
 62
     0
 10
104.07837355196941
 20
15.360960607190821
 30
0.0
 11
104.07837355196941
 21
15.360960607190821
 31
0.0
  0
LINE
  5
1B97
  8
0
 62
     0
 10
104.07837355196941
 20
18.139085607190822
 30
0.0
 11
104.07837355196941
 21
18.139085607190822
 31
0.0
  0
LINE
  5
1B98
  8
0
 62
     0
 10
104.07837355196941
 20
20.917210607190821
 30
0.0
 11
104.07837355196941
 21
20.917210607190821
 31
0.0
  0
LINE
  5
1B99
  8
0
 62
     0
 10
104.07837355196941
 20
23.69533560719082
 30
0.0
 11
104.07837355196941
 21
23.69533560719082
 31
0.0
  0
LINE
  5
1B9A
  8
0
 62
     0
 10
104.07837355196941
 20
37.585960607190799
 30
0.0
 11
104.07837355196941
 21
37.585960607190799
 31
0.0
  0
LINE
  5
1B9B
  8
0
 62
     0
 10
104.07837355196941
 20
40.364085607190802
 30
0.0
 11
104.07837355196941
 21
40.364085607190802
 31
0.0
  0
LINE
  5
1B9C
  8
0
 62
     0
 10
104.07837355196941
 20
43.142210607190798
 30
0.0
 11
104.07837355196941
 21
43.142210607190798
 31
0.0
  0
LINE
  5
1B9D
  8
0
 62
     0
 10
104.07837355196941
 20
45.9203356071908
 30
0.0
 11
104.07837355196941
 21
45.9203356071908
 31
0.0
  0
LINE
  5
1B9E
  8
0
 62
     0
 10
104.07837355196941
 20
48.69846060719081
 30
0.0
 11
104.07837355196941
 21
48.69846060719081
 31
0.0
  0
LINE
  5
1B9F
  8
0
 62
     0
 10
104.07837355196941
 20
51.476585607190813
 30
0.0
 11
104.07837355196941
 21
51.476585607190813
 31
0.0
  0
LINE
  5
1BA0
  8
0
 62
     0
 10
106.85649855196939
 20
25.08439810719079
 30
0.0
 11
106.85649855196939
 21
25.08439810719079
 31
0.0
  0
LINE
  5
1BA1
  8
0
 62
     0
 10
106.85649855196939
 20
27.862523107190789
 30
0.0
 11
106.85649855196939
 21
27.862523107190789
 31
0.0
  0
LINE
  5
1BA2
  8
0
 62
     0
 10
106.85649855196939
 20
30.640648107190788
 30
0.0
 11
106.85649855196939
 21
30.640648107190788
 31
0.0
  0
LINE
  5
1BA3
  8
0
 62
     0
 10
106.85649855196939
 20
33.418773107190788
 30
0.0
 11
106.85649855196939
 21
33.418773107190788
 31
0.0
  0
LINE
  5
1BA4
  8
0
 62
     0
 10
106.85649855196939
 20
36.19689810719079
 30
0.0
 11
106.85649855196939
 21
36.19689810719079
 31
0.0
  0
LINE
  5
1BA5
  8
0
 62
     0
 10
106.85649855196939
 20
11.19377310719079
 30
0.0
 11
106.85649855196939
 21
11.19377310719079
 31
0.0
  0
LINE
  5
1BA6
  8
0
 62
     0
 10
106.85649855196939
 20
13.971898107190791
 30
0.0
 11
106.85649855196939
 21
13.971898107190791
 31
0.0
  0
LINE
  5
1BA7
  8
0
 62
     0
 10
106.85649855196939
 20
16.750023107190788
 30
0.0
 11
106.85649855196939
 21
16.750023107190788
 31
0.0
  0
LINE
  5
1BA8
  8
0
 62
     0
 10
106.85649855196939
 20
19.528148107190791
 30
0.0
 11
106.85649855196939
 21
19.528148107190791
 31
0.0
  0
LINE
  5
1BA9
  8
0
 62
     0
 10
106.85649855196939
 20
22.30627310719079
 30
0.0
 11
106.85649855196939
 21
22.30627310719079
 31
0.0
  0
LINE
  5
1BAA
  8
0
 62
     0
 10
106.85649855196939
 20
38.975023107190779
 30
0.0
 11
106.85649855196939
 21
38.975023107190779
 31
0.0
  0
LINE
  5
1BAB
  8
0
 62
     0
 10
106.85649855196939
 20
41.753148107190782
 30
0.0
 11
106.85649855196939
 21
41.753148107190782
 31
0.0
  0
LINE
  5
1BAC
  8
0
 62
     0
 10
106.85649855196939
 20
44.531273107190778
 30
0.0
 11
106.85649855196939
 21
44.531273107190778
 31
0.0
  0
LINE
  5
1BAD
  8
0
 62
     0
 10
106.85649855196939
 20
47.309398107190781
 30
0.0
 11
106.85649855196939
 21
47.309398107190781
 31
0.0
  0
LINE
  5
1BAE
  8
0
 62
     0
 10
106.85649855196939
 20
50.08752310719079
 30
0.0
 11
106.85649855196939
 21
50.08752310719079
 31
0.0
  0
LINE
  5
1BAF
  8
0
 62
     0
 10
109.6346235519694
 20
26.47346060719082
 30
0.0
 11
109.6346235519694
 21
26.47346060719082
 31
0.0
  0
LINE
  5
1BB0
  8
0
 62
     0
 10
109.6346235519694
 20
29.251585607190819
 30
0.0
 11
109.6346235519694
 21
29.251585607190819
 31
0.0
  0
LINE
  5
1BB1
  8
0
 62
     0
 10
109.6346235519694
 20
32.029710607190822
 30
0.0
 11
109.6346235519694
 21
32.029710607190822
 31
0.0
  0
LINE
  5
1BB2
  8
0
 62
     0
 10
109.6346235519694
 20
34.807835607190817
 30
0.0
 11
109.6346235519694
 21
34.807835607190817
 31
0.0
  0
LINE
  5
1BB3
  8
0
 62
     0
 10
109.6346235519694
 20
9.8047106071908203
 30
0.0
 11
109.6346235519694
 21
9.8047106071908203
 31
0.0
  0
LINE
  5
1BB4
  8
0
 62
     0
 10
109.6346235519694
 20
12.58283560719082
 30
0.0
 11
109.6346235519694
 21
12.58283560719082
 31
0.0
  0
LINE
  5
1BB5
  8
0
 62
     0
 10
109.6346235519694
 20
15.360960607190821
 30
0.0
 11
109.6346235519694
 21
15.360960607190821
 31
0.0
  0
LINE
  5
1BB6
  8
0
 62
     0
 10
109.6346235519694
 20
18.139085607190822
 30
0.0
 11
109.6346235519694
 21
18.139085607190822
 31
0.0
  0
LINE
  5
1BB7
  8
0
 62
     0
 10
109.6346235519694
 20
20.917210607190821
 30
0.0
 11
109.6346235519694
 21
20.917210607190821
 31
0.0
  0
LINE
  5
1BB8
  8
0
 62
     0
 10
109.6346235519694
 20
23.69533560719082
 30
0.0
 11
109.6346235519694
 21
23.69533560719082
 31
0.0
  0
LINE
  5
1BB9
  8
0
 62
     0
 10
109.6346235519694
 20
37.585960607190799
 30
0.0
 11
109.6346235519694
 21
37.585960607190799
 31
0.0
  0
LINE
  5
1BBA
  8
0
 62
     0
 10
109.6346235519694
 20
40.364085607190802
 30
0.0
 11
109.6346235519694
 21
40.364085607190802
 31
0.0
  0
LINE
  5
1BBB
  8
0
 62
     0
 10
109.6346235519694
 20
43.142210607190798
 30
0.0
 11
109.6346235519694
 21
43.142210607190798
 31
0.0
  0
LINE
  5
1BBC
  8
0
 62
     0
 10
109.6346235519694
 20
45.9203356071908
 30
0.0
 11
109.6346235519694
 21
45.9203356071908
 31
0.0
  0
LINE
  5
1BBD
  8
0
 62
     0
 10
109.6346235519694
 20
48.69846060719081
 30
0.0
 11
109.6346235519694
 21
48.69846060719081
 31
0.0
  0
LINE
  5
1BBE
  8
0
 62
     0
 10
109.6346235519694
 20
51.476585607190813
 30
0.0
 11
109.6346235519694
 21
51.476585607190813
 31
0.0
  0
LINE
  5
1BBF
  8
0
 62
     0
 10
112.4127485519694
 20
25.08439810719079
 30
0.0
 11
112.4127485519694
 21
25.08439810719079
 31
0.0
  0
LINE
  5
1BC0
  8
0
 62
     0
 10
112.4127485519694
 20
27.862523107190789
 30
0.0
 11
112.4127485519694
 21
27.862523107190789
 31
0.0
  0
LINE
  5
1BC1
  8
0
 62
     0
 10
112.4127485519694
 20
30.640648107190788
 30
0.0
 11
112.4127485519694
 21
30.640648107190788
 31
0.0
  0
LINE
  5
1BC2
  8
0
 62
     0
 10
112.4127485519694
 20
33.418773107190788
 30
0.0
 11
112.4127485519694
 21
33.418773107190788
 31
0.0
  0
LINE
  5
1BC3
  8
0
 62
     0
 10
112.4127485519694
 20
36.19689810719079
 30
0.0
 11
112.4127485519694
 21
36.19689810719079
 31
0.0
  0
LINE
  5
1BC4
  8
0
 62
     0
 10
112.4127485519694
 20
11.19377310719079
 30
0.0
 11
112.4127485519694
 21
11.19377310719079
 31
0.0
  0
LINE
  5
1BC5
  8
0
 62
     0
 10
112.4127485519694
 20
13.971898107190791
 30
0.0
 11
112.4127485519694
 21
13.971898107190791
 31
0.0
  0
LINE
  5
1BC6
  8
0
 62
     0
 10
112.4127485519694
 20
16.750023107190788
 30
0.0
 11
112.4127485519694
 21
16.750023107190788
 31
0.0
  0
LINE
  5
1BC7
  8
0
 62
     0
 10
112.4127485519694
 20
19.528148107190791
 30
0.0
 11
112.4127485519694
 21
19.528148107190791
 31
0.0
  0
LINE
  5
1BC8
  8
0
 62
     0
 10
112.4127485519694
 20
22.30627310719079
 30
0.0
 11
112.4127485519694
 21
22.30627310719079
 31
0.0
  0
LINE
  5
1BC9
  8
0
 62
     0
 10
112.4127485519694
 20
38.975023107190779
 30
0.0
 11
112.4127485519694
 21
38.975023107190779
 31
0.0
  0
LINE
  5
1BCA
  8
0
 62
     0
 10
112.4127485519694
 20
41.753148107190782
 30
0.0
 11
112.4127485519694
 21
41.753148107190782
 31
0.0
  0
LINE
  5
1BCB
  8
0
 62
     0
 10
112.4127485519694
 20
44.531273107190778
 30
0.0
 11
112.4127485519694
 21
44.531273107190778
 31
0.0
  0
LINE
  5
1BCC
  8
0
 62
     0
 10
112.4127485519694
 20
47.309398107190781
 30
0.0
 11
112.4127485519694
 21
47.309398107190781
 31
0.0
  0
LINE
  5
1BCD
  8
0
 62
     0
 10
112.4127485519694
 20
50.08752310719079
 30
0.0
 11
112.4127485519694
 21
50.08752310719079
 31
0.0
  0
LINE
  5
1BCE
  8
0
 62
     0
 10
115.1908735519694
 20
26.47346060719077
 30
0.0
 11
115.1908735519694
 21
26.47346060719077
 31
0.0
  0
LINE
  5
1BCF
  8
0
 62
     0
 10
115.1908735519694
 20
29.251585607190769
 30
0.0
 11
115.1908735519694
 21
29.251585607190769
 31
0.0
  0
LINE
  5
1BD0
  8
0
 62
     0
 10
115.1908735519694
 20
32.029710607190772
 30
0.0
 11
115.1908735519694
 21
32.029710607190772
 31
0.0
  0
LINE
  5
1BD1
  8
0
 62
     0
 10
115.1908735519694
 20
34.807835607190768
 30
0.0
 11
115.1908735519694
 21
34.807835607190768
 31
0.0
  0
LINE
  5
1BD2
  8
0
 62
     0
 10
115.1908735519694
 20
9.8047106071907901
 30
0.0
 11
115.1908735519694
 21
9.8047106071907901
 31
0.0
  0
LINE
  5
1BD3
  8
0
 62
     0
 10
115.1908735519694
 20
12.582835607190789
 30
0.0
 11
115.1908735519694
 21
12.582835607190789
 31
0.0
  0
LINE
  5
1BD4
  8
0
 62
     0
 10
115.1908735519694
 20
15.36096060719079
 30
0.0
 11
115.1908735519694
 21
15.36096060719079
 31
0.0
  0
LINE
  5
1BD5
  8
0
 62
     0
 10
115.1908735519694
 20
18.13908560719079
 30
0.0
 11
115.1908735519694
 21
18.13908560719079
 31
0.0
  0
LINE
  5
1BD6
  8
0
 62
     0
 10
115.1908735519694
 20
20.917210607190789
 30
0.0
 11
115.1908735519694
 21
20.917210607190789
 31
0.0
  0
LINE
  5
1BD7
  8
0
 62
     0
 10
115.1908735519694
 20
23.695335607190788
 30
0.0
 11
115.1908735519694
 21
23.695335607190788
 31
0.0
  0
LINE
  5
1BD8
  8
0
 62
     0
 10
115.1908735519694
 20
37.585960607190771
 30
0.0
 11
115.1908735519694
 21
37.585960607190771
 31
0.0
  0
LINE
  5
1BD9
  8
0
 62
     0
 10
115.1908735519694
 20
40.364085607190773
 30
0.0
 11
115.1908735519694
 21
40.364085607190773
 31
0.0
  0
LINE
  5
1BDA
  8
0
 62
     0
 10
115.1908735519694
 20
43.142210607190769
 30
0.0
 11
115.1908735519694
 21
43.142210607190769
 31
0.0
  0
LINE
  5
1BDB
  8
0
 62
     0
 10
115.1908735519694
 20
45.920335607190779
 30
0.0
 11
115.1908735519694
 21
45.920335607190779
 31
0.0
  0
LINE
  5
1BDC
  8
0
 62
     0
 10
115.1908735519694
 20
48.698460607190782
 30
0.0
 11
115.1908735519694
 21
48.698460607190782
 31
0.0
  0
LINE
  5
1BDD
  8
0
 62
     0
 10
115.1908735519694
 20
51.476585607190792
 30
0.0
 11
115.1908735519694
 21
51.476585607190792
 31
0.0
  0
LINE
  5
1BDE
  8
0
 62
     0
 10
117.96899855196941
 20
25.084398107190761
 30
0.0
 11
117.96899855196941
 21
25.084398107190761
 31
0.0
  0
LINE
  5
1BDF
  8
0
 62
     0
 10
117.96899855196941
 20
27.862523107190761
 30
0.0
 11
117.96899855196941
 21
27.862523107190761
 31
0.0
  0
LINE
  5
1BE0
  8
0
 62
     0
 10
117.96899855196941
 20
30.64064810719076
 30
0.0
 11
117.96899855196941
 21
30.64064810719076
 31
0.0
  0
LINE
  5
1BE1
  8
0
 62
     0
 10
117.96899855196941
 20
33.418773107190759
 30
0.0
 11
117.96899855196941
 21
33.418773107190759
 31
0.0
  0
LINE
  5
1BE2
  8
0
 62
     0
 10
117.96899855196941
 20
36.196898107190762
 30
0.0
 11
117.96899855196941
 21
36.196898107190762
 31
0.0
  0
LINE
  5
1BE3
  8
0
 62
     0
 10
117.96899855196941
 20
11.19377310719077
 30
0.0
 11
117.96899855196941
 21
11.19377310719077
 31
0.0
  0
LINE
  5
1BE4
  8
0
 62
     0
 10
117.96899855196941
 20
13.971898107190761
 30
0.0
 11
117.96899855196941
 21
13.971898107190761
 31
0.0
  0
LINE
  5
1BE5
  8
0
 62
     0
 10
117.96899855196941
 20
16.750023107190771
 30
0.0
 11
117.96899855196941
 21
16.750023107190771
 31
0.0
  0
LINE
  5
1BE6
  8
0
 62
     0
 10
117.96899855196941
 20
19.528148107190759
 30
0.0
 11
117.96899855196941
 21
19.528148107190759
 31
0.0
  0
LINE
  5
1BE7
  8
0
 62
     0
 10
117.96899855196941
 20
22.306273107190769
 30
0.0
 11
117.96899855196941
 21
22.306273107190769
 31
0.0
  0
LINE
  5
1BE8
  8
0
 62
     0
 10
117.96899855196941
 20
38.975023107190751
 30
0.0
 11
117.96899855196941
 21
38.975023107190751
 31
0.0
  0
LINE
  5
1BE9
  8
0
 62
     0
 10
117.96899855196941
 20
41.753148107190754
 30
0.0
 11
117.96899855196941
 21
41.753148107190754
 31
0.0
  0
LINE
  5
1BEA
  8
0
 62
     0
 10
117.96899855196941
 20
44.531273107190749
 30
0.0
 11
117.96899855196941
 21
44.531273107190749
 31
0.0
  0
LINE
  5
1BEB
  8
0
 62
     0
 10
117.96899855196941
 20
47.309398107190759
 30
0.0
 11
117.96899855196941
 21
47.309398107190759
 31
0.0
  0
LINE
  5
1BEC
  8
0
 62
     0
 10
117.96899855196941
 20
50.087523107190762
 30
0.0
 11
117.96899855196941
 21
50.087523107190762
 31
0.0
  0
LINE
  5
1BED
  8
0
 62
     0
 10
120.74712355196939
 20
26.473460607190798
 30
0.0
 11
120.74712355196939
 21
26.473460607190798
 31
0.0
  0
LINE
  5
1BEE
  8
0
 62
     0
 10
120.74712355196939
 20
29.251585607190801
 30
0.0
 11
120.74712355196939
 21
29.251585607190801
 31
0.0
  0
LINE
  5
1BEF
  8
0
 62
     0
 10
120.74712355196939
 20
32.029710607190793
 30
0.0
 11
120.74712355196939
 21
32.029710607190793
 31
0.0
  0
LINE
  5
1BF0
  8
0
 62
     0
 10
120.74712355196939
 20
34.807835607190803
 30
0.0
 11
120.74712355196939
 21
34.807835607190803
 31
0.0
  0
LINE
  5
1BF1
  8
0
 62
     0
 10
120.74712355196939
 20
9.8047106071907901
 30
0.0
 11
120.74712355196939
 21
9.8047106071907901
 31
0.0
  0
LINE
  5
1BF2
  8
0
 62
     0
 10
120.74712355196939
 20
12.582835607190789
 30
0.0
 11
120.74712355196939
 21
12.582835607190789
 31
0.0
  0
LINE
  5
1BF3
  8
0
 62
     0
 10
120.74712355196939
 20
15.36096060719079
 30
0.0
 11
120.74712355196939
 21
15.36096060719079
 31
0.0
  0
LINE
  5
1BF4
  8
0
 62
     0
 10
120.74712355196939
 20
18.13908560719079
 30
0.0
 11
120.74712355196939
 21
18.13908560719079
 31
0.0
  0
LINE
  5
1BF5
  8
0
 62
     0
 10
120.74712355196939
 20
20.917210607190789
 30
0.0
 11
120.74712355196939
 21
20.917210607190789
 31
0.0
  0
LINE
  5
1BF6
  8
0
 62
     0
 10
120.74712355196939
 20
23.695335607190788
 30
0.0
 11
120.74712355196939
 21
23.695335607190788
 31
0.0
  0
LINE
  5
1BF7
  8
0
 62
     0
 10
120.74712355196939
 20
37.585960607190771
 30
0.0
 11
120.74712355196939
 21
37.585960607190771
 31
0.0
  0
LINE
  5
1BF8
  8
0
 62
     0
 10
120.74712355196939
 20
40.364085607190773
 30
0.0
 11
120.74712355196939
 21
40.364085607190773
 31
0.0
  0
LINE
  5
1BF9
  8
0
 62
     0
 10
120.74712355196939
 20
43.142210607190769
 30
0.0
 11
120.74712355196939
 21
43.142210607190769
 31
0.0
  0
LINE
  5
1BFA
  8
0
 62
     0
 10
120.74712355196939
 20
45.920335607190779
 30
0.0
 11
120.74712355196939
 21
45.920335607190779
 31
0.0
  0
LINE
  5
1BFB
  8
0
 62
     0
 10
120.74712355196939
 20
48.698460607190782
 30
0.0
 11
120.74712355196939
 21
48.698460607190782
 31
0.0
  0
LINE
  5
1BFC
  8
0
 62
     0
 10
120.74712355196939
 20
51.476585607190792
 30
0.0
 11
120.74712355196939
 21
51.476585607190792
 31
0.0
  0
LINE
  5
1BFD
  8
0
 62
     0
 10
123.5252485519694
 20
25.084398107190822
 30
0.0
 11
123.5252485519694
 21
25.084398107190822
 31
0.0
  0
LINE
  5
1BFE
  8
0
 62
     0
 10
123.5252485519694
 20
27.862523107190821
 30
0.0
 11
123.5252485519694
 21
27.862523107190821
 31
0.0
  0
LINE
  5
1BFF
  8
0
 62
     0
 10
123.5252485519694
 20
30.64064810719082
 30
0.0
 11
123.5252485519694
 21
30.64064810719082
 31
0.0
  0
LINE
  5
1C00
  8
0
 62
     0
 10
123.5252485519694
 20
33.418773107190823
 30
0.0
 11
123.5252485519694
 21
33.418773107190823
 31
0.0
  0
LINE
  5
1C01
  8
0
 62
     0
 10
123.5252485519694
 20
36.196898107190819
 30
0.0
 11
123.5252485519694
 21
36.196898107190819
 31
0.0
  0
LINE
  5
1C02
  8
0
 62
     0
 10
123.5252485519694
 20
11.19377310719082
 30
0.0
 11
123.5252485519694
 21
11.19377310719082
 31
0.0
  0
LINE
  5
1C03
  8
0
 62
     0
 10
123.5252485519694
 20
13.971898107190819
 30
0.0
 11
123.5252485519694
 21
13.971898107190819
 31
0.0
  0
LINE
  5
1C04
  8
0
 62
     0
 10
123.5252485519694
 20
16.75002310719082
 30
0.0
 11
123.5252485519694
 21
16.75002310719082
 31
0.0
  0
LINE
  5
1C05
  8
0
 62
     0
 10
123.5252485519694
 20
19.52814810719082
 30
0.0
 11
123.5252485519694
 21
19.52814810719082
 31
0.0
  0
LINE
  5
1C06
  8
0
 62
     0
 10
123.5252485519694
 20
22.306273107190819
 30
0.0
 11
123.5252485519694
 21
22.306273107190819
 31
0.0
  0
LINE
  5
1C07
  8
0
 62
     0
 10
123.5252485519694
 20
38.975023107190808
 30
0.0
 11
123.5252485519694
 21
38.975023107190808
 31
0.0
  0
LINE
  5
1C08
  8
0
 62
     0
 10
123.5252485519694
 20
41.75314810719081
 30
0.0
 11
123.5252485519694
 21
41.75314810719081
 31
0.0
  0
LINE
  5
1C09
  8
0
 62
     0
 10
123.5252485519694
 20
44.531273107190813
 30
0.0
 11
123.5252485519694
 21
44.531273107190813
 31
0.0
  0
LINE
  5
1C0A
  8
0
 62
     0
 10
123.5252485519694
 20
47.309398107190809
 30
0.0
 11
123.5252485519694
 21
47.309398107190809
 31
0.0
  0
LINE
  5
1C0B
  8
0
 62
     0
 10
123.5252485519694
 20
50.087523107190812
 30
0.0
 11
123.5252485519694
 21
50.087523107190812
 31
0.0
  0
LINE
  5
1C0C
  8
0
 62
     0
 10
126.3033735519694
 20
26.473460607190798
 30
0.0
 11
126.3033735519694
 21
26.473460607190798
 31
0.0
  0
LINE
  5
1C0D
  8
0
 62
     0
 10
126.3033735519694
 20
29.251585607190801
 30
0.0
 11
126.3033735519694
 21
29.251585607190801
 31
0.0
  0
LINE
  5
1C0E
  8
0
 62
     0
 10
126.3033735519694
 20
32.029710607190793
 30
0.0
 11
126.3033735519694
 21
32.029710607190793
 31
0.0
  0
LINE
  5
1C0F
  8
0
 62
     0
 10
126.3033735519694
 20
34.807835607190803
 30
0.0
 11
126.3033735519694
 21
34.807835607190803
 31
0.0
  0
LINE
  5
1C10
  8
0
 62
     0
 10
126.3033735519694
 20
9.8047106071907901
 30
0.0
 11
126.3033735519694
 21
9.8047106071907901
 31
0.0
  0
LINE
  5
1C11
  8
0
 62
     0
 10
126.3033735519694
 20
12.582835607190789
 30
0.0
 11
126.3033735519694
 21
12.582835607190789
 31
0.0
  0
LINE
  5
1C12
  8
0
 62
     0
 10
126.3033735519694
 20
15.36096060719079
 30
0.0
 11
126.3033735519694
 21
15.36096060719079
 31
0.0
  0
LINE
  5
1C13
  8
0
 62
     0
 10
126.3033735519694
 20
18.13908560719079
 30
0.0
 11
126.3033735519694
 21
18.13908560719079
 31
0.0
  0
LINE
  5
1C14
  8
0
 62
     0
 10
126.3033735519694
 20
20.917210607190789
 30
0.0
 11
126.3033735519694
 21
20.917210607190789
 31
0.0
  0
LINE
  5
1C15
  8
0
 62
     0
 10
126.3033735519694
 20
23.695335607190788
 30
0.0
 11
126.3033735519694
 21
23.695335607190788
 31
0.0
  0
LINE
  5
1C16
  8
0
 62
     0
 10
126.3033735519694
 20
37.585960607190771
 30
0.0
 11
126.3033735519694
 21
37.585960607190771
 31
0.0
  0
LINE
  5
1C17
  8
0
 62
     0
 10
126.3033735519694
 20
40.364085607190773
 30
0.0
 11
126.3033735519694
 21
40.364085607190773
 31
0.0
  0
LINE
  5
1C18
  8
0
 62
     0
 10
126.3033735519694
 20
43.142210607190769
 30
0.0
 11
126.3033735519694
 21
43.142210607190769
 31
0.0
  0
LINE
  5
1C19
  8
0
 62
     0
 10
126.3033735519694
 20
45.920335607190779
 30
0.0
 11
126.3033735519694
 21
45.920335607190779
 31
0.0
  0
LINE
  5
1C1A
  8
0
 62
     0
 10
126.3033735519694
 20
48.698460607190782
 30
0.0
 11
126.3033735519694
 21
48.698460607190782
 31
0.0
  0
LINE
  5
1C1B
  8
0
 62
     0
 10
126.3033735519694
 20
51.476585607190792
 30
0.0
 11
126.3033735519694
 21
51.476585607190792
 31
0.0
  0
LINE
  5
1C1C
  8
0
 62
     0
 10
129.08149855196939
 20
25.084398107190761
 30
0.0
 11
129.08149855196939
 21
25.084398107190761
 31
0.0
  0
LINE
  5
1C1D
  8
0
 62
     0
 10
129.08149855196939
 20
27.862523107190761
 30
0.0
 11
129.08149855196939
 21
27.862523107190761
 31
0.0
  0
LINE
  5
1C1E
  8
0
 62
     0
 10
129.08149855196939
 20
30.64064810719076
 30
0.0
 11
129.08149855196939
 21
30.64064810719076
 31
0.0
  0
LINE
  5
1C1F
  8
0
 62
     0
 10
129.08149855196939
 20
33.418773107190759
 30
0.0
 11
129.08149855196939
 21
33.418773107190759
 31
0.0
  0
LINE
  5
1C20
  8
0
 62
     0
 10
129.08149855196939
 20
36.196898107190762
 30
0.0
 11
129.08149855196939
 21
36.196898107190762
 31
0.0
  0
LINE
  5
1C21
  8
0
 62
     0
 10
129.08149855196939
 20
13.971898107190761
 30
0.0
 11
129.08149855196939
 21
13.971898107190761
 31
0.0
  0
LINE
  5
1C22
  8
0
 62
     0
 10
129.08149855196939
 20
16.750023107190771
 30
0.0
 11
129.08149855196939
 21
16.750023107190771
 31
0.0
  0
LINE
  5
1C23
  8
0
 62
     0
 10
129.08149855196939
 20
19.528148107190759
 30
0.0
 11
129.08149855196939
 21
19.528148107190759
 31
0.0
  0
LINE
  5
1C24
  8
0
 62
     0
 10
129.08149855196939
 20
22.306273107190769
 30
0.0
 11
129.08149855196939
 21
22.306273107190769
 31
0.0
  0
LINE
  5
1C25
  8
0
 62
     0
 10
129.08149855196939
 20
38.975023107190758
 30
0.0
 11
129.08149855196939
 21
38.975023107190758
 31
0.0
  0
LINE
  5
1C26
  8
0
 62
     0
 10
129.08149855196939
 20
41.753148107190761
 30
0.0
 11
129.08149855196939
 21
41.753148107190761
 31
0.0
  0
LINE
  5
1C27
  8
0
 62
     0
 10
129.08149855196939
 20
44.531273107190771
 30
0.0
 11
129.08149855196939
 21
44.531273107190771
 31
0.0
  0
LINE
  5
1C28
  8
0
 62
     0
 10
129.08149855196939
 20
47.309398107190773
 30
0.0
 11
129.08149855196939
 21
47.309398107190773
 31
0.0
  0
LINE
  5
1C29
  8
0
 62
     0
 10
131.85962355196941
 20
26.473460607190741
 30
0.0
 11
131.85962355196941
 21
26.473460607190741
 31
0.0
  0
LINE
  5
1C2A
  8
0
 62
     0
 10
131.85962355196941
 20
29.251585607190741
 30
0.0
 11
131.85962355196941
 21
29.251585607190741
 31
0.0
  0
LINE
  5
1C2B
  8
0
 62
     0
 10
131.85962355196941
 20
32.029710607190736
 30
0.0
 11
131.85962355196941
 21
32.029710607190736
 31
0.0
  0
LINE
  5
1C2C
  8
0
 62
     0
 10
131.85962355196941
 20
34.807835607190739
 30
0.0
 11
131.85962355196941
 21
34.807835607190739
 31
0.0
  0
LINE
  5
1C2D
  8
0
 62
     0
 10
131.85962355196941
 20
15.36096060719076
 30
0.0
 11
131.85962355196941
 21
15.36096060719076
 31
0.0
  0
LINE
  5
1C2E
  8
0
 62
     0
 10
131.85962355196941
 20
18.139085607190761
 30
0.0
 11
131.85962355196941
 21
18.139085607190761
 31
0.0
  0
LINE
  5
1C2F
  8
0
 62
     0
 10
131.85962355196941
 20
20.917210607190761
 30
0.0
 11
131.85962355196941
 21
20.917210607190761
 31
0.0
  0
LINE
  5
1C30
  8
0
 62
     0
 10
131.85962355196941
 20
23.69533560719076
 30
0.0
 11
131.85962355196941
 21
23.69533560719076
 31
0.0
  0
LINE
  5
1C31
  8
0
 62
     0
 10
131.85962355196941
 20
37.585960607190742
 30
0.0
 11
131.85962355196941
 21
37.585960607190742
 31
0.0
  0
LINE
  5
1C32
  8
0
 62
     0
 10
131.85962355196941
 20
40.364085607190738
 30
0.0
 11
131.85962355196941
 21
40.364085607190738
 31
0.0
  0
LINE
  5
1C33
  8
0
 62
     0
 10
131.85962355196941
 20
43.142210607190741
 30
0.0
 11
131.85962355196941
 21
43.142210607190741
 31
0.0
  0
LINE
  5
1C34
  8
0
 62
     0
 10
131.85962355196941
 20
45.920335607190751
 30
0.0
 11
131.85962355196941
 21
45.920335607190751
 31
0.0
  0
LINE
  5
1C35
  8
0
 62
     0
 10
134.63774855196939
 20
25.08439810719079
 30
0.0
 11
134.63774855196939
 21
25.08439810719079
 31
0.0
  0
LINE
  5
1C36
  8
0
 62
     0
 10
134.63774855196939
 20
27.862523107190789
 30
0.0
 11
134.63774855196939
 21
27.862523107190789
 31
0.0
  0
LINE
  5
1C37
  8
0
 62
     0
 10
134.63774855196939
 20
30.640648107190788
 30
0.0
 11
134.63774855196939
 21
30.640648107190788
 31
0.0
  0
LINE
  5
1C38
  8
0
 62
     0
 10
134.63774855196939
 20
33.418773107190788
 30
0.0
 11
134.63774855196939
 21
33.418773107190788
 31
0.0
  0
LINE
  5
1C39
  8
0
 62
     0
 10
134.63774855196939
 20
36.19689810719079
 30
0.0
 11
134.63774855196939
 21
36.19689810719079
 31
0.0
  0
LINE
  5
1C3A
  8
0
 62
     0
 10
134.63774855196939
 20
13.971898107190791
 30
0.0
 11
134.63774855196939
 21
13.971898107190791
 31
0.0
  0
LINE
  5
1C3B
  8
0
 62
     0
 10
134.63774855196939
 20
16.750023107190788
 30
0.0
 11
134.63774855196939
 21
16.750023107190788
 31
0.0
  0
LINE
  5
1C3C
  8
0
 62
     0
 10
134.63774855196939
 20
19.528148107190791
 30
0.0
 11
134.63774855196939
 21
19.528148107190791
 31
0.0
  0
LINE
  5
1C3D
  8
0
 62
     0
 10
134.63774855196939
 20
22.30627310719079
 30
0.0
 11
134.63774855196939
 21
22.30627310719079
 31
0.0
  0
LINE
  5
1C3E
  8
0
 62
     0
 10
134.63774855196939
 20
38.975023107190758
 30
0.0
 11
134.63774855196939
 21
38.975023107190758
 31
0.0
  0
LINE
  5
1C3F
  8
0
 62
     0
 10
134.63774855196939
 20
41.753148107190761
 30
0.0
 11
134.63774855196939
 21
41.753148107190761
 31
0.0
  0
LINE
  5
1C40
  8
0
 62
     0
 10
134.63774855196939
 20
44.531273107190771
 30
0.0
 11
134.63774855196939
 21
44.531273107190771
 31
0.0
  0
LINE
  5
1C41
  8
0
 62
     0
 10
134.63774855196939
 20
47.309398107190773
 30
0.0
 11
134.63774855196939
 21
47.309398107190773
 31
0.0
  0
LINE
  5
1C42
  8
0
 62
     0
 10
137.41587355196941
 20
26.47346060719082
 30
0.0
 11
137.41587355196941
 21
26.47346060719082
 31
0.0
  0
LINE
  5
1C43
  8
0
 62
     0
 10
137.41587355196941
 20
29.251585607190819
 30
0.0
 11
137.41587355196941
 21
29.251585607190819
 31
0.0
  0
LINE
  5
1C44
  8
0
 62
     0
 10
137.41587355196941
 20
32.029710607190822
 30
0.0
 11
137.41587355196941
 21
32.029710607190822
 31
0.0
  0
LINE
  5
1C45
  8
0
 62
     0
 10
137.41587355196941
 20
34.807835607190817
 30
0.0
 11
137.41587355196941
 21
34.807835607190817
 31
0.0
  0
LINE
  5
1C46
  8
0
 62
     0
 10
137.41587355196941
 20
15.360960607190821
 30
0.0
 11
137.41587355196941
 21
15.360960607190821
 31
0.0
  0
LINE
  5
1C47
  8
0
 62
     0
 10
137.41587355196941
 20
18.139085607190822
 30
0.0
 11
137.41587355196941
 21
18.139085607190822
 31
0.0
  0
LINE
  5
1C48
  8
0
 62
     0
 10
137.41587355196941
 20
20.917210607190821
 30
0.0
 11
137.41587355196941
 21
20.917210607190821
 31
0.0
  0
LINE
  5
1C49
  8
0
 62
     0
 10
137.41587355196941
 20
23.69533560719082
 30
0.0
 11
137.41587355196941
 21
23.69533560719082
 31
0.0
  0
LINE
  5
1C4A
  8
0
 62
     0
 10
137.41587355196941
 20
37.585960607190799
 30
0.0
 11
137.41587355196941
 21
37.585960607190799
 31
0.0
  0
LINE
  5
1C4B
  8
0
 62
     0
 10
137.41587355196941
 20
40.364085607190802
 30
0.0
 11
137.41587355196941
 21
40.364085607190802
 31
0.0
  0
LINE
  5
1C4C
  8
0
 62
     0
 10
137.41587355196941
 20
43.142210607190798
 30
0.0
 11
137.41587355196941
 21
43.142210607190798
 31
0.0
  0
LINE
  5
1C4D
  8
0
 62
     0
 10
137.41587355196941
 20
45.9203356071908
 30
0.0
 11
137.41587355196941
 21
45.9203356071908
 31
0.0
  0
LINE
  5
1C4E
  8
0
 62
     0
 10
140.1939985519694
 20
25.08439810719079
 30
0.0
 11
140.1939985519694
 21
25.08439810719079
 31
0.0
  0
LINE
  5
1C4F
  8
0
 62
     0
 10
140.1939985519694
 20
27.862523107190789
 30
0.0
 11
140.1939985519694
 21
27.862523107190789
 31
0.0
  0
LINE
  5
1C50
  8
0
 62
     0
 10
140.1939985519694
 20
30.640648107190788
 30
0.0
 11
140.1939985519694
 21
30.640648107190788
 31
0.0
  0
LINE
  5
1C51
  8
0
 62
     0
 10
140.1939985519694
 20
33.418773107190788
 30
0.0
 11
140.1939985519694
 21
33.418773107190788
 31
0.0
  0
LINE
  5
1C52
  8
0
 62
     0
 10
140.1939985519694
 20
36.19689810719079
 30
0.0
 11
140.1939985519694
 21
36.19689810719079
 31
0.0
  0
LINE
  5
1C53
  8
0
 62
     0
 10
140.1939985519694
 20
13.971898107190791
 30
0.0
 11
140.1939985519694
 21
13.971898107190791
 31
0.0
  0
LINE
  5
1C54
  8
0
 62
     0
 10
140.1939985519694
 20
16.750023107190788
 30
0.0
 11
140.1939985519694
 21
16.750023107190788
 31
0.0
  0
LINE
  5
1C55
  8
0
 62
     0
 10
140.1939985519694
 20
19.528148107190791
 30
0.0
 11
140.1939985519694
 21
19.528148107190791
 31
0.0
  0
LINE
  5
1C56
  8
0
 62
     0
 10
140.1939985519694
 20
22.30627310719079
 30
0.0
 11
140.1939985519694
 21
22.30627310719079
 31
0.0
  0
LINE
  5
1C57
  8
0
 62
     0
 10
140.1939985519694
 20
38.9750231071908
 30
0.0
 11
140.1939985519694
 21
38.9750231071908
 31
0.0
  0
LINE
  5
1C58
  8
0
 62
     0
 10
140.1939985519694
 20
41.753148107190789
 30
0.0
 11
140.1939985519694
 21
41.753148107190789
 31
0.0
  0
LINE
  5
1C59
  8
0
 62
     0
 10
140.1939985519694
 20
44.531273107190799
 30
0.0
 11
140.1939985519694
 21
44.531273107190799
 31
0.0
  0
LINE
  5
1C5A
  8
0
 62
     0
 10
140.1939985519694
 20
47.309398107190802
 30
0.0
 11
140.1939985519694
 21
47.309398107190802
 31
0.0
  0
LINE
  5
1C5B
  8
0
 62
     0
 10
142.97212355196939
 20
26.47346060719077
 30
0.0
 11
142.97212355196939
 21
26.47346060719077
 31
0.0
  0
LINE
  5
1C5C
  8
0
 62
     0
 10
142.97212355196939
 20
29.251585607190769
 30
0.0
 11
142.97212355196939
 21
29.251585607190769
 31
0.0
  0
LINE
  5
1C5D
  8
0
 62
     0
 10
142.97212355196939
 20
32.029710607190772
 30
0.0
 11
142.97212355196939
 21
32.029710607190772
 31
0.0
  0
LINE
  5
1C5E
  8
0
 62
     0
 10
142.97212355196939
 20
34.807835607190768
 30
0.0
 11
142.97212355196939
 21
34.807835607190768
 31
0.0
  0
LINE
  5
1C5F
  8
0
 62
     0
 10
142.97212355196939
 20
15.36096060719079
 30
0.0
 11
142.97212355196939
 21
15.36096060719079
 31
0.0
  0
LINE
  5
1C60
  8
0
 62
     0
 10
142.97212355196939
 20
18.13908560719079
 30
0.0
 11
142.97212355196939
 21
18.13908560719079
 31
0.0
  0
LINE
  5
1C61
  8
0
 62
     0
 10
142.97212355196939
 20
20.917210607190789
 30
0.0
 11
142.97212355196939
 21
20.917210607190789
 31
0.0
  0
LINE
  5
1C62
  8
0
 62
     0
 10
142.97212355196939
 20
23.695335607190788
 30
0.0
 11
142.97212355196939
 21
23.695335607190788
 31
0.0
  0
LINE
  5
1C63
  8
0
 62
     0
 10
142.97212355196939
 20
37.585960607190771
 30
0.0
 11
142.97212355196939
 21
37.585960607190771
 31
0.0
  0
LINE
  5
1C64
  8
0
 62
     0
 10
142.97212355196939
 20
40.364085607190773
 30
0.0
 11
142.97212355196939
 21
40.364085607190773
 31
0.0
  0
LINE
  5
1C65
  8
0
 62
     0
 10
142.97212355196939
 20
43.142210607190769
 30
0.0
 11
142.97212355196939
 21
43.142210607190769
 31
0.0
  0
LINE
  5
1C66
  8
0
 62
     0
 10
142.97212355196939
 20
45.920335607190779
 30
0.0
 11
142.97212355196939
 21
45.920335607190779
 31
0.0
  0
LINE
  5
1C67
  8
0
 62
     0
 10
145.75024855196941
 20
25.084398107190822
 30
0.0
 11
145.75024855196941
 21
25.084398107190822
 31
0.0
  0
LINE
  5
1C68
  8
0
 62
     0
 10
145.75024855196941
 20
27.862523107190821
 30
0.0
 11
145.75024855196941
 21
27.862523107190821
 31
0.0
  0
LINE
  5
1C69
  8
0
 62
     0
 10
145.75024855196941
 20
30.64064810719082
 30
0.0
 11
145.75024855196941
 21
30.64064810719082
 31
0.0
  0
LINE
  5
1C6A
  8
0
 62
     0
 10
145.75024855196941
 20
33.418773107190823
 30
0.0
 11
145.75024855196941
 21
33.418773107190823
 31
0.0
  0
LINE
  5
1C6B
  8
0
 62
     0
 10
145.75024855196941
 20
36.196898107190819
 30
0.0
 11
145.75024855196941
 21
36.196898107190819
 31
0.0
  0
LINE
  5
1C6C
  8
0
 62
     0
 10
145.75024855196941
 20
13.971898107190819
 30
0.0
 11
145.75024855196941
 21
13.971898107190819
 31
0.0
  0
LINE
  5
1C6D
  8
0
 62
     0
 10
145.75024855196941
 20
16.75002310719082
 30
0.0
 11
145.75024855196941
 21
16.75002310719082
 31
0.0
  0
LINE
  5
1C6E
  8
0
 62
     0
 10
145.75024855196941
 20
19.52814810719082
 30
0.0
 11
145.75024855196941
 21
19.52814810719082
 31
0.0
  0
LINE
  5
1C6F
  8
0
 62
     0
 10
145.75024855196941
 20
22.306273107190819
 30
0.0
 11
145.75024855196941
 21
22.306273107190819
 31
0.0
  0
LINE
  5
1C70
  8
0
 62
     0
 10
145.75024855196941
 20
38.9750231071908
 30
0.0
 11
145.75024855196941
 21
38.9750231071908
 31
0.0
  0
LINE
  5
1C71
  8
0
 62
     0
 10
145.75024855196941
 20
41.753148107190789
 30
0.0
 11
145.75024855196941
 21
41.753148107190789
 31
0.0
  0
LINE
  5
1C72
  8
0
 62
     0
 10
145.75024855196941
 20
44.531273107190799
 30
0.0
 11
145.75024855196941
 21
44.531273107190799
 31
0.0
  0
LINE
  5
1C73
  8
0
 62
     0
 10
145.75024855196941
 20
47.309398107190802
 30
0.0
 11
145.75024855196941
 21
47.309398107190802
 31
0.0
  0
LINE
  5
1C74
  8
0
 62
     0
 10
148.52837355196939
 20
26.47346060719082
 30
0.0
 11
148.52837355196939
 21
26.47346060719082
 31
0.0
  0
LINE
  5
1C75
  8
0
 62
     0
 10
148.52837355196939
 20
29.251585607190819
 30
0.0
 11
148.52837355196939
 21
29.251585607190819
 31
0.0
  0
LINE
  5
1C76
  8
0
 62
     0
 10
148.52837355196939
 20
32.029710607190822
 30
0.0
 11
148.52837355196939
 21
32.029710607190822
 31
0.0
  0
LINE
  5
1C77
  8
0
 62
     0
 10
148.52837355196939
 20
34.807835607190817
 30
0.0
 11
148.52837355196939
 21
34.807835607190817
 31
0.0
  0
LINE
  5
1C78
  8
0
 62
     0
 10
148.52837355196939
 20
15.360960607190821
 30
0.0
 11
148.52837355196939
 21
15.360960607190821
 31
0.0
  0
LINE
  5
1C79
  8
0
 62
     0
 10
148.52837355196939
 20
18.139085607190822
 30
0.0
 11
148.52837355196939
 21
18.139085607190822
 31
0.0
  0
LINE
  5
1C7A
  8
0
 62
     0
 10
148.52837355196939
 20
20.917210607190821
 30
0.0
 11
148.52837355196939
 21
20.917210607190821
 31
0.0
  0
LINE
  5
1C7B
  8
0
 62
     0
 10
148.52837355196939
 20
23.69533560719082
 30
0.0
 11
148.52837355196939
 21
23.69533560719082
 31
0.0
  0
LINE
  5
1C7C
  8
0
 62
     0
 10
148.52837355196939
 20
37.585960607190799
 30
0.0
 11
148.52837355196939
 21
37.585960607190799
 31
0.0
  0
LINE
  5
1C7D
  8
0
 62
     0
 10
148.52837355196939
 20
40.364085607190802
 30
0.0
 11
148.52837355196939
 21
40.364085607190802
 31
0.0
  0
LINE
  5
1C7E
  8
0
 62
     0
 10
148.52837355196939
 20
43.142210607190798
 30
0.0
 11
148.52837355196939
 21
43.142210607190798
 31
0.0
  0
LINE
  5
1C7F
  8
0
 62
     0
 10
148.52837355196939
 20
45.9203356071908
 30
0.0
 11
148.52837355196939
 21
45.9203356071908
 31
0.0
  0
ENDBLK
  5
1C81
  8
0
  0
ENDSEC
  0
SECTION
  2
ENTITIES
  0
POLYLINE
  5
52
  8
SAPA_ANSLUTNING
 66
     1
 10
0.0
 20
0.0
 30
0.0
 70
     1
  0
VERTEX
  5
F8A
  8
SAPA_ANSLUTNING
 10
24.870241871146622
 20
35.639676254223787
 30
0.0
  0
VERTEX
  5
F8B
  8
SAPA_ANSLUTNING
 10
24.870241871146622
 20
55.639676254223779
 30
0.0
  0
VERTEX
  5
F8C
  8
SAPA_ANSLUTNING
 10
74.099635931806915
 20
55.639676254223772
 30
0.0
  0
VERTEX
  5
F8D
  8
SAPA_ANSLUTNING
 10
74.099635931806915
 20
35.639676254223772
 30
0.0
  0
SEQEND
  5
F8E
  8
SAPA_ANSLUTNING
  0
INSERT
  5
318
  8
SAPA_ANSLUTNING
  6
CONTINUOUS
  2
*X37
 10
0.0
 20
0.0
 30
0.0
1001
ACAD
1000
HATCH
1002
{
1070
    19
1000
ANSI37
1040
0.5
1040
-0.0000000000000002
1000
R14_HATCH_DATA
1000
318
1011
1.0
1021
0.0
1031
0.0
1021
0.0
1031
0.0
1011
0.0
1021
0.0
1031
0.0
1021
1.0
1031
0.0
1011
0.0
1021
0.0
1031
0.0
1021
0.0
1031
1.0
1040
0.0
1010
0.0
1020
0.0
1030
1.0
1000
ANSI37
1070
     0
1070
     0
1071
        2
1071
        7
1070
     0
1070
     1
1071
        4
1040
63.064829879159561
1040
25.566935191759271
1040
51.422144945892107
1040
25.566935191759281
1040
51.422144945892107
1040
23.566935191759281
1040
63.064829879159561
1040
23.566935191759271
1071
        0
1071
        7
1070
     0
1070
     1
1071
        4
1040
51.422144945892107
1040
25.566935191759281
1040
43.064829879159547
1040
25.566935191759281
1040
43.064829879159547
1040
23.566935191759281
1040
51.422144945892107
1040
23.566935191759281
1071
        0
1070
     0
1070
     1
1040
-0.0000000000000002
1040
0.5
1070
     0
1070
     2
1040
0.7853981633974481
1040
-648.41558579131436
1040
234.13640699942641
1040
-1.1225320151336431
1040
1.122532015133644
1070
     0
1040
2.3561944901923439
1040
-648.41558579131436
1040
234.13640699942641
1040
-1.122532015133644
1040
-1.1225320151336431
1070
     0
1040
0.1575343371151407
1071
        2
1040
53.724336268335932
1040
24.09770435860241
1040
0.0
1040
48.207521789457353
1040
24.255240239838031
1040
0.0
1002
}
  0
POLYLINE
  5
412
  8
SAPA_ANSLUTNING
 66
     1
 10
0.0
 20
0.0
 30
0.0
  0
VERTEX
  5
FA8
  8
SAPA_ANSLUTNING
 10
74.099635931806915
 20
35.639676254223772
 30
0.0
  0
VERTEX
  5
FA9
  8
SAPA_ANSLUTNING
 10
61.213016853926092
 20
55.639676254223772
 30
0.0
  0
VERTEX
  5
FAA
  8
SAPA_ANSLUTNING
 10
51.390116642696732
 20
35.639676254223772
 30
0.0
  0
VERTEX
  5
FAB
  8
SAPA_ANSLUTNING
 10
38.998149281233047
 20
55.639676254223779
 30
0.0
  0
VERTEX
  5
FAC
  8
SAPA_ANSLUTNING
 10
27.730543262778159
 20
35.639676254223787
 30
0.0
  0
SEQEND
  5
FAD
  8
SAPA_ANSLUTNING
  0
POLYLINE
  5
439
  8
SAPA_LIGHT
 66
     1
 10
0.0
 20
0.0
 30
0.0
  0
VERTEX
  5
FAE
  8
SAPA_LIGHT
 10
27.47417278127438
 20
5.5669355652951182
 30
0.0
  0
VERTEX
  5
FAF
  8
SAPA_LIGHT
 10
3.0996359327975251
 20
5.5669355652951253
 30
0.0
  0
VERTEX
  5
FB0
  8
SAPA_LIGHT
 10
3.0996359327975389
 20
55.566935565295132
 30
0.0
  0
VERTEX
  5
FB1
  8
SAPA_LIGHT
 10
174.09963593180689
 20
55.56693556529509
 30
0.0
  0
VERTEX
  5
FB2
  8
SAPA_LIGHT
 10
174.09963593180689
 20
5.566935565295096
 30
0.0
  0
VERTEX
  5
FB3
  8
SAPA_LIGHT
 10
63.459633590084259
 20
5.5669355652951111
 30
0.0
  0
VERTEX
  5
FB4
  8
SAPA_LIGHT
 10
63.459633590084081
 20
19.112433253750378
 30
0.0
  0
VERTEX
  5
FB5
  8
SAPA_LIGHT
 10
27.47417278127439
 20
19.132779109372901
 30
0.0
  0
VERTEX
  5
FB6
  8
SAPA_LIGHT
 10
27.47417278127438
 20
5.5669355652951182
 30
0.0
  0
SEQEND
  5
FB7
  8
SAPA_LIGHT
  0
POLYLINE
  5
446
  8
SAPA_LIGHT
 66
     1
 10
0.0
 20
0.0
 30
0.0
  0
VERTEX
  5
FB8
  8
SAPA_LIGHT
 10
27.47417278127438
 20
-10.80293063746398
 30
0.0
  0
VERTEX
  5
FB9
  8
SAPA_LIGHT
 10
27.47417278127439
 20
19.176723506913959
 30
0.0
  0
VERTEX
  5
FBA
  8
SAPA_LIGHT
 10
63.459633590084259
 20
19.176723506913952
 30
0.0
  0
VERTEX
  5
FBB
  8
SAPA_LIGHT
 10
63.459633590084252
 20
-10.802930637464
 30
0.0
  0
SEQEND
  5
FBC
  8
SAPA_LIGHT
  0
CIRCLE
  5
7A1
  8
SAPA_ANSLUTNING
 10
154.7888739100772
 20
65.567660948319599
 30
0.0
 40
10.0
1001
ACAD
1000
ASC_BOUNDS
1002
{
1070
    19
1005
C3D
1002
}
  0
ARC
  5
7A3
  8
SAPA_ANSLUTNING
 10
198.5232854880536
 20
64.950094501637196
 30
0.0
 40
26.631409497383419
 50
156.50565067142659
 51
200.6301569067721
  0
POLYLINE
  5
7C6
  8
SAPA_ANSLUTNING
 62
     7
 66
     1
 10
0.0
 20
0.0
 30
0.0
1001
ACAD
1000
ASC_BOUNDS
1002
{
1070
    19
1005
C3D
1002
}
  0
VERTEX
  5
FBF
  8
SAPA_ANSLUTNING
 62
     7
 10
190.12938372163171
 20
75.566935565295125
 30
0.0
  0
VERTEX
  5
FC0
  8
SAPA_ANSLUTNING
 62
     7
 10
-3.3386920256953081
 20
75.566935565295125
 30
0.0
  0
VERTEX
  5
FC1
  8
SAPA_ANSLUTNING
 62
     7
 10
-15.29854215197223
 20
87.526785691572044
 30
0.0
  0
VERTEX
  5
FC2
  8
SAPA_ANSLUTNING
 62
     7
 10
-27.833673428429041
 20
74.991654415115235
 30
0.0
  0
VERTEX
  5
FC3
  8
SAPA_ANSLUTNING
 62
     7
 10
-37.18999022946992
 20
74.991654415115235
 30
0.0
  0
VERTEX
  5
FC4
  8
SAPA_ANSLUTNING
 62
     7
 10
-37.18999022946992
 20
102.59089654658131
 30
0.0
  0
SEQEND
  5
FC5
  8
SAPA_ANSLUTNING
 62
     7
  0
POLYLINE
  5
7D1
  8
SAPA_ANSLUTNING
 62
     1
 66
     1
 10
0.0
 20
0.0
 30
0.0
 70
     1
  0
VERTEX
  5
FC6
  8
SAPA_ANSLUTNING
 62
     1
 10
-2.280607478651417
 20
68.713294806867282
 30
0.0
  0
VERTEX
  5
FC7
  8
SAPA_ANSLUTNING
 62
     1
 10
23.121065258286531
 20
68.713294806867282
 30
0.0
  0
VERTEX
  5
FC8
  8
SAPA_ANSLUTNING
 62
     1
 10
23.121065258286531
 20
41.397023971282579
 30
0.0
  0
VERTEX
  5
FC9
  8
SAPA_ANSLUTNING
 62
     1
 10
24.870241871146622
 20
41.397023971282579
 30
0.0
  0
VERTEX
  5
FCA
  8
SAPA_ANSLUTNING
 62
     1
 10
24.870241871146622
 20
70.700084037009333
 30
0.0
  0
VERTEX
  5
FCB
  8
SAPA_ANSLUTNING
 62
     1
 10
-1.151848403937151
 20
70.700084037009333
 30
0.0
  0
VERTEX
  5
FCC
  8
SAPA_ANSLUTNING
 62
     1
 10
-15.17924386697684
 20
87.384887048307974
 30
0.0
  0
VERTEX
  5
FCD
  8
SAPA_ANSLUTNING
 62
     1
 10
-16.81919529182337
 20
86.006132551720896
 30
0.0
  0
SEQEND
  5
FCE
  8
SAPA_ANSLUTNING
 62
     1
  0
POLYLINE
  5
7D4
  8
SAPA_ANSLUTNING
 66
     1
 10
0.0
 20
0.0
 30
0.0
1001
ACAD
1000
ASC_BOUNDS
1002
{
1070
    19
1005
C3D
1002
}
  0
VERTEX
  5
FCF
  8
SAPA_ANSLUTNING
 10
146.9212759419282
 20
55.515407615325437
 30
0.0
 42
-0.4142132538525825
  0
VERTEX
  5
FD0
  8
SAPA_ANSLUTNING
 10
144.92127383522251
 20
57.515403401904223
 30
0.0
  0
VERTEX
  5
FD1
  8
SAPA_ANSLUTNING
 10
144.92127383522251
 20
72.668208940048316
 30
0.0
  0
VERTEX
  5
FD2
  8
SAPA_ANSLUTNING
 10
144.92127383522251
 20
73.566935565295054
 30
0.0
 42
1.0
  0
VERTEX
  5
FD3
  8
SAPA_ANSLUTNING
 10
140.92127383522251
 20
73.566935565295012
 30
0.0
  0
VERTEX
  5
FD4
  8
SAPA_ANSLUTNING
 10
140.92127383522271
 20
57.51540761532442
 30
0.0
 42
-0.9999989466455055
  0
VERTEX
  5
FD5
  8
SAPA_ANSLUTNING
 10
136.921273835227
 20
57.515403401904223
 30
0.0
  0
VERTEX
  5
FD6
  8
SAPA_ANSLUTNING
 10
136.921273835227
 20
72.668208940048203
 30
0.0
  0
VERTEX
  5
FD7
  8
SAPA_ANSLUTNING
 10
136.921273835227
 20
73.566935565294955
 30
0.0
 42
0.9999999999999998
  0
VERTEX
  5
FD8
  8
SAPA_ANSLUTNING
 10
132.921273835227
 20
73.566935565294955
 30
0.0
  0
VERTEX
  5
FD9
  8
SAPA_ANSLUTNING
 10
132.921273835227
 20
72.668208940048203
 30
0.0
  0
VERTEX
  5
FDA
  8
SAPA_ANSLUTNING
 10
132.92127383522711
 20
57.515400770126007
 30
0.0
 42
-0.9999974985601646
  0
VERTEX
  5
FDB
  8
SAPA_ANSLUTNING
 10
128.9212738352397
 20
57.515400770126007
 30
0.0
  0
VERTEX
  5
FDC
  8
SAPA_ANSLUTNING
 10
128.9212738352397
 20
72.668208940048203
 30
0.0
  0
VERTEX
  5
FDD
  8
SAPA_ANSLUTNING
 10
128.9212738352397
 20
73.668208940048146
 30
0.0
 42
0.9999999999999998
  0
VERTEX
  5
FDE
  8
SAPA_ANSLUTNING
 10
124.9212738352397
 20
73.668208940048146
 30
0.0
  0
VERTEX
  5
FDF
  8
SAPA_ANSLUTNING
 10
124.9212738352397
 20
72.668208940048203
 30
0.0
  0
VERTEX
  5
FE0
  8
SAPA_ANSLUTNING
 10
124.9212738352398
 20
57.515403401904223
 30
0.0
 42
-0.9999989466455052
  0
VERTEX
  5
FE1
  8
SAPA_ANSLUTNING
 10
120.92127383524409
 20
57.51540761532442
 30
0.0
  0
VERTEX
  5
FE2
  8
SAPA_ANSLUTNING
 10
120.92127383524431
 20
73.850178367637454
 30
0.0
 42
0.9999999999999998
  0
VERTEX
  5
FE3
  8
SAPA_ANSLUTNING
 10
116.92127383524431
 20
73.850178367637454
 30
0.0
  0
VERTEX
  5
FE4
  8
SAPA_ANSLUTNING
 10
116.92127383524451
 20
57.51540761532442
 30
0.0
 42
-0.4142132538525737
  0
VERTEX
  5
FE5
  8
SAPA_ANSLUTNING
 10
114.9212759419546
 20
55.515407615325501
 30
0.0
 42
-0.4142132538525811
  0
VERTEX
  5
FE6
  8
SAPA_ANSLUTNING
 10
112.9212738352489
 20
57.51540340190428
 30
0.0
  0
VERTEX
  5
FE7
  8
SAPA_ANSLUTNING
 10
112.9212738352489
 20
72.668208940048373
 30
0.0
  0
VERTEX
  5
FE8
  8
SAPA_ANSLUTNING
 10
112.9212738352489
 20
73.566935565295125
 30
0.0
 42
1.0
  0
VERTEX
  5
FE9
  8
SAPA_ANSLUTNING
 10
108.9212738352489
 20
73.566935565295054
 30
0.0
  0
VERTEX
  5
FEA
  8
SAPA_ANSLUTNING
 10
108.9212738352491
 20
57.515407615324477
 30
0.0
 42
-0.9999989466455055
  0
VERTEX
  5
FEB
  8
SAPA_ANSLUTNING
 10
104.9212738352534
 20
57.51540340190428
 30
0.0
  0
VERTEX
  5
FEC
  8
SAPA_ANSLUTNING
 10
104.9212738352534
 20
72.66820894004826
 30
0.0
  0
VERTEX
  5
FED
  8
SAPA_ANSLUTNING
 10
104.9212738352534
 20
73.566935565295012
 30
0.0
 42
0.9999999999999998
  0
VERTEX
  5
FEE
  8
SAPA_ANSLUTNING
 10
100.9212738352534
 20
73.566935565295012
 30
0.0
  0
VERTEX
  5
FEF
  8
SAPA_ANSLUTNING
 10
100.9212738352534
 20
72.66820894004826
 30
0.0
  0
VERTEX
  5
FF0
  8
SAPA_ANSLUTNING
 10
100.9212738352535
 20
57.515400770126057
 30
0.0
 42
-0.9999974985601646
  0
VERTEX
  5
FF1
  8
SAPA_ANSLUTNING
 10
96.921273835266049
 20
57.515400770126057
 30
0.0
  0
VERTEX
  5
FF2
  8
SAPA_ANSLUTNING
 10
96.921273835266106
 20
72.66820894004826
 30
0.0
  0
VERTEX
  5
FF3
  8
SAPA_ANSLUTNING
 10
96.921273835266106
 20
73.668208940048203
 30
0.0
 42
0.9999999999999998
  0
VERTEX
  5
FF4
  8
SAPA_ANSLUTNING
 10
92.921273835266035
 20
73.668208940048203
 30
0.0
  0
VERTEX
  5
FF5
  8
SAPA_ANSLUTNING
 10
92.921273835266106
 20
72.66820894004826
 30
0.0
  0
VERTEX
  5
FF6
  8
SAPA_ANSLUTNING
 10
92.921273835266163
 20
57.51540340190428
 30
0.0
 42
-0.9999989466455052
  0
VERTEX
  5
FF7
  8
SAPA_ANSLUTNING
 10
88.921273835270483
 20
57.515407615324477
 30
0.0
  0
VERTEX
  5
FF8
  8
SAPA_ANSLUTNING
 10
88.921273835270711
 20
73.850178367637511
 30
0.0
 42
0.9999999999999998
  0
VERTEX
  5
FF9
  8
SAPA_ANSLUTNING
 10
84.921273835270711
 20
73.850178367637511
 30
0.0
  0
VERTEX
  5
FFA
  8
SAPA_ANSLUTNING
 10
84.921273835270938
 20
57.515407615324477
 30
0.0
 42
-0.4142132538525737
  0
VERTEX
  5
FFB
  8
SAPA_ANSLUTNING
 10
82.921275941980966
 20
55.515407615325557
 30
0.0
 42
-0.4142132538525745
  0
VERTEX
  5
FFC
  8
SAPA_ANSLUTNING
 10
80.921273835275244
 20
57.51540340190428
 30
0.0
  0
VERTEX
  5
FFD
  8
SAPA_ANSLUTNING
 10
80.921273835275244
 20
72.668208940048373
 30
0.0
  0
VERTEX
  5
FFE
  8
SAPA_ANSLUTNING
 10
80.921273835275244
 20
73.566935565295125
 30
0.0
 42
1.0
  0
VERTEX
  5
FFF
  8
SAPA_ANSLUTNING
 10
76.921273835275258
 20
73.566935565295054
 30
0.0
  0
VERTEX
  5
1000
  8
SAPA_ANSLUTNING
 10
76.921273835275429
 20
57.515407615324477
 30
0.0
 42
-0.9999989466455055
  0
VERTEX
  5
1001
  8
SAPA_ANSLUTNING
 10
72.921273835279749
 20
57.51540340190428
 30
0.0
  0
VERTEX
  5
1002
  8
SAPA_ANSLUTNING
 10
72.921273835279806
 20
72.66820894004826
 30
0.0
  0
VERTEX
  5
1003
  8
SAPA_ANSLUTNING
 10
72.921273835279806
 20
73.566935565295012
 30
0.0
 42
0.9999999999999998
  0
VERTEX
  5
1004
  8
SAPA_ANSLUTNING
 10
68.921273835279806
 20
73.566935565295012
 30
0.0
  0
VERTEX
  5
1005
  8
SAPA_ANSLUTNING
 10
68.921273835279806
 20
72.66820894004826
 30
0.0
  0
VERTEX
  5
1006
  8
SAPA_ANSLUTNING
 10
68.921273835279862
 20
57.515400770126057
 30
0.0
 42
-0.9999974985601646
  0
VERTEX
  5
1007
  8
SAPA_ANSLUTNING
 10
64.921273835292354
 20
57.515400770126057
 30
0.0
  0
VERTEX
  5
1008
  8
SAPA_ANSLUTNING
 10
64.921273835292482
 20
72.66820894004826
 30
0.0
  0
VERTEX
  5
1009
  8
SAPA_ANSLUTNING
 10
64.921273835292482
 20
73.668208940048203
 30
0.0
 42
0.9999999999999998
  0
VERTEX
  5
100A
  8
SAPA_ANSLUTNING
 10
60.921273835292418
 20
73.668208940048203
 30
0.0
  0
VERTEX
  5
100B
  8
SAPA_ANSLUTNING
 10
60.921273835292482
 20
72.66820894004826
 30
0.0
  0
VERTEX
  5
100C
  8
SAPA_ANSLUTNING
 10
60.921273835292482
 20
57.51540340190428
 30
0.0
 42
-0.9999989466455052
  0
VERTEX
  5
100D
  8
SAPA_ANSLUTNING
 10
56.921273835296802
 20
57.515407615324477
 30
0.0
  0
VERTEX
  5
100E
  8
SAPA_ANSLUTNING
 10
56.921273835297029
 20
73.850178367637511
 30
0.0
 42
0.9999999999999998
  0
VERTEX
  5
100F
  8
SAPA_ANSLUTNING
 10
52.921273835297022
 20
73.850178367637511
 30
0.0
  0
VERTEX
  5
1010
  8
SAPA_ANSLUTNING
 10
52.921273835297256
 20
57.515407615324477
 30
0.0
 42
-0.4142132538525779
  0
VERTEX
  5
1011
  8
SAPA_ANSLUTNING
 10
50.921275942007298
 20
55.515407615325529
 30
0.0
 42
-0.4142132538525811
  0
VERTEX
  5
1012
  8
SAPA_ANSLUTNING
 10
48.921273835301577
 20
57.515403401904301
 30
0.0
  0
VERTEX
  5
1013
  8
SAPA_ANSLUTNING
 10
48.921273835301577
 20
72.668208940048402
 30
0.0
  0
VERTEX
  5
1014
  8
SAPA_ANSLUTNING
 10
48.921273835301577
 20
73.566935565295154
 30
0.0
 42
1.0
  0
VERTEX
  5
1015
  8
SAPA_ANSLUTNING
 10
44.921273835301569
 20
73.566935565295097
 30
0.0
  0
VERTEX
  5
1016
  8
SAPA_ANSLUTNING
 10
44.921273835301797
 20
57.515407615324499
 30
0.0
 42
-0.9999989466455055
  0
VERTEX
  5
1017
  8
SAPA_ANSLUTNING
 10
40.921273835306117
 20
57.515403401904301
 30
0.0
  0
VERTEX
  5
1018
  8
SAPA_ANSLUTNING
 10
40.921273835306117
 20
72.668208940048288
 30
0.0
  0
VERTEX
  5
1019
  8
SAPA_ANSLUTNING
 10
40.921273835306117
 20
73.56693556529504
 30
0.0
 42
0.9999999999999998
  0
VERTEX
  5
101A
  8
SAPA_ANSLUTNING
 10
36.921273835306131
 20
73.56693556529504
 30
0.0
  0
VERTEX
  5
101B
  8
SAPA_ANSLUTNING
 10
36.921273835306131
 20
72.668208940048288
 30
0.0
  0
VERTEX
  5
101C
  8
SAPA_ANSLUTNING
 10
36.921273835306238
 20
57.515400770126092
 30
0.0
 42
-0.5222532818178279
  0
VERTEX
  5
101D
  8
SAPA_ANSLUTNING
 10
34.227271837947619
 20
55.639676254223772
 30
0.0
 42
-0.5222532818178279
  0
SEQEND
  5
101E
  8
SAPA_ANSLUTNING
  0
INSERT
  5
B79
  8
SAPA_ANSLUTNING
  6
CONTINUOUS
  2
*X38
 10
0.0
 20
0.0
 30
0.0
1001
ACAD
1000
HATCH
1002
{
1070
    19
1000
ANSI37
1040
0.25
1040
0.0
1000
R14_HATCH_DATA
1000
B79
1011
1.0
1021
0.0
1031
0.0
1021
0.0
1031
0.0
1011
0.0
1021
0.0
1031
0.0
1021
1.0
1031
0.0
1011
0.0
1021
0.0
1031
0.0
1021
0.0
1031
1.0
1040
0.0
1010
0.0
1020
0.0
1030
1.0
1000
ANSI37
1070
     0
1070
     0
1071
        1
1071
        7
1070
     1
1070
     1
1071
        6
1040
174.09963593180689
1040
75.566935565295125
1040
0.0
1040
154.9093194758276
1040
75.566935565295125
1040
-0.4106900922479825
1040
164.7888739100772
1040
65.567660948319599
1040
-0.4142526731220444
1040
154.78753860405089
1040
55.567661037471709
1040
0.0
1040
154.78753860405089
1040
55.566935938832998
1040
0.0
1040
173.59963593180689
1040
55.566935938833012
1040
-0.1949441560822363
1071
        0
1070
     0
1070
     1
1040
0.0
1040
0.25
1070
     0
1070
     2
1040
0.7853981633974483
1040
0.0
1040
0.0
1040
-0.5612660075668221
1040
0.5612660075668221
1070
     0
1040
2.3561944901923439
1040
0.0
1040
0.0
1040
-0.5612660075668221
1040
-0.5612660075668221
1070
     0
1040
0.2539267194203041
1071
        1
1040
168.5955151212199
1040
66.934069900698546
1040
0.0
1002
}
  0
INSERT
  5
C3D
  8
SAPA_ANSLUTNING
  6
CONTINUOUS
  2
*X39
 10
0.0
 20
0.0
 30
0.0
1001
ACAD
1000
HATCH
1002
{
1070
    19
1000
HEX
1040
0.25
1040
0.0
1000
ASC_BOUNDS
1070
     1
1070
     1
1070
     3
1005
7D4
1005
7A1
1005
7C6
1000
ASC_SEEDPOINT
1011
154.87716306556649
1021
0.0
1031
0.0
1021
66.426216179896414
1031
0.0
1000
R14_HATCH_DATA
1000
C3D
1011
1.0
1021
0.0
1031
0.0
1021
0.0
1031
0.0
1011
0.0
1021
0.0
1031
0.0
1021
1.0
1031
0.0
1011
0.0
1021
0.0
1031
0.0
1021
0.0
1031
1.0
1040
0.0
1010
0.0
1020
0.0
1030
1.0
1000
HEX
1070
     0
1070
     1
1071
        1
1071
        7
1070
     1
1070
     1
1071
        5
1040
154.9093194758276
1040
75.566935565295125
1040
0.0
1040
154.66842834432671
1040
75.566935565295125
1040
0.3638516913262414
1040
144.92127383522251
1040
67.189532941643265
1040
0.0
1040
144.92127383522251
1040
63.945788954995933
1040
0.9216925068997175
1040
164.7888739100772
1040
65.567660948319599
1040
0.4106900922479825
1071
        3
1005
7C6
1005
7A1
1005
7D4
1070
     0
1070
     1
1040
0.0
1040
0.25
1070
     0
1070
     3
1040
0.0
1040
0.0
1040
0.0
1040
0.0
1040
1.374814999999999
1070
     2
1040
0.79375
1040
-1.587499999999999
1040
2.0943951023931948
1040
0.0
1040
0.0
1040
-1.190624715503902
1040
-0.6874074999999996
1070
     2
1040
0.7937499999999998
1040
-1.587499999999999
1040
1.047197551196597
1040
0.79375
1040
0.0
1040
-1.190624715503902
1040
0.6874075000000001
1070
     2
1040
0.79375
1040
-1.587499999999999
1040
0.2539267194203041
1071
        1
1040
154.87716306556649
1040
66.426216179896414
1040
0.0
1002
}
  0
LINE
  5
DF6
  8
SAPA_PROFIL
 10
63.064829879159561
 20
25.566935565297161
 30
0.0
 11
43.064829879159547
 21
25.566935565297172
 31
0.0
  0
LINE
  5
DF7
  8
SAPA_PROFIL
 10
43.064829879159547
 20
25.566935565297172
 30
0.0
 11
43.064829879159547
 21
23.566935565297161
 31
0.0
  0
LINE
  5
DF8
  8
SAPA_PROFIL
 10
43.064829879159547
 20
23.566935565297161
 30
0.0
 11
63.064829879159561
 21
23.566935565297161
 31
0.0
  0
LINE
  5
DF9
  8
SAPA_PROFIL
 10
63.064829879159561
 20
23.566935565297161
 30
0.0
 11
63.064829879159561
 21
25.566935565297161
 31
0.0
  0
POLYLINE
  5
F24
  8
SAPA_PROFIL
 66
     1
 10
0.0
 20
0.0
 30
0.0
 70
     1
  0
VERTEX
  5
17CF
  8
SAPA_PROFIL
 10
76.549635931806961
 20
33.266935565295171
 30
0.0
  0
VERTEX
  5
17D0
  8
SAPA_PROFIL
 10
77.925870525383289
 20
32.643655261993217
 30
0.0
 42
0.5450207798987328
  0
VERTEX
  5
17D1
  8
SAPA_PROFIL
 10
78.349635931806915
 20
32.916935565295041
 30
0.0
  0
VERTEX
  5
17D2
  8
SAPA_PROFIL
 10
78.349635931806915
 20
33.266935565295171
 30
0.0
  0
VERTEX
  5
17D3
  8
SAPA_PROFIL
 10
78.599635931806915
 20
33.266935565295171
 30
0.0
 42
-0.4142135623730951
  0
VERTEX
  5
17D4
  8
SAPA_PROFIL
 10
79.599635931806915
 20
32.266935565295171
 30
0.0
  0
VERTEX
  5
17D5
  8
SAPA_PROFIL
 10
79.599635931806915
 20
28.86693556529508
 30
0.0
 42
-0.4142135623730951
  0
VERTEX
  5
17D6
  8
SAPA_PROFIL
 10
78.599635931806915
 20
27.86693556529508
 30
0.0
  0
VERTEX
  5
17D7
  8
SAPA_PROFIL
 10
77.449635931807052
 20
27.86693556529508
 30
0.0
  0
VERTEX
  5
17D8
  8
SAPA_PROFIL
 10
77.449635931807052
 20
28.21693556529522
 30
0.0
 42
0.5450200690651551
  0
VERTEX
  5
17D9
  8
SAPA_PROFIL
 10
77.025870931807049
 20
28.49021656529499
 30
0.0
  0
VERTEX
  5
17DA
  8
SAPA_PROFIL
 10
75.649635931807097
 20
27.86693556529508
 30
0.0
  0
VERTEX
  5
17DB
  8
SAPA_PROFIL
 10
75.649635931807097
 20
28.21693556529522
 30
0.0
 42
0.5450200690651692
  0
VERTEX
  5
17DC
  8
SAPA_PROFIL
 10
75.225870931807094
 20
28.49021656529499
 30
0.0
  0
VERTEX
  5
17DD
  8
SAPA_PROFIL
 10
73.849635931806915
 20
27.86693556529508
 30
0.0
  0
VERTEX
  5
17DE
  8
SAPA_PROFIL
 10
73.849635931806915
 20
28.21693556529522
 30
0.0
 42
0.5450200690651619
  0
VERTEX
  5
17DF
  8
SAPA_PROFIL
 10
73.425870931806912
 20
28.49021656529499
 30
0.0
  0
VERTEX
  5
17E0
  8
SAPA_PROFIL
 10
72.049635931806961
 20
27.86693556529508
 30
0.0
  0
VERTEX
  5
17E1
  8
SAPA_PROFIL
 10
72.049635931806961
 20
28.21693556529522
 30
0.0
 42
0.5450200690651619
  0
VERTEX
  5
17E2
  8
SAPA_PROFIL
 10
71.625870931806958
 20
28.49021656529499
 30
0.0
  0
VERTEX
  5
17E3
  8
SAPA_PROFIL
 10
70.249635931807006
 20
27.86693556529508
 30
0.0
  0
VERTEX
  5
17E4
  8
SAPA_PROFIL
 10
70.249635931807006
 20
28.21693556529522
 30
0.0
 42
0.5450200690651692
  0
VERTEX
  5
17E5
  8
SAPA_PROFIL
 10
69.825870931807003
 20
28.49021656529499
 30
0.0
  0
VERTEX
  5
17E6
  8
SAPA_PROFIL
 10
68.449635931807052
 20
27.86693556529508
 30
0.0
  0
VERTEX
  5
17E7
  8
SAPA_PROFIL
 10
68.149635931807097
 20
27.86693556529508
 30
0.0
  0
VERTEX
  5
17E8
  8
SAPA_PROFIL
 10
68.149635931807097
 20
32.995203198805939
 30
0.0
  0
VERTEX
  5
17E9
  8
SAPA_PROFIL
 10
68.925870525383289
 20
32.643655261993217
 30
0.0
 42
0.5450207798987328
  0
VERTEX
  5
17EA
  8
SAPA_PROFIL
 10
69.349635931806915
 20
32.916935565295041
 30
0.0
  0
VERTEX
  5
17EB
  8
SAPA_PROFIL
 10
69.349635931806915
 20
33.266935565295171
 30
0.0
  0
VERTEX
  5
17EC
  8
SAPA_PROFIL
 10
70.725870931807094
 20
32.643655565295148
 30
0.0
 42
0.5450205149791638
  0
VERTEX
  5
17ED
  8
SAPA_PROFIL
 10
71.149635931807097
 20
32.916935565295041
 30
0.0
  0
VERTEX
  5
17EE
  8
SAPA_PROFIL
 10
71.149635931807097
 20
33.266935565295171
 30
0.0
  0
VERTEX
  5
17EF
  8
SAPA_PROFIL
 10
72.525870525383425
 20
32.643655261993217
 30
0.0
 42
0.545020779898768
  0
VERTEX
  5
17F0
  8
SAPA_PROFIL
 10
72.949635931807052
 20
32.916935565295041
 30
0.0
  0
VERTEX
  5
17F1
  8
SAPA_PROFIL
 10
72.949635931807052
 20
33.266935565295171
 30
0.0
  0
VERTEX
  5
17F2
  8
SAPA_PROFIL
 10
74.325870525383365
 20
32.643655261993217
 30
0.0
 42
0.54502077989874
  0
VERTEX
  5
17F3
  8
SAPA_PROFIL
 10
74.749635931807006
 20
32.916935565295041
 30
0.0
  0
VERTEX
  5
17F4
  8
SAPA_PROFIL
 10
74.749635931807006
 20
33.266935565295171
 30
0.0
  0
VERTEX
  5
17F5
  8
SAPA_PROFIL
 10
76.125870525383334
 20
32.643655261993217
 30
0.0
 42
0.545020779898761
  0
VERTEX
  5
17F6
  8
SAPA_PROFIL
 10
76.549635931806961
 20
32.916935565295041
 30
0.0
  0
SEQEND
  5
17F7
  8
SAPA_PROFIL
  0
POLYLINE
  5
F25
  8
SAPA_PROFIL
 66
     1
 10
0.0
 20
0.0
 30
0.0
 70
     1
  0
VERTEX
  5
17F8
  8
SAPA_PROFIL
 10
167.62390000051889
 20
53.566935565295132
 30
0.0
 42
0.1989123673796753
  0
VERTEX
  5
17F9
  8
SAPA_PROFIL
 10
167.4117679661631
 20
53.479067599650982
 30
0.0
  0
VERTEX
  5
17FA
  8
SAPA_PROFIL
 10
165.68750389745099
 20
51.754803530939171
 30
0.0
 42
-0.1989123673796753
  0
VERTEX
  5
17FB
  8
SAPA_PROFIL
 10
165.47537186309501
 20
51.666935565295027
 30
0.0
  0
VERTEX
  5
17FC
  8
SAPA_PROFIL
 10
164.8996359318071
 20
51.666935565295027
 30
0.0
 42
-0.4142135623730951
  0
VERTEX
  5
17FD
  8
SAPA_PROFIL
 10
164.59963593180689
 20
51.966935565295209
 30
0.0
  0
VERTEX
  5
17FE
  8
SAPA_PROFIL
 10
164.59963593180689
 20
53.266935565295171
 30
0.0
 42
0.4142135623730951
  0
VERTEX
  5
17FF
  8
SAPA_PROFIL
 10
164.2996359318069
 20
53.566935565295132
 30
0.0
  0
VERTEX
  5
1800
  8
SAPA_PROFIL
 10
139.59963593180689
 20
53.566935565295132
 30
0.0
 42
0.4142135623730951
  0
VERTEX
  5
1801
  8
SAPA_PROFIL
 10
138.59963593180689
 20
52.566935565295118
 30
0.0
  0
VERTEX
  5
1802
  8
SAPA_PROFIL
 10
138.59963593180689
 20
48.166935565295041
 30
0.0
 42
-0.4142135623730951
  0
VERTEX
  5
1803
  8
SAPA_PROFIL
 10
138.2996359318069
 20
47.86693556529508
 30
0.0
  0
VERTEX
  5
1804
  8
SAPA_PROFIL
 10
135.99963593180701
 20
47.86693556529508
 30
0.0
 42
-0.4142135623730951
  0
VERTEX
  5
1805
  8
SAPA_PROFIL
 10
135.69963593180699
 20
48.166935565295041
 30
0.0
  0
VERTEX
  5
1806
  8
SAPA_PROFIL
 10
135.69963593180699
 20
48.666935565295027
 30
0.0
 42
-0.4142135623730951
  0
VERTEX
  5
1807
  8
SAPA_PROFIL
 10
135.99963593180701
 20
48.966935565295209
 30
0.0
  0
VERTEX
  5
1808
  8
SAPA_PROFIL
 10
136.33626285644141
 20
48.966935565295209
 30
0.0
 42
0.5535245743249297
  0
VERTEX
  5
1809
  8
SAPA_PROFIL
 10
134.5637435339315
 20
53.277489776826542
 30
0.0
  0
VERTEX
  5
180A
  8
SAPA_PROFIL
 10
134.27641262710361
 20
52.990158869998361
 30
0.0
 42
-0.4142135623729421
  0
VERTEX
  5
180B
  8
SAPA_PROFIL
 10
133.9228592365105
 20
52.990158869998361
 30
0.0
  0
VERTEX
  5
180C
  8
SAPA_PROFIL
 10
133.6355283296825
 20
53.277489776826542
 30
0.0
 42
0.5535245743249292
  0
VERTEX
  5
180D
  8
SAPA_PROFIL
 10
131.86300900717239
 20
48.966935565295209
 30
0.0
  0
VERTEX
  5
180E
  8
SAPA_PROFIL
 10
132.19963593180699
 20
48.966935565295209
 30
0.0
 42
-0.4142135623730951
  0
VERTEX
  5
180F
  8
SAPA_PROFIL
 10
132.49963593180701
 20
48.666935565295027
 30
0.0
  0
VERTEX
  5
1810
  8
SAPA_PROFIL
 10
132.49963593180701
 20
48.166935565295041
 30
0.0
 42
-0.4142135623730951
  0
VERTEX
  5
1811
  8
SAPA_PROFIL
 10
132.19963593180699
 20
47.86693556529508
 30
0.0
  0
VERTEX
  5
1812
  8
SAPA_PROFIL
 10
131.09963593180689
 20
47.86693556529508
 30
0.0
 42
-0.4142135623730951
  0
VERTEX
  5
1813
  8
SAPA_PROFIL
 10
129.59963593180689
 20
49.36693556529508
 30
0.0
  0
VERTEX
  5
1814
  8
SAPA_PROFIL
 10
129.59963593180689
 20
52.200910161510592
 30
0.0
 42
-0.267949192431143
  0
VERTEX
  5
1815
  8
SAPA_PROFIL
 10
129.84963593180689
 20
52.633922863402859
 30
0.0
 42
0.767326987978956
  0
VERTEX
  5
1816
  8
SAPA_PROFIL
 10
129.59963593180689
 20
53.566935565295132
 30
0.0
  0
VERTEX
  5
1817
  8
SAPA_PROFIL
 10
94.599635931806915
 20
53.566935565295132
 30
0.0
 42
0.4142135623730951
  0
VERTEX
  5
1818
  8
SAPA_PROFIL
 10
93.599635931806915
 20
52.566935565295118
 30
0.0
  0
VERTEX
  5
1819
  8
SAPA_PROFIL
 10
93.599635931806915
 20
48.166935565295041
 30
0.0
 42
-0.4142135623730951
  0
VERTEX
  5
181A
  8
SAPA_PROFIL
 10
93.299635931806961
 20
47.86693556529508
 30
0.0
  0
VERTEX
  5
181B
  8
SAPA_PROFIL
 10
90.999635931807006
 20
47.86693556529508
 30
0.0
 42
-0.4142135623730951
  0
VERTEX
  5
181C
  8
SAPA_PROFIL
 10
90.699635931807052
 20
48.166935565295041
 30
0.0
  0
VERTEX
  5
181D
  8
SAPA_PROFIL
 10
90.699635931807052
 20
48.666935565295027
 30
0.0
 42
-0.4142135623730951
  0
VERTEX
  5
181E
  8
SAPA_PROFIL
 10
90.999635931807006
 20
48.966935565295209
 30
0.0
  0
VERTEX
  5
181F
  8
SAPA_PROFIL
 10
91.336262856441394
 20
48.966935565295209
 30
0.0
 42
0.5535245743249297
  0
VERTEX
  5
1820
  8
SAPA_PROFIL
 10
89.563743533931529
 20
53.277489776826542
 30
0.0
  0
VERTEX
  5
1821
  8
SAPA_PROFIL
 10
89.276412627103568
 20
52.990158869998361
 30
0.0
 42
-0.4142135623730243
  0
VERTEX
  5
1822
  8
SAPA_PROFIL
 10
88.922859236510476
 20
52.990158869998602
 30
0.0
  0
VERTEX
  5
1823
  8
SAPA_PROFIL
 10
88.635528329682515
 20
53.277489776826542
 30
0.0
 42
0.5535245743249292
  0
VERTEX
  5
1824
  8
SAPA_PROFIL
 10
86.863009007172423
 20
48.966935565295209
 30
0.0
  0
VERTEX
  5
1825
  8
SAPA_PROFIL
 10
87.199635931807066
 20
48.966935565295209
 30
0.0
 42
-0.4142135623730951
  0
VERTEX
  5
1826
  8
SAPA_PROFIL
 10
87.499635931807006
 20
48.666935565295027
 30
0.0
  0
VERTEX
  5
1827
  8
SAPA_PROFIL
 10
87.499635931807006
 20
48.166935565295041
 30
0.0
 42
-0.4142135623730951
  0
VERTEX
  5
1828
  8
SAPA_PROFIL
 10
87.199635931807066
 20
47.86693556529508
 30
0.0
  0
VERTEX
  5
1829
  8
SAPA_PROFIL
 10
86.099635931806915
 20
47.86693556529508
 30
0.0
 42
-0.4142135623730951
  0
VERTEX
  5
182A
  8
SAPA_PROFIL
 10
84.599635931806915
 20
49.36693556529508
 30
0.0
  0
VERTEX
  5
182B
  8
SAPA_PROFIL
 10
84.599635931806915
 20
52.347320323024398
 30
0.0
 42
-0.2679491924311188
  0
VERTEX
  5
182C
  8
SAPA_PROFIL
 10
84.749635931807006
 20
52.607127944159863
 30
0.0
 42
0.7673269879789557
  0
VERTEX
  5
182D
  8
SAPA_PROFIL
 10
84.599635931806915
 20
53.166935565295041
 30
0.0
  0
VERTEX
  5
182E
  8
SAPA_PROFIL
 10
82.599635931806915
 20
53.166935565294807
 30
0.0
 42
0.4142137811865366
  0
VERTEX
  5
182F
  8
SAPA_PROFIL
 10
81.599635931806915
 20
52.166936312370353
 30
0.0
  0
VERTEX
  5
1830
  8
SAPA_PROFIL
 10
81.599635931806915
 20
8.9669355652952163
 30
0.0
 42
0.4142140000000124
  0
VERTEX
  5
1831
  8
SAPA_PROFIL
 10
82.599635931806915
 20
7.9669355652952163
 30
0.0
  0
VERTEX
  5
1832
  8
SAPA_PROFIL
 10
84.599635931806915
 20
7.9669355652952163
 30
0.0
 42
0.7673269879789457
  0
VERTEX
  5
1833
  8
SAPA_PROFIL
 10
84.749635931807006
 20
8.5267431864303944
 30
0.0
 42
-0.2679491924311191
  0
VERTEX
  5
1834
  8
SAPA_PROFIL
 10
84.599635931806915
 20
8.7865508075658454
 30
0.0
  0
VERTEX
  5
1835
  8
SAPA_PROFIL
 10
84.599635931806915
 20
11.766935565295171
 30
0.0
 42
-0.4142135623730951
  0
VERTEX
  5
1836
  8
SAPA_PROFIL
 10
86.099635931806915
 20
13.266935565295171
 30
0.0
  0
VERTEX
  5
1837
  8
SAPA_PROFIL
 10
87.199635931807066
 20
13.266935565295171
 30
0.0
 42
-0.4142135623730951
  0
VERTEX
  5
1838
  8
SAPA_PROFIL
 10
87.499635931807006
 20
12.966935565295209
 30
0.0
  0
VERTEX
  5
1839
  8
SAPA_PROFIL
 10
87.499635931807006
 20
12.466935565295209
 30
0.0
 42
-0.4142135623730951
  0
VERTEX
  5
183A
  8
SAPA_PROFIL
 10
87.199635931807066
 20
12.166935565295031
 30
0.0
  0
VERTEX
  5
183B
  8
SAPA_PROFIL
 10
86.863009007172423
 20
12.166935565295031
 30
0.0
 42
0.5535245743249307
  0
VERTEX
  5
183C
  8
SAPA_PROFIL
 10
88.635528329682515
 20
7.8563813537637079
 30
0.0
  0
VERTEX
  5
183D
  8
SAPA_PROFIL
 10
88.922859236510476
 20
8.1437122605916556
 30
0.0
 42
-0.4142135623730951
  0
VERTEX
  5
183E
  8
SAPA_PROFIL
 10
89.276412627103568
 20
8.1437122605916556
 30
0.0
  0
VERTEX
  5
183F
  8
SAPA_PROFIL
 10
89.563743533931529
 20
7.8563813537637079
 30
0.0
 42
0.553524574324932
  0
VERTEX
  5
1840
  8
SAPA_PROFIL
 10
91.336262856441394
 20
12.166935565295031
 30
0.0
  0
VERTEX
  5
1841
  8
SAPA_PROFIL
 10
90.999635931807006
 20
12.166935565295031
 30
0.0
 42
-0.4142135623730951
  0
VERTEX
  5
1842
  8
SAPA_PROFIL
 10
90.699635931807052
 20
12.466935565295209
 30
0.0
  0
VERTEX
  5
1843
  8
SAPA_PROFIL
 10
90.699635931807052
 20
12.966935565295209
 30
0.0
 42
-0.4142135623730951
  0
VERTEX
  5
1844
  8
SAPA_PROFIL
 10
90.999635931807006
 20
13.266935565295171
 30
0.0
  0
VERTEX
  5
1845
  8
SAPA_PROFIL
 10
93.299635931806961
 20
13.266935565295171
 30
0.0
 42
-0.4142135623730951
  0
VERTEX
  5
1846
  8
SAPA_PROFIL
 10
93.599635931806915
 20
12.966935565295209
 30
0.0
  0
VERTEX
  5
1847
  8
SAPA_PROFIL
 10
93.599635931806915
 20
8.5669355652951253
 30
0.0
 42
0.4142135623730951
  0
VERTEX
  5
1848
  8
SAPA_PROFIL
 10
94.599635931806915
 20
7.5669355652951253
 30
0.0
  0
VERTEX
  5
1849
  8
SAPA_PROFIL
 10
129.59963593180689
 20
7.5669355652951253
 30
0.0
 42
0.7673269879789569
  0
VERTEX
  5
184A
  8
SAPA_PROFIL
 10
129.84963593180689
 20
8.499948267187392
 30
0.0
 42
-0.2679491924311163
  0
VERTEX
  5
184B
  8
SAPA_PROFIL
 10
129.59963593180689
 20
8.9329609690796588
 30
0.0
  0
VERTEX
  5
184C
  8
SAPA_PROFIL
 10
129.59963593180689
 20
11.766935565295171
 30
0.0
 42
-0.4142135623730951
  0
VERTEX
  5
184D
  8
SAPA_PROFIL
 10
131.09963593180689
 20
13.266935565295171
 30
0.0
  0
VERTEX
  5
184E
  8
SAPA_PROFIL
 10
132.19963593180699
 20
13.266935565295171
 30
0.0
 42
-0.4142135623730951
  0
VERTEX
  5
184F
  8
SAPA_PROFIL
 10
132.49963593180701
 20
12.966935565295209
 30
0.0
  0
VERTEX
  5
1850
  8
SAPA_PROFIL
 10
132.49963593180701
 20
12.466935565295209
 30
0.0
 42
-0.4142135623730951
  0
VERTEX
  5
1851
  8
SAPA_PROFIL
 10
132.19963593180699
 20
12.166935565295031
 30
0.0
  0
VERTEX
  5
1852
  8
SAPA_PROFIL
 10
131.86300900717239
 20
12.166935565295031
 30
0.0
 42
0.5535245743249307
  0
VERTEX
  5
1853
  8
SAPA_PROFIL
 10
133.6355283296825
 20
7.8563813537637079
 30
0.0
  0
VERTEX
  5
1854
  8
SAPA_PROFIL
 10
133.9228592365105
 20
8.1437122605916556
 30
0.0
 42
-0.4142135623731068
  0
VERTEX
  5
1855
  8
SAPA_PROFIL
 10
134.27641262710361
 20
8.143712260591883
 30
0.0
  0
VERTEX
  5
1856
  8
SAPA_PROFIL
 10
134.5637435339315
 20
7.8563813537637079
 30
0.0
 42
0.553524574324932
  0
VERTEX
  5
1857
  8
SAPA_PROFIL
 10
136.33626285644141
 20
12.166935565295031
 30
0.0
  0
VERTEX
  5
1858
  8
SAPA_PROFIL
 10
135.99963593180701
 20
12.166935565295031
 30
0.0
 42
-0.4142135623730951
  0
VERTEX
  5
1859
  8
SAPA_PROFIL
 10
135.69963593180699
 20
12.466935565295209
 30
0.0
  0
VERTEX
  5
185A
  8
SAPA_PROFIL
 10
135.69963593180699
 20
12.966935565295209
 30
0.0
 42
-0.4142135623730951
  0
VERTEX
  5
185B
  8
SAPA_PROFIL
 10
135.99963593180701
 20
13.266935565295171
 30
0.0
  0
VERTEX
  5
185C
  8
SAPA_PROFIL
 10
138.2996359318069
 20
13.266935565295171
 30
0.0
 42
-0.4142135623730951
  0
VERTEX
  5
185D
  8
SAPA_PROFIL
 10
138.59963593180689
 20
12.966935565295209
 30
0.0
  0
VERTEX
  5
185E
  8
SAPA_PROFIL
 10
138.59963593180689
 20
8.5669355652951253
 30
0.0
 42
0.4142135623730951
  0
VERTEX
  5
185F
  8
SAPA_PROFIL
 10
139.59963593180689
 20
7.5669355652951253
 30
0.0
  0
VERTEX
  5
1860
  8
SAPA_PROFIL
 10
164.2996359318069
 20
7.5669355652951253
 30
0.0
 42
0.4142135623730951
  0
VERTEX
  5
1861
  8
SAPA_PROFIL
 10
164.59963593180689
 20
7.866935565295079
 30
0.0
  0
VERTEX
  5
1862
  8
SAPA_PROFIL
 10
164.59963593180689
 20
9.1669355652950344
 30
0.0
 42
-0.4142135623730951
  0
VERTEX
  5
1863
  8
SAPA_PROFIL
 10
164.8996359318071
 20
9.4669355652952163
 30
0.0
  0
VERTEX
  5
1864
  8
SAPA_PROFIL
 10
165.47537186309501
 20
9.4669355652952163
 30
0.0
 42
-0.1989123673796752
  0
VERTEX
  5
1865
  8
SAPA_PROFIL
 10
165.68750389745099
 20
9.3790675996510782
 30
0.0
  0
VERTEX
  5
1866
  8
SAPA_PROFIL
 10
167.4117679661631
 20
7.6548035309390343
 30
0.0
 42
0.1989123673796057
  0
VERTEX
  5
1867
  8
SAPA_PROFIL
 10
167.62390000051889
 20
7.5669355652951253
 30
0.0
  0
VERTEX
  5
1868
  8
SAPA_PROFIL
 10
171.09963593180689
 20
7.5669355652951253
 30
0.0
 42
0.4142135623730951
  0
VERTEX
  5
1869
  8
SAPA_PROFIL
 10
172.09963593180689
 20
8.5669355652951253
 30
0.0
  0
VERTEX
  5
186A
  8
SAPA_PROFIL
 10
172.09963593180689
 20
52.566935565295118
 30
0.0
 42
0.4142135623730951
  0
VERTEX
  5
186B
  8
SAPA_PROFIL
 10
171.09963593180689
 20
53.566935565295132
 30
0.0
  0
SEQEND
  5
186C
  8
SAPA_PROFIL
  0
POLYLINE
  5
F26
  8
SAPA_PROFIL
 66
     1
 10
0.0
 20
0.0
 30
0.0
 70
     1
  0
VERTEX
  5
186D
  8
SAPA_PROFIL
 10
79.599635931806915
 20
36.566935565295132
 30
0.0
 42
-0.4142135623730951
  0
VERTEX
  5
186E
  8
SAPA_PROFIL
 10
78.599635931806915
 20
35.566935565295132
 30
0.0
  0
VERTEX
  5
186F
  8
SAPA_PROFIL
 10
57.399635931807097
 20
35.566935565295132
 30
0.0
 42
0.4142135623730951
  0
VERTEX
  5
1870
  8
SAPA_PROFIL
 10
57.099635931806922
 20
35.266935565295171
 30
0.0
  0
VERTEX
  5
1871
  8
SAPA_PROFIL
 10
57.099635931806922
 20
33.642671565295132
 30
0.0
  0
VERTEX
  5
1872
  8
SAPA_PROFIL
 10
58.037503897451181
 20
32.804803530939132
 30
0.0
 42
0.668178637919305
  0
VERTEX
  5
1873
  8
SAPA_PROFIL
 10
58.549635931806961
 20
33.016935565295171
 30
0.0
  0
VERTEX
  5
1874
  8
SAPA_PROFIL
 10
58.549635931806961
 20
33.266935565295171
 30
0.0
  0
VERTEX
  5
1875
  8
SAPA_PROFIL
 10
59.925870525383289
 20
32.743655261993133
 30
0.0
 42
0.5450207798987201
  0
VERTEX
  5
1876
  8
SAPA_PROFIL
 10
60.349635931806908
 20
33.016935565295171
 30
0.0
  0
VERTEX
  5
1877
  8
SAPA_PROFIL
 10
60.349635931806908
 20
33.266935565295171
 30
0.0
  0
VERTEX
  5
1878
  8
SAPA_PROFIL
 10
61.725870525383471
 20
32.743655261993133
 30
0.0
 42
0.5450207798987201
  0
VERTEX
  5
1879
  8
SAPA_PROFIL
 10
62.14963593180709
 20
33.016935565295171
 30
0.0
  0
VERTEX
  5
187A
  8
SAPA_PROFIL
 10
62.14963593180709
 20
33.266935565295171
 30
0.0
  0
VERTEX
  5
187B
  8
SAPA_PROFIL
 10
63.525870525383432
 20
32.743655261993133
 30
0.0
 42
0.5450207798987342
  0
VERTEX
  5
187C
  8
SAPA_PROFIL
 10
63.949635931807052
 20
33.016935565295171
 30
0.0
  0
VERTEX
  5
187D
  8
SAPA_PROFIL
 10
63.949635931807052
 20
33.266935565295171
 30
0.0
  0
VERTEX
  5
187E
  8
SAPA_PROFIL
 10
65.32587052538338
 20
32.743655261993133
 30
0.0
 42
0.5450207798987201
  0
VERTEX
  5
187F
  8
SAPA_PROFIL
 10
65.749635931807006
 20
33.016935565295171
 30
0.0
  0
VERTEX
  5
1880
  8
SAPA_PROFIL
 10
65.749635931807006
 20
33.266935565295171
 30
0.0
  0
VERTEX
  5
1881
  8
SAPA_PROFIL
 10
66.473353226613185
 20
33.039172847911011
 30
0.0
 42
-0.2945484962563026
  0
VERTEX
  5
1882
  8
SAPA_PROFIL
 10
66.649587891561396
 20
32.76581803423278
 30
0.0
  0
VERTEX
  5
1883
  8
SAPA_PROFIL
 10
66.64938070959488
 20
31.831235503043221
 30
0.0
 42
0.3475954753796591
  0
VERTEX
  5
1884
  8
SAPA_PROFIL
 10
66.880134753763969
 20
31.53926207597328
 30
0.0
 42
-0.790522909611319
  0
VERTEX
  5
1885
  8
SAPA_PROFIL
 10
66.880144958204482
 20
29.593271475429681
 30
0.0
 42
0.3476065658631364
  0
VERTEX
  5
1886
  8
SAPA_PROFIL
 10
66.649393979472279
 20
29.301283754408129
 30
0.0
  0
VERTEX
  5
1887
  8
SAPA_PROFIL
 10
66.649540700181205
 20
28.716942903201701
 30
0.0
 42
-0.4102317530969976
  0
VERTEX
  5
1888
  8
SAPA_PROFIL
 10
66.353689052027676
 20
28.416907266709359
 30
0.0
 42
0.0712587206050384
  0
VERTEX
  5
1889
  8
SAPA_PROFIL
 10
66.269645127099466
 20
28.40367995283987
 30
0.0
  0
VERTEX
  5
188A
  8
SAPA_PROFIL
 10
64.849635931806915
 20
27.86693556529508
 30
0.0
  0
VERTEX
  5
188B
  8
SAPA_PROFIL
 10
64.849635931806915
 20
28.11693556529508
 30
0.0
 42
0.5450200690651619
  0
VERTEX
  5
188C
  8
SAPA_PROFIL
 10
64.425870931806912
 20
28.390216565295081
 30
0.0
  0
VERTEX
  5
188D
  8
SAPA_PROFIL
 10
63.049635931806961
 20
27.86693556529508
 30
0.0
  0
VERTEX
  5
188E
  8
SAPA_PROFIL
 10
63.049635931807188
 20
28.11693556529508
 30
0.0
 42
0.545020069065176
  0
VERTEX
  5
188F
  8
SAPA_PROFIL
 10
62.625870931806951
 20
28.390216565295081
 30
0.0
  0
VERTEX
  5
1890
  8
SAPA_PROFIL
 10
61.249635931807013
 20
27.86693556529508
 30
0.0
  0
VERTEX
  5
1891
  8
SAPA_PROFIL
 10
61.249635931807013
 20
28.11693556529508
 30
0.0
 42
0.5450200690651692
  0
VERTEX
  5
1892
  8
SAPA_PROFIL
 10
60.825870931807003
 20
28.390216565295081
 30
0.0
  0
VERTEX
  5
1893
  8
SAPA_PROFIL
 10
59.449635931807052
 20
27.86693556529508
 30
0.0
  0
VERTEX
  5
1894
  8
SAPA_PROFIL
 10
59.449635931807052
 20
28.416935565295041
 30
0.0
  0
VERTEX
  5
1895
  8
SAPA_PROFIL
 10
58.249635931807013
 20
28.416935565295041
 30
0.0
 42
0.1989123673797004
  0
VERTEX
  5
1896
  8
SAPA_PROFIL
 10
58.037503931806889
 20
28.32906756529519
 30
0.0
  0
VERTEX
  5
1897
  8
SAPA_PROFIL
 10
57.099635931806922
 20
27.491199565295119
 30
0.0
  0
VERTEX
  5
1898
  8
SAPA_PROFIL
 10
57.099635931806922
 20
25.86693556529508
 30
0.0
 42
0.4142135623730951
  0
VERTEX
  5
1899
  8
SAPA_PROFIL
 10
57.399635931807097
 20
25.566935565295129
 30
0.0
  0
VERTEX
  5
189A
  8
SAPA_PROFIL
 10
78.599635931806915
 20
25.566935565295129
 30
0.0
 42
-0.4142135623730951
  0
VERTEX
  5
189B
  8
SAPA_PROFIL
 10
79.599635931806915
 20
24.566935565295129
 30
0.0
  0
VERTEX
  5
189C
  8
SAPA_PROFIL
 10
79.599635931806915
 20
16.36693556529508
 30
0.0
 42
-0.4142135623730951
  0
VERTEX
  5
189D
  8
SAPA_PROFIL
 10
79.099635931806915
 20
15.86693556529508
 30
0.0
  0
VERTEX
  5
189E
  8
SAPA_PROFIL
 10
75.899635931807083
 20
15.86693556529508
 30
0.0
 42
-0.4142135623730951
  0
VERTEX
  5
189F
  8
SAPA_PROFIL
 10
75.399635931807097
 20
16.36693556529508
 30
0.0
  0
VERTEX
  5
18A0
  8
SAPA_PROFIL
 10
75.399635931807097
 20
19.266935565295171
 30
0.0
 42
0.4142135623730951
  0
VERTEX
  5
18A1
  8
SAPA_PROFIL
 10
75.099635931806915
 20
19.566935565295118
 30
0.0
  0
VERTEX
  5
18A2
  8
SAPA_PROFIL
 10
74.399635931807097
 20
19.566935565295118
 30
0.0
 42
0.4142135623730951
  0
VERTEX
  5
18A3
  8
SAPA_PROFIL
 10
74.099635931806915
 20
19.266935565295171
 30
0.0
  0
VERTEX
  5
18A4
  8
SAPA_PROFIL
 10
74.099635931806915
 20
12.56693556529512
 30
0.0
  0
VERTEX
  5
18A5
  8
SAPA_PROFIL
 10
74.564559351166054
 20
11.98055154979442
 30
0.0
 42
0.7105995019814511
  0
VERTEX
  5
18A6
  8
SAPA_PROFIL
 10
75.099635931806915
 20
12.166935565295031
 30
0.0
  0
VERTEX
  5
18A7
  8
SAPA_PROFIL
 10
75.099635931806915
 20
14.06693556529512
 30
0.0
 42
-0.4142135623730951
  0
VERTEX
  5
18A8
  8
SAPA_PROFIL
 10
75.399635931807097
 20
14.36693556529508
 30
0.0
  0
VERTEX
  5
18A9
  8
SAPA_PROFIL
 10
79.299635931806961
 20
14.36693556529508
 30
0.0
 42
-0.4142135623730951
  0
VERTEX
  5
18AA
  8
SAPA_PROFIL
 10
79.599635931806915
 20
14.06693556529512
 30
0.0
  0
VERTEX
  5
18AB
  8
SAPA_PROFIL
 10
79.599635931806915
 20
7.366935565295079
 30
0.0
 42
-0.4142135623730951
  0
VERTEX
  5
18AC
  8
SAPA_PROFIL
 10
79.299635931806961
 20
7.0669355652951253
 30
0.0
  0
VERTEX
  5
18AD
  8
SAPA_PROFIL
 10
75.399635931807097
 20
7.0669355652951253
 30
0.0
 42
-0.4142135623730951
  0
VERTEX
  5
18AE
  8
SAPA_PROFIL
 10
75.099635931806915
 20
7.366935565295079
 30
0.0
  0
VERTEX
  5
18AF
  8
SAPA_PROFIL
 10
75.099635931806915
 20
8.5669355652951253
 30
0.0
 42
0.7105990647993611
  0
VERTEX
  5
18B0
  8
SAPA_PROFIL
 10
74.564559931807025
 20
8.7533195652952145
 30
0.0
  0
VERTEX
  5
18B1
  8
SAPA_PROFIL
 10
74.099635931806915
 20
8.1669355652950344
 30
0.0
  0
VERTEX
  5
18B2
  8
SAPA_PROFIL
 10
74.099635931806915
 20
5.866935565295079
 30
0.0
 42
0.4142135623730951
  0
VERTEX
  5
18B3
  8
SAPA_PROFIL
 10
74.399635931807097
 20
5.5669355652951253
 30
0.0
  0
VERTEX
  5
18B4
  8
SAPA_PROFIL
 10
173.59963593180689
 20
5.5669355652951253
 30
0.0
 42
0.4142135623730951
  0
VERTEX
  5
18B5
  8
SAPA_PROFIL
 10
174.09963593180689
 20
6.0669355652951253
 30
0.0
  0
VERTEX
  5
18B6
  8
SAPA_PROFIL
 10
174.09963593180689
 20
55.066935565295118
 30
0.0
 42
0.4142135623730951
  0
VERTEX
  5
18B7
  8
SAPA_PROFIL
 10
173.59963593180689
 20
55.566935565295132
 30
0.0
  0
VERTEX
  5
18B8
  8
SAPA_PROFIL
 10
74.399635931807097
 20
55.566935565295132
 30
0.0
 42
0.4142135623730951
  0
VERTEX
  5
18B9
  8
SAPA_PROFIL
 10
74.099635931806915
 20
55.266935565295171
 30
0.0
  0
VERTEX
  5
18BA
  8
SAPA_PROFIL
 10
74.099635931806915
 20
52.966935565295223
 30
0.0
  0
VERTEX
  5
18BB
  8
SAPA_PROFIL
 10
74.564559351166054
 20
52.380551549794518
 30
0.0
 42
0.7105995019814511
  0
VERTEX
  5
18BC
  8
SAPA_PROFIL
 10
75.099635931806915
 20
52.566935565295118
 30
0.0
  0
VERTEX
  5
18BD
  8
SAPA_PROFIL
 10
75.099635931806915
 20
53.766935565295171
 30
0.0
 42
-0.4142135623730951
  0
VERTEX
  5
18BE
  8
SAPA_PROFIL
 10
75.399635931807097
 20
54.066935565295118
 30
0.0
  0
VERTEX
  5
18BF
  8
SAPA_PROFIL
 10
79.299635931806961
 20
54.066935565295118
 30
0.0
 42
-0.4142135623730951
  0
VERTEX
  5
18C0
  8
SAPA_PROFIL
 10
79.599635931806915
 20
53.766935565295171
 30
0.0
  0
VERTEX
  5
18C1
  8
SAPA_PROFIL
 10
79.599635931806915
 20
47.066935565295118
 30
0.0
 42
-0.4142135623730951
  0
VERTEX
  5
18C2
  8
SAPA_PROFIL
 10
79.299635931806961
 20
46.766935565295157
 30
0.0
  0
VERTEX
  5
18C3
  8
SAPA_PROFIL
 10
75.399635931807097
 20
46.766935565295157
 30
0.0
 42
-0.4142135623730951
  0
VERTEX
  5
18C4
  8
SAPA_PROFIL
 10
75.099635931806915
 20
47.066935565295118
 30
0.0
  0
VERTEX
  5
18C5
  8
SAPA_PROFIL
 10
75.099635931806915
 20
48.966935565295209
 30
0.0
 42
0.7105995019814511
  0
VERTEX
  5
18C6
  8
SAPA_PROFIL
 10
74.564559351166054
 20
49.153319580795817
 30
0.0
  0
VERTEX
  5
18C7
  8
SAPA_PROFIL
 10
74.099635931806915
 20
48.566935565295132
 30
0.0
  0
VERTEX
  5
18C8
  8
SAPA_PROFIL
 10
74.099635931806915
 20
41.866935565295073
 30
0.0
 42
0.4142135623730951
  0
VERTEX
  5
18C9
  8
SAPA_PROFIL
 10
74.399635931807097
 20
41.566935565295118
 30
0.0
  0
VERTEX
  5
18CA
  8
SAPA_PROFIL
 10
75.099635931806915
 20
41.566935565295118
 30
0.0
 42
0.4142135623730951
  0
VERTEX
  5
18CB
  8
SAPA_PROFIL
 10
75.399635931807097
 20
41.866935565295073
 30
0.0
  0
VERTEX
  5
18CC
  8
SAPA_PROFIL
 10
75.399635931807097
 20
44.766935565295171
 30
0.0
 42
-0.4142135623730951
  0
VERTEX
  5
18CD
  8
SAPA_PROFIL
 10
75.899635931807083
 20
45.266935565295171
 30
0.0
  0
VERTEX
  5
18CE
  8
SAPA_PROFIL
 10
79.099635931806915
 20
45.266935565295171
 30
0.0
 42
-0.4142135623730951
  0
VERTEX
  5
18CF
  8
SAPA_PROFIL
 10
79.599635931806915
 20
44.766935565295171
 30
0.0
  0
SEQEND
  5
18D0
  8
SAPA_PROFIL
  0
LINE
  5
F27
  8
SAPA_PROFIL
 62
     4
 10
81.885095760967246
 20
24.381873156267861
 30
0.0
 11
149.88509576096629
 21
24.381873156267901
 31
0.0
  0
LINE
  5
F28
  8
SAPA_PROFIL
 62
     4
 10
149.88509576096681
 20
36.881873156268242
 30
0.0
 11
81.885095760966806
 21
36.881873156267289
 31
0.0
  0
POLYLINE
  5
F29
  8
SAPA_PROFIL
 62
     4
 66
     1
 10
0.0
 20
0.0
 30
0.0
 70
     1
  0
VERTEX
  5
18D1
  8
SAPA_PROFIL
 62
     4
 10
82.385095760967261
 20
14.08187315626733
 30
0.0
  0
VERTEX
  5
18D2
  8
SAPA_PROFIL
 62
     4
 10
94.885095760965896
 20
14.08187315626733
 30
0.0
 42
-0.4142135623729619
  0
VERTEX
  5
18D3
  8
SAPA_PROFIL
 62
     4
 10
95.385095760965896
 20
13.58187315626779
 30
0.0
  0
VERTEX
  5
18D4
  8
SAPA_PROFIL
 62
     4
 10
95.385095760966337
 20
9.9818731562675183
 30
0.0
 42
0.4142135623731617
  0
VERTEX
  5
18D5
  8
SAPA_PROFIL
 62
     4
 10
96.385095760966365
 20
8.9818731562682004
 30
0.0
  0
VERTEX
  5
18D6
  8
SAPA_PROFIL
 62
     4
 10
127.38509576096629
 20
8.9818731562679641
 30
0.0
 42
0.4142135623730951
  0
VERTEX
  5
18D7
  8
SAPA_PROFIL
 62
     4
 10
128.38509576096629
 20
9.9818731562679641
 30
0.0
  0
VERTEX
  5
18D8
  8
SAPA_PROFIL
 62
     4
 10
128.38509576096629
 20
13.58187315626733
 30
0.0
 42
-0.4142135623730951
  0
VERTEX
  5
18D9
  8
SAPA_PROFIL
 62
     4
 10
128.88509576096629
 20
14.08187315626733
 30
0.0
  0
VERTEX
  5
18DA
  8
SAPA_PROFIL
 62
     4
 10
148.88509576096629
 20
14.08187315626726
 30
0.0
 42
0.4142135623730951
  0
VERTEX
  5
18DB
  8
SAPA_PROFIL
 62
     4
 10
149.88509576096629
 20
15.08187315626726
 30
0.0
  0
VERTEX
  5
18DC
  8
SAPA_PROFIL
 62
     4
 10
149.88509576096629
 20
46.181873156267621
 30
0.0
 42
0.4142135623730951
  0
VERTEX
  5
18DD
  8
SAPA_PROFIL
 62
     4
 10
148.88509576096629
 20
47.181873156267628
 30
0.0
  0
VERTEX
  5
18DE
  8
SAPA_PROFIL
 62
     4
 10
128.88509576096629
 20
47.181873156268139
 30
0.0
 42
-0.4142135623732283
  0
VERTEX
  5
18DF
  8
SAPA_PROFIL
 62
     4
 10
128.3850957609659
 20
47.681873156268139
 30
0.0
  0
VERTEX
  5
18E0
  8
SAPA_PROFIL
 62
     4
 10
128.38509576096629
 20
51.281873156267963
 30
0.0
 42
0.4142135623730951
  0
VERTEX
  5
18E1
  8
SAPA_PROFIL
 62
     4
 10
127.38509576096629
 20
52.281873156267963
 30
0.0
  0
VERTEX
  5
18E2
  8
SAPA_PROFIL
 62
     4
 10
96.385095760965896
 20
52.281873156267508
 30
0.0
 42
0.4142135623730951
  0
VERTEX
  5
18E3
  8
SAPA_PROFIL
 62
     4
 10
95.385095760965896
 20
51.281873156267508
 30
0.0
  0
VERTEX
  5
18E4
  8
SAPA_PROFIL
 62
     4
 10
95.385095760966337
 20
47.681873156267699
 30
0.0
 42
-0.4142135623730951
  0
VERTEX
  5
18E5
  8
SAPA_PROFIL
 62
     4
 10
94.885095760966351
 20
47.181873156267699
 30
0.0
  0
VERTEX
  5
18E6
  8
SAPA_PROFIL
 62
     4
 10
82.385095760966351
 20
47.181873156267812
 30
0.0
 42
0.4142135623730951
  0
VERTEX
  5
18E7
  8
SAPA_PROFIL
 62
     4
 10
81.885095760966351
 20
46.681873156267812
 30
0.0
  0
VERTEX
  5
18E8
  8
SAPA_PROFIL
 62
     4
 10
81.885095760967246
 20
14.58187315626733
 30
0.0
 42
0.4142135623730951
  0
SEQEND
  5
18E9
  8
SAPA_PROFIL
 62
     4
  0
POLYLINE
  5
F2A
  8
SAPA_PROFIL
 66
     1
 10
0.0
 20
0.0
 30
0.0
 70
     1
  0
VERTEX
  5
18EA
  8
SAPA_PROFIL
 10
18.501160860599999
 20
7.7669355652947081
 30
0.0
  0
VERTEX
  5
18EB
  8
SAPA_PROFIL
 10
18.501160860599999
 20
6.7669355652947081
 30
0.0
  0
VERTEX
  5
18EC
  8
SAPA_PROFIL
 10
21.10116086060016
 20
6.7669355652947081
 30
0.0
 42
-0.4142135623730951
  0
VERTEX
  5
18ED
  8
SAPA_PROFIL
 10
21.60116086060016
 20
6.2669355652947081
 30
0.0
  0
VERTEX
  5
18EE
  8
SAPA_PROFIL
 10
21.60116086060016
 20
5.866935565294618
 30
0.0
 42
-0.4142135623730951
  0
VERTEX
  5
18EF
  8
SAPA_PROFIL
 10
21.301160860600209
 20
5.5669355652946626
 30
0.0
  0
VERTEX
  5
18F0
  8
SAPA_PROFIL
 10
3.599635932797514
 20
5.5669355652946697
 30
0.0
 42
-0.4142135623730951
  0
VERTEX
  5
18F1
  8
SAPA_PROFIL
 10
3.099635932797514
 20
6.0669355652946697
 30
0.0
  0
VERTEX
  5
18F2
  8
SAPA_PROFIL
 10
3.0996359327975229
 20
55.066935565294671
 30
0.0
 42
-0.4142135623730951
  0
VERTEX
  5
18F3
  8
SAPA_PROFIL
 10
3.5996359327975229
 20
55.566935565294671
 30
0.0
  0
VERTEX
  5
18F4
  8
SAPA_PROFIL
 10
21.30116086060022
 20
55.566935565294671
 30
0.0
 42
-0.4142135623730951
  0
VERTEX
  5
18F5
  8
SAPA_PROFIL
 10
21.601160860600171
 20
55.266935565294709
 30
0.0
  0
VERTEX
  5
18F6
  8
SAPA_PROFIL
 10
21.601160860600171
 20
54.866935565294618
 30
0.0
 42
-0.4142135623730951
  0
VERTEX
  5
18F7
  8
SAPA_PROFIL
 10
21.101160860600171
 20
54.366935565294618
 30
0.0
  0
VERTEX
  5
18F8
  8
SAPA_PROFIL
 10
18.501160860599999
 20
54.366935565294618
 30
0.0
  0
VERTEX
  5
18F9
  8
SAPA_PROFIL
 10
18.501160860599999
 20
53.366935565294611
 30
0.0
  0
VERTEX
  5
18FA
  8
SAPA_PROFIL
 10
17.497128100967011
 20
52.787274786873468
 30
0.0
 42
-0.4155392929676362
  0
VERTEX
  5
18FB
  8
SAPA_PROFIL
 10
16.402509129175019
 20
53.083248213179331
 30
0.0
  0
VERTEX
  5
18FC
  8
SAPA_PROFIL
 10
15.66137189087606
 20
54.366935565294618
 30
0.0
  0
VERTEX
  5
18FD
  8
SAPA_PROFIL
 10
5.4996359327973874
 20
54.366935565294618
 30
0.0
 42
0.4142135623730951
  0
VERTEX
  5
18FE
  8
SAPA_PROFIL
 10
4.4996359327973874
 20
53.366935565294618
 30
0.0
  0
VERTEX
  5
18FF
  8
SAPA_PROFIL
 10
4.4996359327973776
 20
7.7669355652947161
 30
0.0
 42
0.4142135623730951
  0
VERTEX
  5
1900
  8
SAPA_PROFIL
 10
5.4996359327973776
 20
6.7669355652947161
 30
0.0
  0
VERTEX
  5
1901
  8
SAPA_PROFIL
 10
15.66137189087606
 20
6.7669355652947081
 30
0.0
  0
VERTEX
  5
1902
  8
SAPA_PROFIL
 10
16.402509129175019
 20
8.0506229174100028
 30
0.0
 42
-0.4155392929676362
  0
VERTEX
  5
1903
  8
SAPA_PROFIL
 10
17.497128100967
 20
8.3465963437158663
 30
0.0
  0
SEQEND
  5
1904
  8
SAPA_PROFIL
  0
POLYLINE
  5
F2B
  8
SAPA_PROFIL
 66
     1
 10
0.0
 20
0.0
 30
0.0
 70
     1
  0
VERTEX
  5
1905
  8
SAPA_PROFIL
 10
23.099635932797579
 20
51.416935565295262
 30
0.0
 42
-0.1989123673797145
  0
VERTEX
  5
1906
  8
SAPA_PROFIL
 10
23.01176796715367
 20
51.204803530938989
 30
0.0
  0
VERTEX
  5
1907
  8
SAPA_PROFIL
 10
22.611767967153579
 20
50.804803530939353
 30
0.0
 42
-0.668178637919182
  0
VERTEX
  5
1908
  8
SAPA_PROFIL
 10
22.099635932797579
 20
51.016935565295171
 30
0.0
  0
VERTEX
  5
1909
  8
SAPA_PROFIL
 10
22.099635932797579
 20
51.86693556529508
 30
0.0
 42
0.4142135623730284
  0
VERTEX
  5
190A
  8
SAPA_PROFIL
 10
21.599635932797579
 20
52.36693556529508
 30
0.0
  0
VERTEX
  5
190B
  8
SAPA_PROFIL
 10
21.208827003077431
 20
52.36693556529508
 30
0.0
 42
0.17632698070845
  0
VERTEX
  5
190C
  8
SAPA_PROFIL
 10
21.015990720171661
 20
52.296748898230817
 30
0.0
  0
VERTEX
  5
190D
  8
SAPA_PROFIL
 10
19.206799649891991
 20
50.778657338430087
 30
0.0
 42
0.2216946626429421
  0
VERTEX
  5
190E
  8
SAPA_PROFIL
 10
19.099635932798041
 20
50.548844005494182
 30
0.0
  0
VERTEX
  5
190F
  8
SAPA_PROFIL
 10
19.099635932797579
 20
47.016935565295171
 30
0.0
 42
0.4142135623730951
  0
VERTEX
  5
1910
  8
SAPA_PROFIL
 10
19.399635932797761
 20
46.716935565294989
 30
0.0
  0
VERTEX
  5
1911
  8
SAPA_PROFIL
 10
21.799635932797859
 20
46.716935565295437
 30
0.0
 42
0.4142135623730951
  0
VERTEX
  5
1912
  8
SAPA_PROFIL
 10
22.099635932797579
 20
47.016935565295171
 30
0.0
  0
VERTEX
  5
1913
  8
SAPA_PROFIL
 10
22.099635932797579
 20
47.416935565295262
 30
0.0
 42
-0.6681786379193188
  0
VERTEX
  5
1914
  8
SAPA_PROFIL
 10
22.611767967153579
 20
47.629067599651073
 30
0.0
  0
VERTEX
  5
1915
  8
SAPA_PROFIL
 10
23.01176796715367
 20
47.229067599650982
 30
0.0
 42
-0.198912367379658
  0
VERTEX
  5
1916
  8
SAPA_PROFIL
 10
23.099635932797579
 20
47.016935565295171
 30
0.0
  0
VERTEX
  5
1917
  8
SAPA_PROFIL
 10
23.099635932798041
 20
45.216935565295437
 30
0.0
 42
-0.4142135623731284
  0
VERTEX
  5
1918
  8
SAPA_PROFIL
 10
22.599635932798041
 20
44.716935565295437
 30
0.0
  0
VERTEX
  5
1919
  8
SAPA_PROFIL
 10
18.099635932797131
 20
44.716935565294989
 30
0.0
 42
-0.4142135623730951
  0
VERTEX
  5
191A
  8
SAPA_PROFIL
 10
17.599635932797131
 20
45.216935565294982
 30
0.0
  0
VERTEX
  5
191B
  8
SAPA_PROFIL
 10
17.599635932798041
 20
49.216935565294989
 30
0.0
 42
0.4142135623729619
  0
VERTEX
  5
191C
  8
SAPA_PROFIL
 10
17.099635932798041
 20
49.716935565294989
 30
0.0
  0
VERTEX
  5
191D
  8
SAPA_PROFIL
 10
15.08267928559439
 20
49.716935565294989
 30
0.0
 42
0.1763269807084973
  0
VERTEX
  5
191E
  8
SAPA_PROFIL
 10
14.761285480750979
 20
49.59995778685424
 30
0.0
  0
VERTEX
  5
191F
  8
SAPA_PROFIL
 10
12.278242127954631
 20
47.516437025325096
 30
0.0
 42
0.2216946626428772
  0
VERTEX
  5
1920
  8
SAPA_PROFIL
 10
12.099635932798041
 20
47.133414803765838
 30
0.0
  0
VERTEX
  5
1921
  8
SAPA_PROFIL
 10
12.099635932797581
 20
41.135469293686121
 30
0.0
 42
0.315298788878991
  0
VERTEX
  5
1922
  8
SAPA_PROFIL
 10
12.428625861134829
 20
40.66562298329336
 30
0.0
  0
VERTEX
  5
1923
  8
SAPA_PROFIL
 10
16.441656076123529
 20
39.204999435826721
 30
0.0
 42
-0.3152987888789731
  0
VERTEX
  5
1924
  8
SAPA_PROFIL
 10
17.099635932798041
 20
38.265306815040731
 30
0.0
  0
VERTEX
  5
1925
  8
SAPA_PROFIL
 10
17.099635932798041
 20
37.216935565294989
 30
0.0
 42
0.4142135623732616
  0
VERTEX
  5
1926
  8
SAPA_PROFIL
 10
17.399635932797761
 20
36.916935565294807
 30
0.0
  0
VERTEX
  5
1927
  8
SAPA_PROFIL
 10
17.799635932797852
 20
36.916935565294807
 30
0.0
 42
-0.4142135623731506
  0
VERTEX
  5
1928
  8
SAPA_PROFIL
 10
18.09963593279803
 20
36.61693556529508
 30
0.0
  0
VERTEX
  5
1929
  8
SAPA_PROFIL
 10
18.09963593279803
 20
36.216935565294989
 30
0.0
 42
-0.4142135623731505
  0
VERTEX
  5
192A
  8
SAPA_PROFIL
 10
17.799635932797852
 20
35.916935565294807
 30
0.0
  0
VERTEX
  5
192B
  8
SAPA_PROFIL
 10
17.399635932797761
 20
35.916935565294807
 30
0.0
 42
0.4142135623732061
  0
VERTEX
  5
192C
  8
SAPA_PROFIL
 10
17.099635932798041
 20
35.61693556529508
 30
0.0
  0
VERTEX
  5
192D
  8
SAPA_PROFIL
 10
17.099635932798041
 20
31.191199634006811
 30
0.0
 42
-0.198912367379577
  0
VERTEX
  5
192E
  8
SAPA_PROFIL
 10
17.01176796715367
 20
30.979067599650989
 30
0.0
  0
VERTEX
  5
192F
  8
SAPA_PROFIL
 10
16.599635932798041
 20
30.566935565294902
 30
0.0
  0
VERTEX
  5
1930
  8
SAPA_PROFIL
 10
17.01176796715367
 20
30.15480353093881
 30
0.0
 42
-0.1989123673795771
  0
VERTEX
  5
1931
  8
SAPA_PROFIL
 10
17.099635932798041
 20
29.942671496582989
 30
0.0
  0
VERTEX
  5
1932
  8
SAPA_PROFIL
 10
17.099635932798041
 20
25.516935565295171
 30
0.0
 42
0.4142135623732059
  0
VERTEX
  5
1933
  8
SAPA_PROFIL
 10
17.399635932797761
 20
25.216935565294989
 30
0.0
  0
VERTEX
  5
1934
  8
SAPA_PROFIL
 10
17.799635932797852
 20
25.216935565294989
 30
0.0
 42
-0.4142135623731506
  0
VERTEX
  5
1935
  8
SAPA_PROFIL
 10
18.09963593279803
 20
24.916935565294811
 30
0.0
  0
VERTEX
  5
1936
  8
SAPA_PROFIL
 10
18.09963593279803
 20
24.516935565295171
 30
0.0
 42
-0.4142135623731505
  0
VERTEX
  5
1937
  8
SAPA_PROFIL
 10
17.799635932797852
 20
24.216935565294989
 30
0.0
  0
VERTEX
  5
1938
  8
SAPA_PROFIL
 10
17.399635932797761
 20
24.216935565294989
 30
0.0
 42
0.4142135623732615
  0
VERTEX
  5
1939
  8
SAPA_PROFIL
 10
17.099635932798041
 20
23.916935565294811
 30
0.0
  0
VERTEX
  5
193A
  8
SAPA_PROFIL
 10
17.099635932798041
 20
22.86856431554952
 30
0.0
 42
-0.3152987888789731
  0
VERTEX
  5
193B
  8
SAPA_PROFIL
 10
16.441656076123529
 20
21.928871694763529
 30
0.0
  0
VERTEX
  5
193C
  8
SAPA_PROFIL
 10
12.428625861134829
 20
20.46824814729689
 30
0.0
 42
0.315298788878991
  0
VERTEX
  5
193D
  8
SAPA_PROFIL
 10
12.099635932797581
 20
19.99840183690366
 30
0.0
  0
VERTEX
  5
193E
  8
SAPA_PROFIL
 10
12.099635932798041
 20
14.0004563268244
 30
0.0
 42
0.2216946626428772
  0
VERTEX
  5
193F
  8
SAPA_PROFIL
 10
12.278242127954631
 20
13.61743410526514
 30
0.0
  0
VERTEX
  5
1940
  8
SAPA_PROFIL
 10
14.761285480750979
 20
11.53391334373555
 30
0.0
 42
0.1763269807084973
  0
VERTEX
  5
1941
  8
SAPA_PROFIL
 10
15.08267928559439
 20
11.416935565294811
 30
0.0
  0
VERTEX
  5
1942
  8
SAPA_PROFIL
 10
17.099635932798041
 20
11.416935565294811
 30
0.0
 42
0.4142135623729619
  0
VERTEX
  5
1943
  8
SAPA_PROFIL
 10
17.599635932798041
 20
11.916935565294811
 30
0.0
  0
VERTEX
  5
1944
  8
SAPA_PROFIL
 10
17.599635932797131
 20
15.9169355652948
 30
0.0
 42
-0.4142135623730951
  0
VERTEX
  5
1945
  8
SAPA_PROFIL
 10
18.099635932797131
 20
16.416935565294811
 30
0.0
  0
VERTEX
  5
1946
  8
SAPA_PROFIL
 10
22.599635932798041
 20
16.416935565294811
 30
0.0
 42
-0.4142135623731285
  0
VERTEX
  5
1947
  8
SAPA_PROFIL
 10
23.099635932798041
 20
15.9169355652948
 30
0.0
  0
VERTEX
  5
1948
  8
SAPA_PROFIL
 10
23.099635932797579
 20
14.11693556529462
 30
0.0
 42
-0.198912367379658
  0
VERTEX
  5
1949
  8
SAPA_PROFIL
 10
23.01176796715367
 20
13.9048035309388
 30
0.0
  0
VERTEX
  5
194A
  8
SAPA_PROFIL
 10
22.611767967153579
 20
13.504803530938711
 30
0.0
 42
-0.6681786379193188
  0
VERTEX
  5
194B
  8
SAPA_PROFIL
 10
22.099635932797579
 20
13.716935565294991
 30
0.0
  0
VERTEX
  5
194C
  8
SAPA_PROFIL
 10
22.099635932797579
 20
14.11693556529462
 30
0.0
 42
0.4142135623730951
  0
VERTEX
  5
194D
  8
SAPA_PROFIL
 10
21.799635932797859
 20
14.416935565294811
 30
0.0
  0
VERTEX
  5
194E
  8
SAPA_PROFIL
 10
19.399635932797761
 20
14.416935565294811
 30
0.0
 42
0.4142135623730951
  0
VERTEX
  5
194F
  8
SAPA_PROFIL
 10
19.099635932797579
 20
14.11693556529462
 30
0.0
  0
VERTEX
  5
1950
  8
SAPA_PROFIL
 10
19.099635932798041
 20
10.585027125095619
 30
0.0
 42
0.221694662642942
  0
VERTEX
  5
1951
  8
SAPA_PROFIL
 10
19.206799649891991
 20
10.355213792160161
 30
0.0
  0
VERTEX
  5
1952
  8
SAPA_PROFIL
 10
21.015990720171661
 20
8.8371222323594338
 30
0.0
 42
0.1763269807084499
  0
VERTEX
  5
1953
  8
SAPA_PROFIL
 10
21.208827003077431
 20
8.7669355652951708
 30
0.0
  0
VERTEX
  5
1954
  8
SAPA_PROFIL
 10
21.599635932797579
 20
8.7669355652947161
 30
0.0
 42
0.4142135623730284
  0
VERTEX
  5
1955
  8
SAPA_PROFIL
 10
22.099635932797579
 20
9.2669355652947161
 30
0.0
  0
VERTEX
  5
1956
  8
SAPA_PROFIL
 10
22.099635932797579
 20
10.11693556529462
 30
0.0
 42
-0.668178637919182
  0
VERTEX
  5
1957
  8
SAPA_PROFIL
 10
22.611767967153579
 20
10.3290675996509
 30
0.0
  0
VERTEX
  5
1958
  8
SAPA_PROFIL
 10
23.01176796715367
 20
9.9290675996508071
 30
0.0
 42
-0.1989123673797144
  0
VERTEX
  5
1959
  8
SAPA_PROFIL
 10
23.099635932797579
 20
9.7169355652949871
 30
0.0
  0
VERTEX
  5
195A
  8
SAPA_PROFIL
 10
23.099635932797579
 20
7.2669355652947161
 30
0.0
 42
-0.4142135623730951
  0
VERTEX
  5
195B
  8
SAPA_PROFIL
 10
22.599635932797579
 20
6.7669355652947161
 30
0.0
  0
VERTEX
  5
195C
  8
SAPA_PROFIL
 10
18.899635932797761
 20
6.7669355652947161
 30
0.0
 42
-0.4142135623730951
  0
VERTEX
  5
195D
  8
SAPA_PROFIL
 10
18.599635932797579
 20
7.0669355652944432
 30
0.0
  0
VERTEX
  5
195E
  8
SAPA_PROFIL
 10
18.599635932797579
 20
8.0937304845379003
 30
0.0
 42
0.2679491924311428
  0
VERTEX
  5
195F
  8
SAPA_PROFIL
 10
18.449635932797491
 20
8.3535381056731222
 30
0.0
  0
VERTEX
  5
1960
  8
SAPA_PROFIL
 10
16.91255244525723
 20
9.2409736709714707
 30
0.0
 42
0.4142135623731709
  0
VERTEX
  5
1961
  8
SAPA_PROFIL
 10
16.502744824121919
 20
9.1311660498358833
 30
0.0
  0
VERTEX
  5
1962
  8
SAPA_PROFIL
 10
16.195512729094609
 20
8.5990244515328413
 30
0.0
 42
-0.4663076581551056
  0
VERTEX
  5
1963
  8
SAPA_PROFIL
 10
14.686699715623719
 20
8.3329800084138697
 30
0.0
  0
VERTEX
  5
1964
  8
SAPA_PROFIL
 10
9.7782421279546252
 20
12.451664959877689
 30
0.0
 42
-0.2216946626428921
  0
VERTEX
  5
1965
  8
SAPA_PROFIL
 10
9.5996359327975824
 20
12.834687181437401
 30
0.0
  0
VERTEX
  5
1966
  8
SAPA_PROFIL
 10
9.5996359327975824
 20
20.86672802708517
 30
0.0
 42
-0.3152987888789878
  0
VERTEX
  5
1967
  8
SAPA_PROFIL
 10
10.25761578947208
 20
21.80642064787116
 30
0.0
  0
VERTEX
  5
1968
  8
SAPA_PROFIL
 10
13.941656076123531
 20
23.147301654049901
 30
0.0
 42
0.3152987888789804
  0
VERTEX
  5
1969
  8
SAPA_PROFIL
 10
14.599635932798041
 20
24.086994274835892
 30
0.0
  0
VERTEX
  5
196A
  8
SAPA_PROFIL
 10
14.599635932798041
 20
37.046876855754363
 30
0.0
 42
0.3152987888789804
  0
VERTEX
  5
196B
  8
SAPA_PROFIL
 10
13.941656076123531
 20
37.986569476540353
 30
0.0
  0
VERTEX
  5
196C
  8
SAPA_PROFIL
 10
10.25761578947208
 20
39.327450482718632
 30
0.0
 42
-0.3152987888789877
  0
VERTEX
  5
196D
  8
SAPA_PROFIL
 10
9.5996359327975824
 20
40.267143103504623
 30
0.0
  0
VERTEX
  5
196E
  8
SAPA_PROFIL
 10
9.5996359327975824
 20
48.299183949152848
 30
0.0
 42
-0.2216946626428921
  0
VERTEX
  5
196F
  8
SAPA_PROFIL
 10
9.7782421279546252
 20
48.682206170712107
 30
0.0
  0
VERTEX
  5
1970
  8
SAPA_PROFIL
 10
14.686699715623719
 20
52.800891122175919
 30
0.0
 42
-0.4663076581551056
  0
VERTEX
  5
1971
  8
SAPA_PROFIL
 10
16.195512729094609
 20
52.534846679057409
 30
0.0
  0
VERTEX
  5
1972
  8
SAPA_PROFIL
 10
16.502744824121919
 20
52.002705080753913
 30
0.0
 42
0.414213562373157
  0
VERTEX
  5
1973
  8
SAPA_PROFIL
 10
16.91255244525723
 20
51.89289745961878
 30
0.0
  0
VERTEX
  5
1974
  8
SAPA_PROFIL
 10
18.449635932797491
 20
52.780333024917127
 30
0.0
 42
0.2679491924311554
  0
VERTEX
  5
1975
  8
SAPA_PROFIL
 10
18.599635932797579
 20
53.04014064605235
 30
0.0
  0
VERTEX
  5
1976
  8
SAPA_PROFIL
 10
18.599635932797579
 20
54.066935565295353
 30
0.0
 42
-0.4142135623730951
  0
VERTEX
  5
1977
  8
SAPA_PROFIL
 10
18.899635932797761
 20
54.366935565295528
 30
0.0
  0
VERTEX
  5
1978
  8
SAPA_PROFIL
 10
22.599635932797579
 20
54.36693556529508
 30
0.0
 42
-0.4142135623730951
  0
VERTEX
  5
1979
  8
SAPA_PROFIL
 10
23.099635932797579
 20
53.866935565295073
 30
0.0
  0
SEQEND
  5
197A
  8
SAPA_PROFIL
  0
POLYLINE
  5
F2C
  8
SAPA_PROFIL
 62
     4
 66
     1
 10
0.0
 20
0.0
 30
0.0
 70
     1
  0
VERTEX
  5
197B
  8
SAPA_PROFIL
 62
     4
 10
21.099635933542459
 20
29.65272201059679
 30
0.0
 42
0.1989123671061432
  0
VERTEX
  5
197C
  8
SAPA_PROFIL
 62
     4
 10
21.392529151611829
 20
30.359828791039039
 30
0.0
  0
VERTEX
  5
197D
  8
SAPA_PROFIL
 62
     4
 10
21.392529151611829
 20
30.774042339550309
 30
0.0
 42
0.1989123671061405
  0
VERTEX
  5
197E
  8
SAPA_PROFIL
 62
     4
 10
21.099635933542459
 20
31.481149119992551
 30
0.0
  0
VERTEX
  5
197F
  8
SAPA_PROFIL
 62
     4
 10
18.867402883159912
 20
33.713382175073548
 30
0.0
 42
-0.6681786375387241
  0
VERTEX
  5
1980
  8
SAPA_PROFIL
 62
     4
 10
19.220956274125228
 20
34.566935565294898
 30
0.0
  0
VERTEX
  5
1981
  8
SAPA_PROFIL
 62
     4
 10
35.599635932798037
 20
34.566935565294898
 30
0.0
 42
-0.4142135623730951
  0
VERTEX
  5
1982
  8
SAPA_PROFIL
 62
     4
 10
36.099635932798037
 20
34.066935565294898
 30
0.0
  0
VERTEX
  5
1983
  8
SAPA_PROFIL
 62
     4
 10
36.099635932798037
 20
27.066935565294902
 30
0.0
 42
-0.4142135623730951
  0
VERTEX
  5
1984
  8
SAPA_PROFIL
 62
     4
 10
35.599635932798037
 20
26.566935565294902
 30
0.0
  0
VERTEX
  5
1985
  8
SAPA_PROFIL
 62
     4
 10
19.220956274125228
 20
26.566935565294902
 30
0.0
 42
-0.6681786375387241
  0
VERTEX
  5
1986
  8
SAPA_PROFIL
 62
     4
 10
18.867402883159912
 20
27.420488955516252
 30
0.0
  0
SEQEND
  5
1987
  8
SAPA_PROFIL
 62
     4
  0
POLYLINE
  5
F2D
  8
SAPA_PROFIL
 62
     4
 66
     1
 10
0.0
 20
0.0
 30
0.0
 70
     1
  0
VERTEX
  5
1988
  8
SAPA_PROFIL
 62
     4
 10
62.82982390651113
 20
29.316935565294902
 30
0.0
  0
VERTEX
  5
1989
  8
SAPA_PROFIL
 62
     4
 10
57.53542237042506
 20
29.316935565294902
 30
0.0
  0
VERTEX
  5
198A
  8
SAPA_PROFIL
 62
     4
 10
56.099635932798037
 20
27.881149127667872
 30
0.0
  0
VERTEX
  5
198B
  8
SAPA_PROFIL
 62
     4
 10
56.099635932798037
 20
27.066935565294902
 30
0.0
 42
-0.4142135623730951
  0
VERTEX
  5
198C
  8
SAPA_PROFIL
 62
     4
 10
55.59963593279803
 20
26.566935565294902
 30
0.0
  0
VERTEX
  5
198D
  8
SAPA_PROFIL
 62
     4
 10
37.599635932798037
 20
26.566935565294902
 30
0.0
 42
-0.4142135623730951
  0
VERTEX
  5
198E
  8
SAPA_PROFIL
 62
     4
 10
37.099635932798037
 20
27.066935565294902
 30
0.0
  0
VERTEX
  5
198F
  8
SAPA_PROFIL
 62
     4
 10
37.099635932798037
 20
34.066935565294898
 30
0.0
 42
-0.4142135623730951
  0
VERTEX
  5
1990
  8
SAPA_PROFIL
 62
     4
 10
37.599635932798037
 20
34.566935565294898
 30
0.0
  0
VERTEX
  5
1991
  8
SAPA_PROFIL
 62
     4
 10
55.59963593279803
 20
34.566935565294898
 30
0.0
 42
-0.4142135623730951
  0
VERTEX
  5
1992
  8
SAPA_PROFIL
 62
     4
 10
56.099635932798037
 20
34.066935565294898
 30
0.0
  0
VERTEX
  5
1993
  8
SAPA_PROFIL
 62
     4
 10
56.099635932798037
 20
33.252722002921473
 30
0.0
  0
VERTEX
  5
1994
  8
SAPA_PROFIL
 62
     4
 10
57.53542237042506
 20
31.816935565294902
 30
0.0
  0
VERTEX
  5
1995
  8
SAPA_PROFIL
 62
     4
 10
62.82982390651113
 20
31.816935565294902
 30
0.0
 42
-0.065831318015991
  0
VERTEX
  5
1996
  8
SAPA_PROFIL
 62
     4
 10
64.136030341976948
 20
30.963173854897828
 30
0.0
 42
-0.3293016377614416
  0
VERTEX
  5
1997
  8
SAPA_PROFIL
 62
     4
 10
64.218873871806181
 20
30.24330432374154
 30
0.0
 42
-0.0704800454100707
  0
SEQEND
  5
1998
  8
SAPA_PROFIL
 62
     4
  0
POLYLINE
  5
F2E
  8
SAPA_PROFIL
 62
     4
 66
     1
 10
0.0
 20
0.0
 30
0.0
 70
     1
  0
VERTEX
  5
1999
  8
SAPA_PROFIL
 62
     4
 10
62.504668891013353
 20
28.316935565294902
 30
0.0
  0
VERTEX
  5
199A
  8
SAPA_PROFIL
 62
     4
 10
57.949635932797953
 20
28.316935565294902
 30
0.0
  0
VERTEX
  5
199B
  8
SAPA_PROFIL
 62
     4
 10
57.099635932798037
 20
27.466935565294989
 30
0.0
  0
VERTEX
  5
199C
  8
SAPA_PROFIL
 62
     4
 10
57.099635932798037
 20
26.066935565294902
 30
0.0
 42
-0.4142135623730951
  0
VERTEX
  5
199D
  8
SAPA_PROFIL
 62
     4
 10
56.599635932798037
 20
25.566935565294902
 30
0.0
  0
VERTEX
  5
199E
  8
SAPA_PROFIL
 62
     4
 10
17.099635932798041
 20
25.566935565294902
 30
0.0
  0
VERTEX
  5
199F
  8
SAPA_PROFIL
 62
     4
 10
17.099635932798041
 20
27.066935565294902
 30
0.0
  0
VERTEX
  5
19A0
  8
SAPA_PROFIL
 62
     4
 10
20.246082542204711
 20
30.21338218132405
 30
0.0
 42
0.4142135623730951
  0
VERTEX
  5
19A1
  8
SAPA_PROFIL
 62
     4
 10
20.246082542204711
 20
30.920488962510721
 30
0.0
  0
VERTEX
  5
19A2
  8
SAPA_PROFIL
 62
     4
 10
17.099635932798041
 20
34.066935565294898
 30
0.0
  0
VERTEX
  5
19A3
  8
SAPA_PROFIL
 62
     4
 10
17.099635932798041
 20
35.566935565294898
 30
0.0
  0
VERTEX
  5
19A4
  8
SAPA_PROFIL
 62
     4
 10
56.599635932798037
 20
35.566935565294898
 30
0.0
 42
-0.4142135623730951
  0
VERTEX
  5
19A5
  8
SAPA_PROFIL
 62
     4
 10
57.099635932798037
 20
35.066935565294898
 30
0.0
  0
VERTEX
  5
19A6
  8
SAPA_PROFIL
 62
     4
 10
57.099635932798037
 20
33.666935565294807
 30
0.0
  0
VERTEX
  5
19A7
  8
SAPA_PROFIL
 62
     4
 10
57.949635932797953
 20
32.816935565294898
 30
0.0
  0
VERTEX
  5
19A8
  8
SAPA_PROFIL
 62
     4
 10
62.504668891013353
 20
32.816935565294898
 30
0.0
 42
-0.0912836897734228
  0
VERTEX
  5
19A9
  8
SAPA_PROFIL
 62
     4
 10
64.624225924615303
 20
31.59829389748484
 30
0.0
 42
-0.4609552212306322
  0
VERTEX
  5
19AA
  8
SAPA_PROFIL
 62
     4
 10
64.624225924615303
 20
29.535577233104512
 30
0.0
 42
-0.0912836897734229
  0
SEQEND
  5
19AB
  8
SAPA_PROFIL
 62
     4
  0
LINE
  5
F2F
  8
SAPA_PROFIL
 10
3.0996359327975251
 20
30.566935565294671
 30
0.0
 11
3.0996359327975251
 21
55.066935565294671
 31
0.0
  0
LINE
  5
F30
  8
SAPA_PROFIL
 10
174.09963593180689
 20
51.499584208578852
 30
0.0
 11
174.09963593180689
 21
55.06693556529509
 31
0.0
  0
POLYLINE
  5
F54
  8
SAPA_GLAS
 66
     1
 10
0.0
 20
0.0
 30
0.0
 70
     1
  0
VERTEX
  5
19C8
  8
SAPA_GLAS
 10
45.474172781276017
 20
19.132779109372901
 30
0.0
  0
VERTEX
  5
19C9
  8
SAPA_GLAS
 10
45.474172781276017
 20
8.8180890694932828
 30
0.0
  0
VERTEX
  5
19CA
  8
SAPA_GLAS
 10
33.474172781274213
 20
8.8180890694932828
 30
0.0
  0
VERTEX
  5
19CB
  8
SAPA_GLAS
 10
33.474172781274213
 20
19.132779109372901
 30
0.0
  0
SEQEND
  5
19CC
  8
SAPA_GLAS
  0
POLYLINE
  5
F55
  8
SAPA_GLAS
 66
     1
 10
0.0
 20
0.0
 30
0.0
  0
VERTEX
  5
19CD
  8
SAPA_GLAS
 10
33.474172781274213
 20
-10.86722089062755
 30
0.0
  0
VERTEX
  5
19CE
  8
SAPA_GLAS
 10
33.474172781274213
 20
19.132779109372901
 30
0.0
  0
VERTEX
  5
19CF
  8
SAPA_GLAS
 10
27.474172781274209
 20
19.132779109372901
 30
0.0
  0
VERTEX
  5
19D0
  8
SAPA_GLAS
 10
27.474172781274429
 20
-10.86722089062755
 30
0.0
  0
SEQEND
  5
19D1
  8
SAPA_GLAS
  0
POLYLINE
  5
F56
  8
SAPA_GLAS
 66
     1
 10
0.0
 20
0.0
 30
0.0
  0
VERTEX
  5
19D2
  8
SAPA_GLAS
 10
45.474172781276017
 20
-10.86722089062755
 30
0.0
  0
VERTEX
  5
19D3
  8
SAPA_GLAS
 10
45.474172781276017
 20
19.132779109372901
 30
0.0
  0
VERTEX
  5
19D4
  8
SAPA_GLAS
 10
63.474172781276017
 20
19.132779109372901
 30
0.0
  0
VERTEX
  5
19D5
  8
SAPA_GLAS
 10
63.474172781276017
 20
-10.86722089062755
 30
0.0
  0
SEQEND
  5
19D6
  8
SAPA_GLAS
  0
POLYLINE
  5
F57
  8
SAPA_GLAS
 66
     1
 10
0.0
 20
0.0
 30
0.0
  0
VERTEX
  5
19D7
  8
SAPA_GLAS
 10
51.474172781276017
 20
-10.86722089062755
 30
0.0
  0
VERTEX
  5
19D8
  8
SAPA_GLAS
 10
51.474172781276017
 20
19.132779109372901
 30
0.0
  0
VERTEX
  5
19D9
  8
SAPA_GLAS
 10
57.474172781276032
 20
19.132779109372901
 30
0.0
  0
VERTEX
  5
19DA
  8
SAPA_GLAS
 10
57.474172781276032
 20
-10.86722089062755
 30
0.0
  0
SEQEND
  5
19DB
  8
SAPA_GLAS
  0
INSERT
  5
F5D
  8
SAPA_ISOLATOR
  6
CONTINUOUS
  2
*X64
 10
0.0
 20
0.0
 30
0.0
1001
ACAD
1000
HATCH
1002
{
1070
    19
1000
DOTS
1040
1.75
1040
-1.5707963267948959
1000
R14_HATCH_DATA
1000
F5D
1011
1.0
1021
0.0
1031
0.0
1021
0.0
1031
0.0
1011
0.0
1021
0.0
1031
0.0
1021
1.0
1031
0.0
1011
0.0
1021
0.0
1031
0.0
1021
0.0
1031
1.0
1040
0.0
1010
0.0
1020
0.0
1030
1.0
1000
DOTS
1070
     0
1070
     0
1071
        3
1071
        7
1070
     1
1070
     1
1071
       14
1040
96.385095760965896
1040
52.13187315626751
1040
0.4142135623730952
1040
95.385095760965896
1040
51.131873156267517
1040
0.0
1040
95.385095760966337
1040
47.931873156267692
1040
-0.4142135623730951
1040
94.885095760966351
1040
47.431873156267692
1040
0.0
1040
82.385095760966351
1040
47.431873156267812
1040
0.4142135623730951
1040
81.885095760966351
1040
46.931873156267812
1040
0.0
1040
81.885095760966607
1040
37.131873156267289
1040
0.0
1040
149.88509576096629
1040
37.131873156268242
1040
0.0
1040
149.88509576096629
1040
46.431873156267628
1040
0.4142135623730951
1040
148.88509576096629
1040
47.431873156267621
1040
0.0
1040
128.88509576096629
1040
47.431873156268153
1040
-0.4142135623730951
1040
128.3850957609659
1040
47.931873156268139
1040
0.0
1040
128.38509576096629
1040
51.131873156267957
1040
0.4142135623730951
1040
127.38509576096629
1040
52.131873156267972
1040
0.0
1071
        0
1071
        7
1070
     0
1070
     1
1071
        4
1040
81.885095760966607
1040
37.131873156267289
1040
81.885095760966976
1040
24.131873156267861
1040
149.88509576096629
1040
24.131873156267911
1040
149.88509576096629
1040
37.131873156268242
1071
        0
1071
        7
1070
     1
1070
     1
1071
       14
1040
127.38509576096629
1040
9.1318731562679645
1040
0.4142135623730951
1040
128.38509576096629
1040
10.131873156267959
1040
0.0
1040
128.38509576096629
1040
13.33187315626733
1040
-0.4142135623730951
1040
128.88509576096629
1040
13.83187315626733
1040
0.0
1040
148.88509576096629
1040
13.83187315626726
1040
0.4142135623730951
1040
149.88509576096629
1040
14.83187315626726
1040
0.0
1040
149.88509576096629
1040
24.131873156267911
1040
0.0
1040
81.885095760966976
1040
24.131873156267861
1040
0.0
1040
81.885095760967246
1040
14.33187315626733
1040
0.4142135623730951
1040
82.385095760967261
1040
13.83187315626733
1040
0.0
1040
94.885095760965896
1040
13.83187315626733
1040
-0.4142135623730951
1040
95.385095760965896
1040
13.33187315626779
1040
0.0
1040
95.385095760966337
1040
10.13187315626751
1040
0.4142135623732283
1040
96.385095760966365
1040
9.1318731562679716
1040
0.0
1071
        0
1070
     0
1070
     1
1040
-1.5707963267948959
1040
1.75
1070
     0
1070
     1
1040
4.7123889803846888
1040
-323.75287644803052
1040
490.42033560719079
1040
2.7781249999999988
1040
-1.3890625000000001
1070
     2
1040
0.0
1040
-2.7781249999999988
1040
0.1995749341186441
1071
        3
1040
115.10141054522209
1040
49.369680759692947
1040
0.0
1040
117.0971607144879
1040
32.596775874328287
1040
0.0
1040
117.8954604143218
1040
15.823867990216421
1040
0.0
1002
}
  0
CIRCLE
  5
F6A
  8
SAPA_FOGBAND
 10
24.57116907644814
 20
11.93757876968078
 30
0.0
 40
0.2549509756796394
  0
POLYLINE
  5
F6B
  8
SAPA_FOGBAND
 66
     1
 10
0.0
 20
0.0
 30
0.0
 70
     1
  0
VERTEX
  5
1CF1
  8
SAPA_FOGBAND
 10
21.999635932796821
 20
12.83757876968042
 30
0.0
 42
-0.9999999999999998
  0
VERTEX
  5
1CF2
  8
SAPA_FOGBAND
 10
21.999635932796821
 20
11.037578769680239
 30
0.0
  0
VERTEX
  5
1CF3
  8
SAPA_FOGBAND
 10
21.39963593279646
 20
11.037578769680239
 30
0.0
 42
-0.9999999999999998
  0
VERTEX
  5
1CF4
  8
SAPA_FOGBAND
 10
21.39963593279646
 20
12.83757876968042
 30
0.0
  0
SEQEND
  5
1CF5
  8
SAPA_FOGBAND
  0
POLYLINE
  5
F6C
  8
SAPA_FOGBAND
 66
     1
 10
0.0
 20
0.0
 30
0.0
 70
     1
  0
VERTEX
  5
1CF6
  8
SAPA_FOGBAND
 10
25.43540722794825
 20
16.18757876968078
 30
0.0
  0
VERTEX
  5
1CF7
  8
SAPA_FOGBAND
 10
23.299635932796999
 20
16.18757876968078
 30
0.0
 42
0.4142135623730951
  0
VERTEX
  5
1CF8
  8
SAPA_FOGBAND
 10
23.099635932797181
 20
15.98757876968096
 30
0.0
  0
VERTEX
  5
1CF9
  8
SAPA_FOGBAND
 10
23.099635932797181
 20
13.93757876968078
 30
0.0
 42
-0.4142135623730951
  0
VERTEX
  5
1CFA
  8
SAPA_FOGBAND
 10
22.599635932797192
 20
13.43757876968078
 30
0.0
  0
VERTEX
  5
1CFB
  8
SAPA_FOGBAND
 10
21.872841013553451
 20
13.43757876968078
 30
0.0
  0
VERTEX
  5
1CFC
  8
SAPA_FOGBAND
 10
21.805381104243509
 20
13.68934257870108
 30
0.0
 42
0.4740571810232154
  0
VERTEX
  5
1CFD
  8
SAPA_FOGBAND
 10
21.523098518605199
 20
13.81663644106442
 30
0.0
  0
VERTEX
  5
1CFE
  8
SAPA_FOGBAND
 10
20.076892381844861
 20
13.19653593830566
 30
0.0
 42
0.2846003776496056
  0
VERTEX
  5
1CFF
  8
SAPA_FOGBAND
 10
19.799635932796999
 20
12.748891759845661
 30
0.0
  0
VERTEX
  5
1D00
  8
SAPA_FOGBAND
 10
19.799635932796999
 20
11.12626577951499
 30
0.0
 42
0.2846003776496054
  0
VERTEX
  5
1D01
  8
SAPA_FOGBAND
 10
20.076892381844861
 20
10.678621601054999
 30
0.0
  0
VERTEX
  5
1D02
  8
SAPA_FOGBAND
 10
21.523098518605199
 20
10.058521098296289
 30
0.0
 42
0.4740571810232154
  0
VERTEX
  5
1D03
  8
SAPA_FOGBAND
 10
21.805381104243509
 20
10.185814960660529
 30
0.0
  0
VERTEX
  5
1D04
  8
SAPA_FOGBAND
 10
21.872841013553451
 20
10.43757876968084
 30
0.0
  0
VERTEX
  5
1D05
  8
SAPA_FOGBAND
 10
22.599635932797192
 20
10.43757876968084
 30
0.0
 42
-0.4142135623730951
  0
VERTEX
  5
1D06
  8
SAPA_FOGBAND
 10
23.099635932797181
 20
9.9375787696808402
 30
0.0
  0
VERTEX
  5
1D07
  8
SAPA_FOGBAND
 10
23.099635932797181
 20
6.8875787696806583
 30
0.0
 42
-0.4142135623730951
  0
VERTEX
  5
1D08
  8
SAPA_FOGBAND
 10
22.89963593279646
 20
6.6875787696808402
 30
0.0
  0
VERTEX
  5
1D09
  8
SAPA_FOGBAND
 10
21.999635932796821
 20
6.6875787696808402
 30
0.0
 42
0.4142135623730951
  0
VERTEX
  5
1D0A
  8
SAPA_FOGBAND
 10
21.799635932796999
 20
6.4875787696810221
 30
0.0
  0
VERTEX
  5
1D0B
  8
SAPA_FOGBAND
 10
21.799635932796999
 20
5.7875787696802936
 30
0.0
 42
0.4142135623730951
  0
VERTEX
  5
1D0C
  8
SAPA_FOGBAND
 10
22.099635932797181
 20
5.4875787696810221
 30
0.0
  0
VERTEX
  5
1D0D
  8
SAPA_FOGBAND
 10
22.91014770944895
 20
5.4875787696810221
 30
0.0
 42
-0.1316524975873982
  0
VERTEX
  5
1D0E
  8
SAPA_FOGBAND
 10
23.91014770944895
 20
5.2196295772491794
 30
0.0
  0
VERTEX
  5
1D0F
  8
SAPA_FOGBAND
 10
26.95150190613726
 20
1.2489170401477161
 30
0.0
 42
0.876976462992761
  0
VERTEX
  5
1D10
  8
SAPA_FOGBAND
 10
27.46884324225352
 20
1.35182263005754
 30
0.0
  0
VERTEX
  5
1D11
  8
SAPA_FOGBAND
 10
26.914998445709841
 20
6.7764841919297387
 30
0.0
 42
-0.1353185728426623
  0
VERTEX
  5
1D12
  8
SAPA_FOGBAND
 10
26.914998445709841
 20
6.7764841919297387
 30
0.0
  0
VERTEX
  5
1D13
  8
SAPA_FOGBAND
 10
27.3270351381097
 20
7.0143736847585378
 30
0.0
 42
0.5773502691896196
  0
VERTEX
  5
1D14
  8
SAPA_FOGBAND
 10
27.3270351381097
 20
7.3607838462730788
 30
0.0
  0
VERTEX
  5
1D15
  8
SAPA_FOGBAND
 10
26.914724575548409
 20
7.5988314630039886
 30
0.0
  0
VERTEX
  5
1D16
  8
SAPA_FOGBAND
 10
26.914724575548409
 20
8.3763260729201647
 30
0.0
  0
VERTEX
  5
1D17
  8
SAPA_FOGBAND
 10
27.3270351381097
 20
8.6143736847589025
 30
0.0
 42
0.5773502691896196
  0
VERTEX
  5
1D18
  8
SAPA_FOGBAND
 10
27.3270351381097
 20
8.9607838462725322
 30
0.0
  0
VERTEX
  5
1D19
  8
SAPA_FOGBAND
 10
26.914724575548409
 20
9.1988314630034438
 30
0.0
  0
VERTEX
  5
1D1A
  8
SAPA_FOGBAND
 10
26.914724575548409
 20
9.9763260729205285
 30
0.0
  0
VERTEX
  5
1D1B
  8
SAPA_FOGBAND
 10
27.3270351381097
 20
10.21437368475835
 30
0.0
 42
0.5773502691896196
  0
VERTEX
  5
1D1C
  8
SAPA_FOGBAND
 10
27.3270351381097
 20
10.560783846272839
 30
0.0
  0
VERTEX
  5
1D1D
  8
SAPA_FOGBAND
 10
26.914724575548409
 20
10.798831463002839
 30
0.0
  0
VERTEX
  5
1D1E
  8
SAPA_FOGBAND
 10
26.914724575548409
 20
11.576326072919921
 30
0.0
  0
VERTEX
  5
1D1F
  8
SAPA_FOGBAND
 10
27.3270351381097
 20
11.81437368475866
 30
0.0
 42
0.5773502691896196
  0
VERTEX
  5
1D20
  8
SAPA_FOGBAND
 10
27.3270351381097
 20
12.16078384627229
 30
0.0
  0
VERTEX
  5
1D21
  8
SAPA_FOGBAND
 10
26.914724575548409
 20
12.3988314630032
 30
0.0
  0
VERTEX
  5
1D22
  8
SAPA_FOGBAND
 10
26.914724575548409
 20
13.17632607292029
 30
0.0
  0
VERTEX
  5
1D23
  8
SAPA_FOGBAND
 10
27.3270351381097
 20
13.414373684759029
 30
0.0
 42
0.5773502691896196
  0
VERTEX
  5
1D24
  8
SAPA_FOGBAND
 10
27.3270351381097
 20
13.760783846272661
 30
0.0
  0
VERTEX
  5
1D25
  8
SAPA_FOGBAND
 10
26.914724575548409
 20
13.998831463003571
 30
0.0
  0
VERTEX
  5
1D26
  8
SAPA_FOGBAND
 10
26.914724575548409
 20
14.77632607708523
 30
0.0
  0
VERTEX
  5
1D27
  8
SAPA_FOGBAND
 10
27.3270351381097
 20
15.014373688923961
 30
0.0
 42
0.5773502691896196
  0
VERTEX
  5
1D28
  8
SAPA_FOGBAND
 10
27.3270351381097
 20
15.360783850437601
 30
0.0
  0
VERTEX
  5
1D29
  8
SAPA_FOGBAND
 10
25.53540722871896
 20
16.160783849992129
 30
0.0
 42
0.1316524987190407
  0
SEQEND
  5
1D2A
  8
SAPA_FOGBAND
  0
POLYLINE
  5
F6D
  8
SAPA_FOGBAND
 66
     1
 10
0.0
 20
0.0
 30
0.0
 70
     1
  0
VERTEX
  5
1D2B
  8
SAPA_FOGBAND
 10
75.506610862997945
 20
11.30689777936754
 30
0.0
 42
0.9999999999999998
  0
VERTEX
  5
1D2C
  8
SAPA_FOGBAND
 10
75.506610862997945
 20
9.5068977793682734
 30
0.0
  0
VERTEX
  5
1D2D
  8
SAPA_FOGBAND
 10
76.106610862998309
 20
9.5068977793682734
 30
0.0
 42
0.9999999999999998
  0
VERTEX
  5
1D2E
  8
SAPA_FOGBAND
 10
76.106610862998309
 20
11.30689777936754
 30
0.0
  0
SEQEND
  5
1D2F
  8
SAPA_FOGBAND
  0
POLYLINE
  5
F6E
  8
SAPA_FOGBAND
 66
     1
 10
0.0
 20
0.0
 30
0.0
  0
VERTEX
  5
1D30
  8
SAPA_FOGBAND
 10
73.89198036536061
 20
6.8068995725764117
 30
0.0
  0
VERTEX
  5
1D31
  8
SAPA_FOGBAND
 10
74.191980365359882
 20
6.8068995725764117
 30
0.0
  0
VERTEX
  5
1D32
  8
SAPA_FOGBAND
 10
73.89198036536061
 20
6.8068995725764117
 30
0.0
 42
-0.4142135623730951
  0
VERTEX
  5
1D33
  8
SAPA_FOGBAND
 10
73.391980365360595
 20
7.3068995725764117
 30
0.0
  0
VERTEX
  5
1D34
  8
SAPA_FOGBAND
 10
73.391980365360595
 20
14.6068995725775
 30
0.0
 42
-0.4142135623730951
  0
VERTEX
  5
1D35
  8
SAPA_FOGBAND
 10
73.89198036536061
 20
15.1068995725775
 30
0.0
  0
VERTEX
  5
1D36
  8
SAPA_FOGBAND
 10
74.191980365359882
 20
15.1068995725775
 30
0.0
  0
SEQEND
  5
1D37
  8
SAPA_FOGBAND
  0
POLYLINE
  5
F6F
  8
SAPA_FOGBAND
 66
     1
 10
0.0
 20
0.0
 30
0.0
 70
     1
  0
VERTEX
  5
1D38
  8
SAPA_FOGBAND
 10
67.008611485583856
 20
23.543306528415769
 30
0.0
  0
VERTEX
  5
1D39
  8
SAPA_FOGBAND
 10
66.098295039489926
 20
23.543306528415769
 30
0.0
 42
0.4554491290172674
  0
VERTEX
  5
1D3A
  8
SAPA_FOGBAND
 10
65.417137252081261
 20
22.651981785365709
 30
0.0
  0
VERTEX
  5
1D3B
  8
SAPA_FOGBAND
 10
65.551025047419785
 20
18.715574829527441
 30
0.0
 42
0.4464785874932439
  0
VERTEX
  5
1D3C
  8
SAPA_FOGBAND
 10
66.545102352525532
 20
17.6068995725775
 30
0.0
  0
VERTEX
  5
1D3D
  8
SAPA_FOGBAND
 10
68.85168741982659
 20
17.6068995725775
 30
0.0
 42
0.622676997742357
  0
VERTEX
  5
1D3E
  8
SAPA_FOGBAND
 10
69.643569147990888
 20
19.217574059191751
 30
0.0
  0
VERTEX
  5
1D3F
  8
SAPA_FOGBAND
 10
67.362404789137031
 20
23.153981015027739
 30
0.0
 42
0.3900438909171161
  0
SEQEND
  5
1D40
  8
SAPA_FOGBAND
  0
POLYLINE
  5
F70
  8
SAPA_FOGBAND
 66
     1
 10
0.0
 20
0.0
 30
0.0
 70
     1
  0
VERTEX
  5
1D41
  8
SAPA_FOGBAND
 10
75.633405782242221
 20
11.906899572576769
 30
0.0
  0
VERTEX
  5
1D42
  8
SAPA_FOGBAND
 10
75.700865691553076
 20
12.158663381597989
 30
0.0
 42
-0.4740571810232144
  0
VERTEX
  5
1D43
  8
SAPA_FOGBAND
 10
75.98314827719139
 20
12.285957243960411
 30
0.0
  0
VERTEX
  5
1D44
  8
SAPA_FOGBAND
 10
77.429354413950819
 20
11.66585674120256
 30
0.0
 42
-0.2846003776496053
  0
VERTEX
  5
1D45
  8
SAPA_FOGBAND
 10
77.706610862998673
 20
11.21821256274165
 30
0.0
  0
VERTEX
  5
1D46
  8
SAPA_FOGBAND
 10
77.706610862998673
 20
9.5955865824118973
 30
0.0
 42
-0.2846003776496027
  0
VERTEX
  5
1D47
  8
SAPA_FOGBAND
 10
77.429354413950819
 20
9.1479424039509922
 30
0.0
  0
VERTEX
  5
1D48
  8
SAPA_FOGBAND
 10
75.98314827719139
 20
8.5278419011931401
 30
0.0
 42
-0.4740571810232332
  0
VERTEX
  5
1D49
  8
SAPA_FOGBAND
 10
75.700865691553076
 20
8.6551357635573822
 30
0.0
  0
VERTEX
  5
1D4A
  8
SAPA_FOGBAND
 10
75.633405782242221
 20
8.9068995725767763
 30
0.0
  0
VERTEX
  5
1D4B
  8
SAPA_FOGBAND
 10
74.691980365359882
 20
8.9068995725767763
 30
0.0
 42
0.4142135623730951
  0
VERTEX
  5
1D4C
  8
SAPA_FOGBAND
 10
74.191980365359882
 20
8.4068995725767763
 30
0.0
  0
VERTEX
  5
1D4D
  8
SAPA_FOGBAND
 10
74.191980365359882
 20
5.8947394091949263
 30
0.0
 42
-0.4027293761437467
  0
VERTEX
  5
1D4E
  8
SAPA_FOGBAND
 10
73.903787727891427
 20
5.5949718555978052
 30
0.0
  0
VERTEX
  5
1D4F
  8
SAPA_FOGBAND
 10
63.771440952614171
 20
5.1071320409275813
 30
0.0
 42
-0.4257917699693538
  0
VERTEX
  5
1D50
  8
SAPA_FOGBAND
 10
63.459633590084081
 20
5.4068995945265206
 30
0.0
  0
VERTEX
  5
1D51
  8
SAPA_FOGBAND
 10
63.459633590084081
 20
19.112433253750389
 30
0.0
  0
VERTEX
  5
1D52
  8
SAPA_FOGBAND
 10
63.485160565460212
 20
24.650037023729741
 30
0.0
 42
-0.3826682380870986
  0
VERTEX
  5
1D53
  8
SAPA_FOGBAND
 10
64.479237870565953
 20
25.541361766777982
 30
0.0
  0
VERTEX
  5
1D54
  8
SAPA_FOGBAND
 10
66.397061909306899
 20
25.603982419148231
 30
0.0
 42
-0.2325311832130604
  0
VERTEX
  5
1D55
  8
SAPA_FOGBAND
 10
66.793002773389048
 20
25.409319662454209
 30
0.0
  0
VERTEX
  5
1D56
  8
SAPA_FOGBAND
 10
73.983862093524181
 20
16.045673609925188
 30
0.0
 42
-0.1657205760184606
  0
VERTEX
  5
1D57
  8
SAPA_FOGBAND
 10
74.191980365359882
 20
15.4349991233114
 30
0.0
  0
VERTEX
  5
1D58
  8
SAPA_FOGBAND
 10
74.191980365359882
 20
12.406899572576769
 30
0.0
 42
0.4142135623730951
  0
VERTEX
  5
1D59
  8
SAPA_FOGBAND
 10
74.691980365359882
 20
11.906899572576769
 30
0.0
  0
SEQEND
  5
1D5A
  8
SAPA_FOGBAND
  0
POLYLINE
  5
F71
  8
SAPA_FOGBAND
 66
     1
 10
0.0
 20
0.0
 30
0.0
 70
     1
  0
VERTEX
  5
1D5B
  8
SAPA_FOGBAND
 10
69.691980365359882
 20
13.45596807207334
 30
0.0
  0
VERTEX
  5
1D5C
  8
SAPA_FOGBAND
 10
69.691980365359882
 20
10.95596807207334
 30
0.0
 42
-1.231150638385174
  0
VERTEX
  5
1D5D
  8
SAPA_FOGBAND
 10
66.442987207832516
 20
10.95596807207334
 30
0.0
  0
VERTEX
  5
1D5E
  8
SAPA_FOGBAND
 10
66.442987207832516
 20
13.45596807207334
 30
0.0
 42
-1.231150638385174
  0
SEQEND
  5
1D5F
  8
SAPA_FOGBAND
  0
LINE
  5
F77
  8
SAPA_MATT
 10
154.78753860405089
 20
55.676252154596391
 30
0.0
 11
154.78753860405089
 21
55.45849217883864
 31
0.0
  0
VIEWPORT
  5
4E8
 67
     1
  8
0
 10
128.5
 20
97.5
 30
0.0
 40
350.36076923076922
 41
222.18000000000001
 68
     1
 69
     1
1001
ACAD
1000
MVIEW
1002
{
1070
    16
1010
0.0
1020
0.0
1030
0.0
1010
0.0
1020
0.0
1030
1.0
1040
0.0
1040
293.95576483118862
1040
128.50000069150701
1040
97.500000488944423
1040
50.0
1040
0.0
1040
0.0
1070
     0
1070
     0
1070
     1
1070
     1
1070
     0
1070
     0
1070
     0
1070
     0
1040
0.0
1040
0.0
1040
0.0
1040
10.0
1040
10.0
1040
10.0
1040
10.0
1070
     0
1002
{
1002
}
1002
}
  0
VIEWPORT
  5
4EC
 67
     1
  8
MATT
 10
128.5
 20
97.5
 30
0.0
 40
205.59999999999999
 41
156.0
 68
     2
 69
     2
1001
ACAD
1000
MVIEW
1002
{
1070
    16
1010
0.0
1020
0.0
1030
0.0
1010
0.0
1020
0.0
1030
1.0
1040
0.0
1040
256.67197173437398
1040
53.854070950713819
1040
116.69145612784131
1040
50.0
1040
0.0
1040
0.0
1070
     0
1070
   100
1070
     1
1070
     1
1070
     0
1070
     0
1070
     0
1070
     0
1040
0.0
1040
0.0
1040
0.0
1040
1.0
1040
1.0
1040
0.0
1040
0.0
1070
     0
1002
{
1002
}
1002
}
  0
ENDSEC
  0
EOF
