  0
SECTION
  2
HEADER
  9
$ACADVER
  1
AC1009
  9
$INSBASE
 10
339.77233197927183
 20
232.3505797206594
 30
0.0
  9
$EXTMIN
 10
-14.94296215105396
 20
-1.8072876931157389
 30
0.0
  9
$EXTMAX
 10
193.80357877807941
 20
127.40284611093711
 30
0.0
  9
$LIMMIN
 10
0.0
 20
0.0
  9
$LIMMAX
 10
790.0
 20
790.0
  9
$ORTHOMODE
 70
     1
  9
$REGENMODE
 70
     1
  9
$FILLMODE
 70
     1
  9
$QTEXTMODE
 70
     0
  9
$MIRRTEXT
 70
     1
  9
$DRAGMODE
 70
     2
  9
$LTSCALE
 40
4.0
  9
$OSMODE
 70
   167
  9
$ATTMODE
 70
     1
  9
$TEXTSIZE
 40
3.5
  9
$TRACEWID
 40
0.05
  9
$TEXTSTYLE
  7
ISO
  9
$CLAYER
  8
0
  9
$CELTYPE
  6
BYLAYER
  9
$CECOLOR
 62
   256
  9
$DIMSCALE
 40
0.0
  9
$DIMASZ
 40
3.0
  9
$DIMEXO
 40
1.5
  9
$DIMDLI
 40
10.0
  9
$DIMRND
 40
0.0
  9
$DIMDLE
 40
0.0
  9
$DIMEXE
 40
1.5
  9
$DIMTP
 40
0.0
  9
$DIMTM
 40
0.0
  9
$DIMTXT
 40
3.0
  9
$DIMCEN
 40
-5.0
  9
$DIMTSZ
 40
0.0
  9
$DIMTOL
 70
     0
  9
$DIMLIM
 70
     0
  9
$DIMTIH
 70
     0
  9
$DIMTOH
 70
     0
  9
$DIMSE1
 70
     0
  9
$DIMSE2
 70
     0
  9
$DIMTAD
 70
     1
  9
$DIMZIN
 70
     8
  9
$DIMBLK
  1

  9
$DIMASO
 70
     1
  9
$DIMSHO
 70
     1
  9
$DIMPOST
  1

  9
$DIMAPOST
  1

  9
$DIMALT
 70
     0
  9
$DIMALTD
 70
     0
  9
$DIMALTF
 40
25.399999999999999
  9
$DIMLFAC
 40
-1.0
  9
$DIMTOFL
 70
     1
  9
$DIMTVP
 40
0.0
  9
$DIMTIX
 70
     0
  9
$DIMSOXD
 70
     0
  9
$DIMSAH
 70
     0
  9
$DIMBLK1
  1

  9
$DIMBLK2
  1

  9
$DIMSTYLE
  2
MASKIN
  9
$DIMCLRD
 70
   256
  9
$DIMCLRE
 70
   256
  9
$DIMCLRT
 70
   256
  9
$DIMTFAC
 40
1.0
  9
$DIMGAP
 40
1.0
  9
$LUNITS
 70
     2
  9
$LUPREC
 70
     8
  9
$SKETCHINC
 40
0.1
  9
$FILLETRAD
 40
0.0
  9
$AUNITS
 70
     0
  9
$AUPREC
 70
     8
  9
$MENU
  1
ACAD
  9
$ELEVATION
 40
0.0
  9
$PELEVATION
 40
0.0
  9
$THICKNESS
 40
0.0
  9
$LIMCHECK
 70
     0
  9
$BLIPMODE
 70
     0
  9
$CHAMFERA
 40
0.0
  9
$CHAMFERB
 40
0.0
  9
$SKPOLY
 70
     0
  9
$TDCREATE
 40
2451935.4272193871
  9
$TDUPDATE
 40
2455104.3527301741
  9
$TDINDWG
 40
0.2653153125
  9
$TDUSRTIMER
 40
0.2653153125
  9
$USRTIMER
 70
     1
  9
$ANGBASE
 50
0.0
  9
$ANGDIR
 70
     0
  9
$PDMODE
 70
     0
  9
$PDSIZE
 40
0.0
  9
$PLINEWID
 40
0.0
  9
$COORDS
 70
     1
  9
$SPLFRAME
 70
     0
  9
$SPLINETYPE
 70
     6
  9
$SPLINESEGS
 70
     8
  9
$ATTDIA
 70
     0
  9
$ATTREQ
 70
     1
  9
$HANDLING
 70
     1
  9
$HANDSEED
  5
226B
  9
$SURFTAB1
 70
     6
  9
$SURFTAB2
 70
     6
  9
$SURFTYPE
 70
     6
  9
$SURFU
 70
     6
  9
$SURFV
 70
     6
  9
$UCSNAME
  2

  9
$UCSORG
 10
0.0
 20
0.0
 30
0.0
  9
$UCSXDIR
 10
1.0
 20
0.0
 30
0.0
  9
$UCSYDIR
 10
0.0
 20
1.0
 30
0.0
  9
$PUCSNAME
  2

  9
$PUCSORG
 10
0.0
 20
0.0
 30
0.0
  9
$PUCSXDIR
 10
1.0
 20
0.0
 30
0.0
  9
$PUCSYDIR
 10
0.0
 20
1.0
 30
0.0
  9
$USERI1
 70
     0
  9
$USERI2
 70
     0
  9
$USERI3
 70
     0
  9
$USERI4
 70
     0
  9
$USERI5
 70
     0
  9
$USERR1
 40
0.0
  9
$USERR2
 40
0.0
  9
$USERR3
 40
0.0
  9
$USERR4
 40
0.0
  9
$USERR5
 40
0.0
  9
$WORLDVIEW
 70
     1
  9
$SHADEDGE
 70
     3
  9
$SHADEDIF
 70
    70
  9
$TILEMODE
 70
     1
  9
$MAXACTVP
 70
    16
  9
$PLIMCHECK
 70
     0
  9
$PEXTMIN
 10
25.694748669507369
 20
19.490204377786991
 30
-0.0000000000112498
  9
$PEXTMAX
 10
231.30525271350669
 20
175.50979660010179
 30
0.0000000000002956
  9
$PLIMMIN
 10
-20.0
 20
-7.5
  9
$PLIMMAX
 10
277.0
 20
202.5
  9
$UNITMODE
 70
     0
  9
$VISRETAIN
 70
     1
  9
$PLINEGEN
 70
     0
  9
$PSLTSCALE
 70
     1
  0
ENDSEC
  0
SECTION
  2
TABLES
  0
TABLE
  2
VPORT
 70
     1
  0
VPORT
  2
*ACTIVE
 70
     0
 10
0.0
 20
0.0
 11
1.0
 21
1.0
 12
193.7029017813872
 22
48.749171796094508
 13
0.0
 23
0.0
 14
1.0
 24
1.0
 15
0.0
 25
0.0
 16
0.0
 26
0.0
 36
1.0
 17
0.0
 27
0.0
 37
0.0
 40
276.35621703222432
 41
2.362776025236593
 42
50.0
 43
0.0
 44
0.0
 50
0.0
 51
0.0
 71
     0
 72
   100
 73
     1
 74
     1
 75
     0
 76
     0
 77
     0
 78
     0
  0
ENDTAB
  0
TABLE
  2
LTYPE
 70
     6
  0
LTYPE
  2
CONTINUOUS
 70
     0
  3
Solid line
 72
    65
 73
     0
 40
0.0
  0
LTYPE
  2
BYGG-01482201$0$NEWDOT
 70
     0
  3
____ . ____ . ____ . ____ . ____ . ____ . ____
 72
    65
 73
     4
 40
2.0
 49
1.0
 49
-0.5
 49
0.0
 49
-0.5
  0
LTYPE
  2
BYGG-014357$0$NEWDOT
 70
     0
  3
____ . ____ . ____ . ____ . ____ . ____ . ____
 72
    65
 73
     4
 40
2.0
 49
1.0
 49
-0.5
 49
0.0
 49
-0.5
  0
LTYPE
  2
BYGG-014357$0$DASHDOT
 70
     0
  3
__ . __ . __ . __ . __ . __ . __ . __ . __ . __
 72
    65
 73
     4
 40
1.0
 49
0.5
 49
-0.25
 49
0.0
 49
-0.25
  0
LTYPE
  2
BYGG-014357$0$DASHED
 70
     0
  3
__ __ __ __ __ __ __ __ __ __ __ __ __ __ __
 72
    65
 73
     2
 40
0.75
 49
0.5
 49
-0.25
  0
LTYPE
  2
BYGG-014279$0$NEWDOT
 70
     0
  3
____ . ____ . ____ . ____ . ____ . ____ . ____
 72
    65
 73
     4
 40
2.0
 49
1.0
 49
-0.5
 49
0.0
 49
-0.5
  0
ENDTAB
  0
TABLE
  2
LAYER
 70
    65
  0
LAYER
  2
0
 70
     0
 62
     7
  6
CONTINUOUS
  0
LAYER
  2
SAPA_ANSLUTNING
 70
     0
 62
     6
  6
CONTINUOUS
  0
LAYER
  2
SAPA_PROFIL
 70
     0
 62
     7
  6
CONTINUOUS
  0
LAYER
  2
MATT
 70
     0
 62
     1
  6
CONTINUOUS
  0
LAYER
  2
SAPA_LIGHT
 70
     1
 62
     1
  6
CONTINUOUS
  0
LAYER
  2
SAPA_ISOLATOR
 70
     0
 62
     4
  6
CONTINUOUS
  0
LAYER
  2
SAPA_GLAS
 70
     0
 62
     4
  6
CONTINUOUS
  0
LAYER
  2
SAPA_FOGBAND
 70
     0
 62
     2
  6
CONTINUOUS
  0
ENDTAB
  0
TABLE
  2
STYLE
 70
    21
  0
STYLE
  2
STANDARD
 70
     0
 40
0.0
 41
1.0
 50
0.0
 71
     0
 42
0.2
  3
txt
  4

  0
STYLE
  2
ISO
 70
     0
 40
0.0
 41
1.0
 50
0.0
 71
     0
 42
3.5
  3
txt
  4

  0
STYLE
  2
BYGG-021802$0$STANDARD
 70
     0
 40
0.0
 41
1.0
 50
0.0
 71
     0
 42
0.2
  3
txt
  4

  0
STYLE
  2
BYGG-021802$0$ISO
 70
     0
 40
0.0
 41
1.0
 50
0.0
 71
     0
 42
3.5
  3
isocp3.shx
  4

  0
STYLE
  2
BYGG-014357$0$STANDARD
 70
     0
 40
0.0
 41
1.0
 50
0.0
 71
     0
 42
0.2
  3
txt
  4

  0
STYLE
  2
BYGG-014357$0$ISO
 70
     0
 40
0.0
 41
1.0
 50
0.0
 71
     0
 42
3.5
  3
isocp3.shx
  4

  0
STYLE
  2
BYGG-014063$0$STANDARD
 70
     0
 40
0.0
 41
1.0
 50
0.0
 71
     0
 42
0.2
  3
txt
  4

  0
STYLE
  2
BYGG-014063$0$ISO
 70
     0
 40
0.0
 41
1.0
 50
0.0
 71
     0
 42
3.5
  3
isocp3.shx
  4

  0
STYLE
  2
BYGG-021582$0$STANDARD
 70
     0
 40
0.0
 41
1.0
 50
0.0
 71
     0
 42
0.2
  3
txt
  4

  0
STYLE
  2
BYGG-021582$0$ISO
 70
     0
 40
0.0
 41
1.0
 50
0.0
 71
     0
 42
3.5
  3
isocp3.shx
  4

  0
STYLE
  2
BYGG-014279$0$STANDARD
 70
     0
 40
0.0
 41
1.0
 50
0.0
 71
     0
 42
0.2
  3
TXT.shx
  4

  0
STYLE
  2
BYGG-014279$0$ISO
 70
     0
 40
0.0
 41
1.0
 50
0.0
 71
     0
 42
3.5
  3
iso
  4

  0
STYLE
  2
BYGG-021820$0$STANDARD
 70
     0
 40
0.0
 41
1.0
 50
0.0
 71
     0
 42
0.2
  3
txt
  4

  0
STYLE
  2
BYGG-021820$0$ISO
 70
     0
 40
0.0
 41
1.0
 50
0.0
 71
     0
 42
3.5
  3
txt
  4

  0
STYLE
  2
BYGG-024366$0$STANDARD
 70
     0
 40
0.0
 41
1.0
 50
0.0
 71
     0
 42
0.2
  3
txt
  4

  0
STYLE
  2
BYGG-024366$0$ISO
 70
     0
 40
0.0
 41
1.0
 50
0.0
 71
     0
 42
3.5
  3
isocp3.shx
  4

  0
STYLE
  2
BYGG-01482201$0$STANDARD
 70
     0
 40
0.0
 41
1.0
 50
0.0
 71
     0
 42
0.2
  3
txt
  4

  0
STYLE
  2
BYGG-01482201$0$ISO
 70
     0
 40
0.0
 41
1.0
 50
0.0
 71
     0
 42
3.5
  3
isocp3.shx
  4

  0
STYLE
  2
BYGG-024364$0$STANDARD
 70
     0
 40
0.0
 41
1.0
 50
0.0
 71
     0
 42
0.2
  3
txt
  4

  0
STYLE
  2
BYGG-024364$0$ISO
 70
     0
 40
0.0
 41
1.0
 50
0.0
 71
     0
 42
3.5
  3
txt
  4

  0
STYLE
  2
BYGG-024364$0$ANNOTATIVE
 70
     0
 40
0.0
 41
1.0
 50
0.0
 71
     0
 42
0.2
  3
txt
  4

  0
ENDTAB
  0
TABLE
  2
VIEW
 70
     0
  0
ENDTAB
  0
TABLE
  2
UCS
 70
     0
  0
ENDTAB
  0
TABLE
  2
APPID
 70
    18
  0
APPID
  2
ACAD
 70
     0
  0
APPID
  2
ACAECLAYERSTANDARD
 70
     0
  0
APPID
  2
AMG_ARCHIVE11
 70
     0
  0
APPID
  2
ACAD_DSTYLE_DIMTEXT_FILL
 70
     0
  0
APPID
  2
ACAD_DSTYLE_DIMEXT_LENGTH
 70
     0
  0
APPID
  2
ACAD_DSTYLE_DIMEXT_ENABLED
 70
     0
  0
APPID
  2
ACAD_DSTYLE_DIM_LINETYPE
 70
     0
  0
APPID
  2
ACAD_DSTYLE_DIM_EXT1_LINETYPE
 70
     0
  0
APPID
  2
ACAD_DSTYLE_DIM_EXT2_LINETYPE
 70
     0
  0
APPID
  2
ACAD_PSEXT
 70
     0
  0
APPID
  2
ACAD_EXEMPT_FROM_CAD_STANDARDS
 70
     0
  0
APPID
  2
ACAD_DSTYLE_DIMJOGGED_JOGA
 70
     0
  0
APPID
  2
ACAD_DSTYLE_DIMARC_LENGTH_
 70
     0
  0
APPID
  2
ACAD_MLEADERVER
 70
     0
  0
APPID
  2
ACADANNOTATIVE
 70
     0
  0
APPID
  2
ACAD_DSTYLE_DIMJAG
 70
     0
  0
APPID
  2
ACAD_DSTYLE_DIMTALN
 70
     0
  0
APPID
  2
ACADANNOPO
 70
     0
  0
ENDTAB
  0
TABLE
  2
DIMSTYLE
 70
    18
  0
DIMSTYLE
  2
MASKIN
 70
     0
  3

  4

  5

  6

  7

 40
0.0
 41
3.0
 42
1.5
 43
10.0
 44
1.5
 45
0.0
 46
0.0
 47
0.0
 48
0.0
140
3.0
141
-5.0
142
0.0
143
25.399999999999999
144
-1.0
145
0.0
146
1.0
147
1.0
 71
     0
 72
     0
 73
     0
 74
     0
 75
     0
 76
     0
 77
     1
 78
     8
170
     0
171
     0
172
     1
173
     0
174
     0
175
     0
176
   256
177
   256
178
   256
  0
DIMSTYLE
  2
BYGG-021802$0$MASKIN
 70
     0
  3

  4

  5

  6

  7

 40
0.0
 41
3.0
 42
1.5
 43
10.0
 44
1.5
 45
0.0
 46
0.0
 47
0.0
 48
0.0
140
3.0
141
-5.0
142
0.0
143
25.399999999999999
144
-1.0
145
0.0
146
1.0
147
1.0
 71
     0
 72
     0
 73
     0
 74
     0
 75
     0
 76
     0
 77
     1
 78
     8
170
     0
171
     0
172
     1
173
     0
174
     0
175
     0
176
   256
177
   256
178
   256
  0
DIMSTYLE
  2
BYGG-014357$0$MASKIN
 70
     0
  3

  4

  5

  6

  7

 40
0.0
 41
3.0
 42
1.5
 43
10.0
 44
1.5
 45
0.0
 46
0.0
 47
0.0
 48
0.0
140
3.0
141
-5.0
142
0.0
143
25.399999999999999
144
-1.0
145
0.0
146
1.0
147
1.0
 71
     0
 72
     0
 73
     0
 74
     0
 75
     0
 76
     0
 77
     1
 78
     8
170
     0
171
     0
172
     1
173
     0
174
     0
175
     0
176
   256
177
   256
178
   256
  0
DIMSTYLE
  2
BYGG-014357$0$MASKIN1
 70
     0
  3

  4

  5

  6

  7

 40
1.0
 41
3.0
 42
1.5
 43
10.0
 44
1.5
 45
0.0
 46
0.0
 47
0.0
 48
0.0
140
3.0
141
-5.0
142
0.0
143
25.399999999999999
144
1.0
145
0.0
146
1.0
147
0.9
 71
     0
 72
     0
 73
     0
 74
     0
 75
     0
 76
     0
 77
     1
 78
     8
170
     0
171
     0
172
     1
173
     0
174
     0
175
     0
176
   256
177
   256
178
   256
  0
DIMSTYLE
  2
BYGG-014357$0$MASKIN2
 70
     0
  3

  4

  5

  6

  7

 40
1.0
 41
3.0
 42
1.5
 43
10.0
 44
1.5
 45
0.0
 46
0.0
 47
0.0
 48
0.0
140
3.0
141
-5.0
142
0.0
143
25.399999999999999
144
1.0
145
0.0
146
1.0
147
0.9
 71
     0
 72
     0
 73
     0
 74
     0
 75
     0
 76
     0
 77
     1
 78
     8
170
     0
171
     0
172
     1
173
     0
174
     0
175
     0
176
   256
177
   256
178
   256
  0
DIMSTYLE
  2
BYGG-014357$0$MASKIN3
 70
     0
  3

  4

  5

  6

  7

 40
1.0
 41
3.0
 42
1.5
 43
10.0
 44
1.5
 45
0.0
 46
0.0
 47
0.0
 48
0.0
140
3.0
141
-5.0
142
0.0
143
25.399999999999999
144
1.0
145
0.0
146
1.0
147
0.9
 71
     0
 72
     0
 73
     0
 74
     0
 75
     0
 76
     0
 77
     1
 78
     8
170
     0
171
     0
172
     1
173
     0
174
     0
175
     0
176
   256
177
   256
178
   256
  0
DIMSTYLE
  2
BYGG-014357$0$DMST_1
 70
     0
  3

  4

  5

  6

  7

 40
1.0
 41
0.7000000000000002
 42
0.0
 43
7.0
 44
0.4
 45
0.0
 46
0.0
 47
0.15
 48
0.15
140
0.7000000000000002
141
0.0
142
0.0
143
25.399999999999999
144
1.0
145
0.0
146
0.7
147
0.09
 71
     1
 72
     0
 73
     0
 74
     0
 75
     0
 76
     0
 77
     1
 78
     9
170
     0
171
     2
172
     0
173
     0
174
     0
175
     0
176
     1
177
     1
178
     2
  0
DIMSTYLE
  2
BYGG-014063$0$MASKIN
 70
     0
  3

  4

  5

  6

  7

 40
0.0
 41
3.0
 42
1.5
 43
10.0
 44
1.5
 45
0.0
 46
0.0
 47
0.0
 48
0.0
140
3.0
141
-5.0
142
0.0
143
25.399999999999999
144
-1.0
145
0.0
146
1.0
147
1.0
 71
     0
 72
     0
 73
     0
 74
     0
 75
     0
 76
     0
 77
     1
 78
     8
170
     0
171
     0
172
     1
173
     0
174
     0
175
     0
176
   256
177
   256
178
   256
  0
DIMSTYLE
  2
BYGG-021582$0$MASKIN
 70
     0
  3

  4

  5

  6

  7

 40
0.0
 41
3.0
 42
1.5
 43
10.0
 44
1.5
 45
0.0
 46
0.0
 47
0.0
 48
0.0
140
3.0
141
-5.0
142
0.0
143
25.399999999999999
144
-1.0
145
0.0
146
1.0
147
1.0
 71
     0
 72
     0
 73
     0
 74
     0
 75
     0
 76
     0
 77
     1
 78
     8
170
     0
171
     0
172
     1
173
     0
174
     0
175
     0
176
   256
177
   256
178
   256
  0
DIMSTYLE
  2
BYGG-014279$0$STANDARD
 70
     0
  3

  4

  5

  6

  7

 40
1.0
 41
0.18
 42
0.0625
 43
0.38
 44
0.18
 45
0.0
 46
0.0
 47
0.0
 48
0.0
140
0.18
141
0.09
142
0.0
143
25.399999999999999
144
1.0
145
0.0
146
1.0
147
0.09
 71
     0
 72
     0
 73
     1
 74
     1
 75
     0
 76
     0
 77
     0
 78
     0
170
     0
171
     2
172
     0
173
     0
174
     0
175
     0
176
     0
177
     0
178
     0
  0
DIMSTYLE
  2
BYGG-014279$0$MASKIN
 70
     0
  3

  4

  5

  6

  7

 40
0.0
 41
3.0
 42
1.5
 43
10.0
 44
1.5
 45
0.0
 46
0.0
 47
0.0
 48
0.0
140
3.0
141
-5.0
142
0.0
143
25.399999999999999
144
-1.0
145
0.0
146
1.0
147
1.0
 71
     0
 72
     0
 73
     0
 74
     1
 75
     0
 76
     0
 77
     1
 78
     8
170
     0
171
     0
172
     1
173
     0
174
     0
175
     0
176
   256
177
   256
178
     2
  0
DIMSTYLE
  2
BYGG-021820$0$MASKIN
 70
     0
  3

  4

  5

  6

  7

 40
0.0
 41
3.0
 42
1.5
 43
10.0
 44
1.5
 45
0.0
 46
0.0
 47
0.0
 48
0.0
140
3.0
141
-5.0
142
0.0
143
25.399999999999999
144
-1.0
145
0.0
146
1.0
147
1.0
 71
     0
 72
     0
 73
     0
 74
     0
 75
     0
 76
     0
 77
     1
 78
     8
170
     0
171
     0
172
     1
173
     0
174
     0
175
     0
176
   256
177
   256
178
     2
  0
DIMSTYLE
  2
BYGG-024366$0$MASKIN
 70
     0
  3

  4

  5

  6

  7

 40
0.0
 41
3.0
 42
1.5
 43
10.0
 44
1.5
 45
0.0
 46
0.0
 47
0.0
 48
0.0
140
3.0
141
-5.0
142
0.0
143
25.399999999999999
144
-1.0
145
0.0
146
1.0
147
1.0
 71
     0
 72
     0
 73
     0
 74
     0
 75
     0
 76
     0
 77
     1
 78
     8
170
     0
171
     0
172
     1
173
     0
174
     0
175
     0
176
   256
177
   256
178
   256
  0
DIMSTYLE
  2
BYGG-01482201$0$STANDARD
 70
     0
  3

  4

  5

  6

  7

 40
1.0
 41
0.18
 42
0.0625
 43
0.38
 44
0.18
 45
0.0
 46
0.0
 47
0.0
 48
0.0
140
0.18
141
0.09
142
0.0
143
25.399999999999999
144
1.0
145
0.0
146
1.0
147
0.09
 71
     0
 72
     0
 73
     1
 74
     1
 75
     0
 76
     0
 77
     0
 78
     0
170
     0
171
     2
172
     0
173
     0
174
     0
175
     0
176
     0
177
     0
178
     0
  0
DIMSTYLE
  2
BYGG-01482201$0$MASKIN
 70
     0
  3

  4

  5

  6

  7

 40
0.0
 41
3.0
 42
1.5
 43
10.0
 44
1.5
 45
0.0
 46
0.0
 47
0.0
 48
0.0
140
3.0
141
-5.0
142
0.0
143
25.399999999999999
144
-1.0
145
0.0
146
1.0
147
1.0
 71
     0
 72
     0
 73
     0
 74
     1
 75
     0
 76
     0
 77
     1
 78
     8
170
     0
171
     0
172
     1
173
     0
174
     0
175
     0
176
   256
177
   256
178
     2
  0
DIMSTYLE
  2
BYGG-024364$0$MASKIN
 70
     0
  3

  4

  5

  6

  7

 40
0.0
 41
3.0
 42
1.5
 43
10.0
 44
1.5
 45
0.0
 46
0.0
 47
0.0
 48
0.0
140
3.0
141
-5.0
142
0.0
143
25.399999999999999
144
-1.0
145
0.0
146
1.0
147
1.0
 71
     0
 72
     0
 73
     0
 74
     0
 75
     0
 76
     0
 77
     1
 78
     8
170
     0
171
     0
172
     1
173
     0
174
     0
175
     0
176
   256
177
   256
178
     2
  0
DIMSTYLE
  2
BYGG-024364$0$STANDARD
 70
     0
  3

  4

  5

  6

  7

 40
1.0
 41
0.18
 42
0.0625
 43
0.38
 44
0.18
 45
0.0
 46
0.0
 47
0.0
 48
0.0
140
0.18
141
0.09
142
0.0
143
25.399999999999999
144
1.0
145
0.0
146
1.0
147
0.09
 71
     0
 72
     0
 73
     1
 74
     1
 75
     0
 76
     0
 77
     0
 78
     0
170
     0
171
     2
172
     0
173
     0
174
     0
175
     0
176
     0
177
     0
178
     0
  0
DIMSTYLE
  2
BYGG-024364$0$ANNOTATIVE
 70
     0
  3

  4

  5

  6

  7

 40
1.0
 41
0.18
 42
0.0625
 43
0.38
 44
0.18
 45
0.0
 46
0.0
 47
0.0
 48
0.0
140
0.18
141
0.09
142
0.0
143
25.399999999999999
144
1.0
145
0.0
146
1.0
147
0.09
 71
     0
 72
     0
 73
     1
 74
     1
 75
     0
 76
     0
 77
     0
 78
     0
170
     0
171
     2
172
     0
173
     0
174
     0
175
     0
176
     0
177
     0
178
     0
  0
ENDTAB
  0
ENDSEC
  0
SECTION
  2
BLOCKS
  0
BLOCK
  8
0
  2
$MODEL_SPACE
 70
     0
 10
0.0
 20
0.0
 30
0.0
  3
$MODEL_SPACE
  1

  0
ENDBLK
  5
D
  8
0
  0
BLOCK
 67
     1
  8
0
  2
$PAPER_SPACE
 70
     0
 10
0.0
 20
0.0
 30
0.0
  3
$PAPER_SPACE
  1

  0
ENDBLK
  5
12
 67
     1
  8
0
  0
BLOCK
  8
0
  2
*X37
 70
     1
 10
0.0
 20
0.0
 30
0.0
  3
*X37
  1

  0
LINE
  5
145D
  8
0
 62
     0
 10
48.516847580267608
 20
92.288389770895776
 30
0.0
 11
46.73902493560729
 21
90.510567126235458
 31
0.0
  0
LINE
  5
145E
  8
0
 62
     0
 10
50.76191161053486
 20
92.288389770895776
 30
0.0
 11
48.761911610534867
 21
90.288389770895776
 31
0.0
  0
LINE
  5
145F
  8
0
 62
     0
 10
53.006975640802182
 20
92.288389770895705
 30
0.0
 11
51.006975640802182
 21
90.288389770895719
 31
0.0
  0
LINE
  5
1460
  8
0
 62
     0
 10
55.0963400023399
 20
92.132690102166109
 30
0.0
 11
53.252039671069433
 21
90.288389770895719
 31
0.0
  0
LINE
  5
1461
  8
0
 62
     0
 10
55.25203967106944
 20
92.288389770895705
 30
0.0
 11
55.0963400023399
 21
92.132690102166109
 31
0.0
  0
LINE
  5
1462
  8
0
 62
     0
 10
57.497103701336762
 20
92.288389770895705
 30
0.0
 11
55.497103701336748
 21
90.288389770895719
 31
0.0
  0
LINE
  5
1463
  8
0
 62
     0
 10
59.742167731604127
 20
92.288389770895776
 30
0.0
 11
57.74216773160407
 21
90.288389770895776
 31
0.0
  0
LINE
  5
1464
  8
0
 62
     0
 10
61.987231761871378
 20
92.288389770895776
 30
0.0
 11
59.987231761871328
 21
90.288389770895776
 31
0.0
  0
LINE
  5
1465
  8
0
 62
     0
 10
64.232295792138643
 20
92.288389770895705
 30
0.0
 11
62.232295792138579
 21
90.288389770895719
 31
0.0
  0
LINE
  5
1466
  8
0
 62
     0
 10
66.477359822405901
 20
92.288389770895705
 30
0.0
 11
64.477359822405845
 21
90.288389770895719
 31
0.0
  0
LINE
  5
1467
  8
0
 62
     0
 10
66.73902493560729
 20
90.304990853829793
 30
0.0
 11
66.722423852673103
 21
90.288389770895662
 31
0.0
  0
LINE
  5
1468
  8
0
 62
     0
 10
46.739024935607262
 20
90.509178429936966
 30
0.0
 11
46.959813594648608
 21
90.288389770895606
 31
0.0
  0
LINE
  5
1469
  8
0
 62
     0
 10
47.204877624915888
 20
92.288389770895634
 30
0.0
 11
49.204877624915952
 21
90.288389770895577
 31
0.0
  0
LINE
  5
146A
  8
0
 62
     0
 10
49.44994165518321
 20
92.288389770895634
 30
0.0
 11
51.44994165518326
 21
90.288389770895577
 31
0.0
  0
LINE
  5
146B
  8
0
 62
     0
 10
51.695005685450496
 20
92.288389770895606
 30
0.0
 11
53.695005685450532
 21
90.288389770895577
 31
0.0
  0
LINE
  5
146C
  8
0
 62
     0
 10
55.096340002339808
 20
91.132119484273545
 30
0.0
 11
55.940069715717783
 21
90.288389770895577
 31
0.0
  0
LINE
  5
146D
  8
0
 62
     0
 10
53.940069715717748
 20
92.288389770895606
 30
0.0
 11
55.096340002339808
 21
91.132119484273545
 31
0.0
  0
LINE
  5
146E
  8
0
 62
     0
 10
56.185133745985013
 20
92.288389770895662
 30
0.0
 11
58.185133745985041
 21
90.288389770895634
 31
0.0
  0
LINE
  5
146F
  8
0
 62
     0
 10
58.430197776252328
 20
92.288389770895662
 30
0.0
 11
60.430197776252321
 21
90.288389770895634
 31
0.0
  0
LINE
  5
1470
  8
0
 62
     0
 10
60.675261806519671
 20
92.288389770895563
 30
0.0
 11
62.675261806519593
 21
90.288389770895634
 31
0.0
  0
LINE
  5
1471
  8
0
 62
     0
 10
62.92032583678693
 20
92.288389770895563
 30
0.0
 11
64.920325836786844
 21
90.288389770895634
 31
0.0
  0
LINE
  5
1472
  8
0
 62
     0
 10
65.165389867054245
 20
92.288389770895634
 30
0.0
 11
66.739024935607304
 21
90.71475470234256
 31
0.0
  0
ENDBLK
  5
1474
  8
0
  0
BLOCK
  8
0
  2
*X38
 70
     1
 10
0.0
 20
0.0
 30
0.0
  3
*X38
  1

  0
LINE
  5
147B
  8
0
 62
     0
 10
177.8460054840719
 20
59.962864341725023
 30
0.0
 11
177.520480801975
 21
60.288389023821829
 31
0.0
  0
LINE
  5
147C
  8
0
 62
     0
 10
177.52525331724189
 20
59.161084493421292
 30
0.0
 11
176.3979487868414
 21
60.288389023821857
 31
0.0
  0
LINE
  5
147D
  8
0
 62
     0
 10
177.22651876385919
 20
58.337287031670392
 30
0.0
 11
175.27541677170771
 21
60.288389023821843
 31
0.0
  0
LINE
  5
147E
  8
0
 62
     0
 10
176.9508440210424
 20
57.490429759353503
 30
0.0
 11
174.15288475657411
 21
60.288389023821843
 31
0.0
  0
LINE
  5
147F
  8
0
 62
     0
 10
176.6994390201213
 20
56.619302745140963
 30
0.0
 11
173.0303527414404
 21
60.288389023821829
 31
0.0
  0
LINE
  5
1480
  8
0
 62
     0
 10
176.47371436990531
 20
55.7224953802234
 30
0.0
 11
171.9078207263068
 21
60.288389023821829
 31
0.0
  0
LINE
  5
1481
  8
0
 62
     0
 10
176.27532387899231
 20
54.79835385600272
 30
0.0
 11
170.78528871117319
 21
60.288389023821843
 31
0.0
  0
LINE
  5
1482
  8
0
 62
     0
 10
176.10622023325899
 20
53.844925486602392
 30
0.0
 11
169.66275669603951
 21
60.288389023821843
 31
0.0
  0
LINE
  5
1483
  8
0
 62
     0
 10
175.968729114886
 20
52.859884589841748
 30
0.0
 11
168.54022468090591
 21
60.288389023821829
 31
0.0
  0
LINE
  5
1484
  8
0
 62
     0
 10
175.86564977907841
 20
51.840431910515647
 30
0.0
 11
167.41769266577231
 21
60.288389023821821
 31
0.0
  0
LINE
  5
1485
  8
0
 62
     0
 10
175.8003946044436
 20
50.783155070016761
 30
0.0
 11
166.29516065063859
 21
60.288389023821843
 31
0.0
  0
LINE
  5
1486
  8
0
 62
     0
 10
175.77718783034661
 20
49.683829828980187
 30
0.0
 11
165.17262863550491
 21
60.288389023821829
 31
0.0
  0
LINE
  5
1487
  8
0
 62
     0
 10
175.80135744198691
 20
48.537128202206262
 30
0.0
 11
164.05009662037131
 21
60.288389023821829
 31
0.0
  0
LINE
  5
1488
  8
0
 62
     0
 10
175.87977999987439
 20
47.336173629185097
 30
0.0
 11
162.92756460523771
 21
60.288389023821821
 31
0.0
  0
LINE
  5
1489
  8
0
 62
     0
 10
162.61246775240019
 20
59.480953861525627
 30
0.0
 11
161.80503259010399
 21
60.288389023821843
 31
0.0
  0
LINE
  5
148A
  8
0
 62
     0
 10
176.02158982906599
 20
46.071831784859832
 30
0.0
 11
167.86602237235761
 21
54.227399241568207
 31
0.0
  0
LINE
  5
148B
  8
0
 62
     0
 10
160.94241591871909
 20
60.028473680073141
 30
0.0
 11
160.68250057497039
 21
60.288389023821829
 31
0.0
  0
LINE
  5
148C
  8
0
 62
     0
 10
176.23937516029591
 20
44.731514438496347
 30
0.0
 11
168.41354219090519
 21
52.557347407887029
 31
0.0
  0
LINE
  5
148D
  8
0
 62
     0
 10
159.60241733376401
 20
60.245940249894588
 30
0.0
 11
159.5599685598367
 21
60.288389023821829
 31
0.0
  0
LINE
  5
148E
  8
0
 62
     0
 10
176.5513470769576
 20
43.297010506700929
 30
0.0
 11
168.63100876072659
 21
51.21734882293196
 31
0.0
  0
LINE
  5
148F
  8
0
 62
     0
 10
176.9856729547042
 20
41.74015261382069
 30
0.0
 11
168.67142793988469
 21
50.054397628640253
 31
0.0
  0
LINE
  5
1490
  8
0
 62
     0
 10
177.3149041560315
 20
40.28838939735973
 30
0.0
 11
168.59218212994051
 21
49.011111423450778
 31
0.0
  0
LINE
  5
1491
  8
0
 62
     0
 10
176.1923721408979
 20
40.288389397359737
 30
0.0
 11
168.42223326194139
 21
48.05852827631621
 31
0.0
  0
LINE
  5
1492
  8
0
 62
     0
 10
175.06984012576419
 20
40.288389397359737
 30
0.0
 11
168.1784874122304
 21
47.179742110893599
 31
0.0
  0
LINE
  5
1493
  8
0
 62
     0
 10
173.94730811063059
 20
40.28838939735973
 30
0.0
 11
167.87166711211151
 21
46.364030395878821
 31
0.0
  0
LINE
  5
1494
  8
0
 62
     0
 10
172.8247760954969
 20
40.28838939735973
 30
0.0
 11
167.50889869553581
 21
45.604266797320861
 31
0.0
  0
LINE
  5
1495
  8
0
 62
     0
 10
171.7022440803633
 20
40.288389397359722
 30
0.0
 11
167.0950073522794
 21
44.895626125443712
 31
0.0
  0
LINE
  5
1496
  8
0
 62
     0
 10
170.5797120652297
 20
40.288389397359737
 30
0.0
 11
166.63321972093959
 21
44.234881741649779
 31
0.0
  0
LINE
  5
1497
  8
0
 62
     0
 10
169.45718005009601
 20
40.28838939735973
 30
0.0
 11
166.12556065924389
 21
43.620008788211841
 31
0.0
  0
LINE
  5
1498
  8
0
 62
     0
 10
168.33464803496241
 20
40.28838939735973
 30
0.0
 11
165.57307382325379
 21
43.049963609068357
 31
0.0
  0
LINE
  5
1499
  8
0
 62
     0
 10
167.21211601982881
 20
40.288389397359722
 30
0.0
 11
164.975927084821
 21
42.524578332367447
 31
0.0
  0
LINE
  5
149A
  8
0
 62
     0
 10
166.0895840046951
 20
40.288389397359737
 30
0.0
 11
164.3334289717998
 21
42.044544430255023
 31
0.0
  0
LINE
  5
149B
  8
0
 62
     0
 10
164.9670519895615
 20
40.28838939735973
 30
0.0
 11
163.64396003383561
 21
41.611481353085622
 31
0.0
  0
LINE
  5
149C
  8
0
 62
     0
 10
163.84451997442781
 20
40.288389397359722
 30
0.0
 11
162.90480251502021
 21
41.228106856767369
 31
0.0
  0
LINE
  5
149D
  8
0
 62
     0
 10
162.7219879592941
 20
40.288389397359737
 30
0.0
 11
162.111823491423
 21
40.898553865230888
 31
0.0
  0
LINE
  5
149E
  8
0
 62
     0
 10
161.5994559441605
 20
40.288389397359722
 30
0.0
 11
161.2589151587041
 21
40.62893018281612
 31
0.0
  0
LINE
  5
149F
  8
0
 62
     0
 10
160.4769239290269
 20
40.28838939735973
 30
0.0
 11
160.33698444073141
 21
40.428328885655191
 31
0.0
  0
LINE
  5
14A0
  8
0
 62
     0
 10
159.35439191389321
 20
40.288389397359722
 30
0.0
 11
159.3320068313956
 21
40.310774479857372
 31
0.0
  0
LINE
  5
14A1
  8
0
 62
     0
 10
177.3181065354668
 20
40.288389397359722
 30
0.0
 11
177.43955843934449
 21
40.409841301237464
 31
0.0
  0
LINE
  5
14A2
  8
0
 62
     0
 10
176.1955745203332
 20
40.288389397359722
 30
0.0
 11
177.14715296022061
 21
41.239967837247178
 31
0.0
  0
LINE
  5
14A3
  8
0
 62
     0
 10
175.07304250519951
 20
40.28838939735973
 30
0.0
 11
176.87812708018339
 21
42.093473972343617
 31
0.0
  0
LINE
  5
14A4
  8
0
 62
     0
 10
173.95051049006591
 20
40.28838939735973
 30
0.0
 11
176.63374310653899
 21
42.971622013832871
 31
0.0
  0
LINE
  5
14A5
  8
0
 62
     0
 10
172.82797847493219
 20
40.28838939735973
 30
0.0
 11
176.4154748073806
 21
43.875885729808033
 31
0.0
  0
LINE
  5
14A6
  8
0
 62
     0
 10
171.70544645979859
 20
40.288389397359722
 30
0.0
 11
176.22505318864759
 21
44.807996126208693
 31
0.0
  0
LINE
  5
14A7
  8
0
 62
     0
 10
170.58291444466499
 20
40.288389397359751
 30
0.0
 11
176.06452669659549
 21
45.770001649290307
 31
0.0
  0
LINE
  5
14A8
  8
0
 62
     0
 10
169.46038242953131
 20
40.288389397359722
 30
0.0
 11
175.93634176782101
 21
46.764348735649378
 31
0.0
  0
LINE
  5
14A9
  8
0
 62
     0
 10
168.33785041439771
 20
40.288389397359722
 30
0.0
 11
175.8434527769966
 21
47.793991759958637
 31
0.0
  0
LINE
  5
14AA
  8
0
 62
     0
 10
167.21531839926399
 20
40.288389397359722
 30
0.0
 11
175.7894756395126
 21
48.862546637608268
 31
0.0
  0
LINE
  5
14AB
  8
0
 62
     0
 10
166.09278638413039
 20
40.28838939735973
 30
0.0
 11
175.7789083352308
 21
49.974511348460183
 31
0.0
  0
LINE
  5
14AC
  8
0
 62
     0
 10
164.97025436899671
 20
40.28838939735973
 30
0.0
 11
175.8174579258756
 21
51.135592954238589
 31
0.0
  0
LINE
  5
14AD
  8
0
 62
     0
 10
163.84772235386311
 20
40.28838939735973
 30
0.0
 11
175.9125447756546
 21
52.353211819151177
 31
0.0
  0
LINE
  5
14AE
  8
0
 62
     0
 10
166.49829967328151
 20
44.061498731911783
 30
0.0
 11
176.07411811232711
 21
53.637317170957353
 31
0.0
  0
LINE
  5
14AF
  8
0
 62
     0
 10
162.72519033872939
 20
40.28838939735973
 30
0.0
 11
164.90179859261289
 21
42.464997651243181
 31
0.0
  0
LINE
  5
14B0
  8
0
 62
     0
 10
168.00390862953881
 20
46.689639703302738
 30
0.0
 11
176.31605701958981
 21
55.001788093353717
 31
0.0
  0
LINE
  5
14B1
  8
0
 62
     0
 10
161.60265832359579
 20
40.288389397359751
 30
0.0
 11
162.2736576212219
 21
40.959388694985883
 31
0.0
  0
LINE
  5
14B2
  8
0
 62
     0
 10
168.46990010533091
 20
48.278163194228441
 30
0.0
 11
176.65877284564269
 21
56.467035934540313
 31
0.0
  0
LINE
  5
14B3
  8
0
 62
     0
 10
160.4801263084621
 20
40.288389397359722
 30
0.0
 11
160.68513413029621
 21
40.493397219193803
 31
0.0
  0
LINE
  5
14B4
  8
0
 62
     0
 10
168.64899408023209
 20
49.579789184263362
 30
0.0
 11
177.13458506601069
 21
58.065380170041919
 31
0.0
  0
LINE
  5
14B5
  8
0
 62
     0
 10
159.3575942933285
 20
40.288389397359722
 30
0.0
 11
159.38350814026131
 21
40.31430324429251
 31
0.0
  0
LINE
  5
14B6
  8
0
 62
     0
 10
168.66496883277779
 20
50.718295951942594
 30
0.0
 11
177.80067856270949
 21
59.854005681874341
 31
0.0
  0
LINE
  5
14B7
  8
0
 62
     0
 10
168.56782822759541
 20
51.743687361893898
 30
0.0
 11
177.1125298895233
 21
60.28838902382185
 31
0.0
  0
LINE
  5
14B8
  8
0
 62
     0
 10
168.38365622115981
 20
52.68204737059196
 30
0.0
 11
175.9899978743897
 21
60.288389023821857
 31
0.0
  0
LINE
  5
14B9
  8
0
 62
     0
 10
168.12796025657539
 20
53.548883421141149
 30
0.0
 11
174.8674658592561
 21
60.288389023821871
 31
0.0
  0
LINE
  5
14BA
  8
0
 62
     0
 10
167.81068102946489
 20
54.354136209164331
 30
0.0
 11
173.74493384412239
 21
60.288389023821871
 31
0.0
  0
LINE
  5
14BB
  8
0
 62
     0
 10
167.43846063938619
 20
55.104447834219272
 30
0.0
 11
172.62240182898881
 21
60.28838902382185
 31
0.0
  0
LINE
  5
14BC
  8
0
 62
     0
 10
167.01579785057311
 20
55.80431706053978
 30
0.0
 11
171.49986981385521
 21
60.288389023821871
 31
0.0
  0
LINE
  5
14BD
  8
0
 62
     0
 10
166.54568129873539
 20
56.456732523835747
 30
0.0
 11
170.3773377987215
 21
60.28838902382185
 31
0.0
  0
LINE
  5
14BE
  8
0
 62
     0
 10
166.02994788044069
 20
57.06353112067471
 30
0.0
 11
169.25480578358781
 21
60.288389023821857
 31
0.0
  0
LINE
  5
14BF
  8
0
 62
     0
 10
165.46947951606481
 20
57.625594771432432
 30
0.0
 11
168.13227376845421
 21
60.28838902382185
 31
0.0
  0
LINE
  5
14C0
  8
0
 62
     0
 10
164.86429145029621
 20
58.142938720797517
 30
0.0
 11
167.00974175332061
 21
60.288389023821857
 31
0.0
  0
LINE
  5
14C1
  8
0
 62
     0
 10
164.21353374382511
 20
58.614713029460042
 30
0.0
 11
165.8872097381869
 21
60.288389023821871
 31
0.0
  0
LINE
  5
14C2
  8
0
 62
     0
 10
163.51540630988919
 20
59.039117610657762
 30
0.0
 11
164.7646777230533
 21
60.288389023821871
 31
0.0
  0
LINE
  5
14C3
  8
0
 62
     0
 10
162.7669667086243
 20
59.413210024526478
 30
0.0
 11
163.64214570791961
 21
60.288389023821871
 31
0.0
  0
LINE
  5
14C4
  8
0
 62
     0
 10
161.9637790005261
 20
59.732554331561929
 30
0.0
 11
162.51961369278601
 21
60.288389023821871
 31
0.0
  0
LINE
  5
14C5
  8
0
 62
     0
 10
161.09929348066811
 20
59.990600826837607
 30
0.0
 11
161.3970816776523
 21
60.28838902382185
 31
0.0
  0
LINE
  5
14C6
  8
0
 62
     0
 10
160.16371717274339
 20
60.177556534046531
 30
0.0
 11
160.27454966251869
 21
60.28838902382185
 31
0.0
  0
LINE
  5
14C7
  8
0
 62
     0
 10
159.14180359208731
 20
60.278174968524048
 30
0.0
 11
159.15201764738501
 21
60.288389023821857
 31
0.0
  0
ENDBLK
  5
14C9
  8
0
  0
BLOCK
  8
0
  2
*X39
 70
     1
 10
0.0
 20
0.0
 30
0.0
  3
*X39
  1

  0
LINE
  5
14CB
  8
0
 62
     0
 10
167.79466124791341
 20
47.275564045943291
 30
0.0
 11
168.1915362479134
 21
47.962971710197188
 31
0.0
  0
LINE
  5
14CC
  8
0
 62
     0
 10
166.6040362479134
 20
45.213341053181587
 30
0.0
 11
167.00091124791339
 21
45.900748717435491
 31
0.0
  0
LINE
  5
14CD
  8
0
 62
     0
 10
165.41341124791339
 20
43.151118060419911
 30
0.0
 11
165.81028624791341
 21
43.838525724673808
 31
0.0
  0
LINE
  5
14CE
  8
0
 62
     0
 10
167.79466153240949
 20
50.025194538704973
 30
0.0
 11
168.19153653240949
 21
50.712602202958863
 31
0.0
  0
LINE
  5
14CF
  8
0
 62
     0
 10
166.60403653240951
 20
47.962971545943269
 30
0.0
 11
167.0009115324095
 21
48.650379210197173
 31
0.0
  0
LINE
  5
14D0
  8
0
 62
     0
 10
165.4134115324095
 20
45.900748553181579
 30
0.0
 11
165.81028653240949
 21
46.588156217435483
 31
0.0
  0
LINE
  5
14D1
  8
0
 62
     0
 10
164.22278653240949
 20
43.838525560419889
 30
0.0
 11
164.61966153240951
 21
44.525933224673793
 31
0.0
  0
LINE
  5
14D2
  8
0
 62
     0
 10
163.0321615324095
 20
41.776302567658199
 30
0.0
 11
163.4290365324095
 21
42.463710231912103
 31
0.0
  0
LINE
  5
14D3
  8
0
 62
     0
 10
167.79466181690549
 20
52.774825031466648
 30
0.0
 11
168.16987001838231
 21
53.424704699841051
 31
0.0
  0
LINE
  5
14D4
  8
0
 62
     0
 10
166.60403681690551
 20
50.712602038704972
 30
0.0
 11
167.0009118169055
 21
51.400009702958862
 31
0.0
  0
LINE
  5
14D5
  8
0
 62
     0
 10
165.41341181690561
 20
48.650379045943268
 30
0.0
 11
165.81028681690549
 21
49.337786710197172
 31
0.0
  0
LINE
  5
14D6
  8
0
 62
     0
 10
164.2227868169056
 20
46.588156053181578
 30
0.0
 11
164.61966181690559
 21
47.275563717435482
 31
0.0
  0
LINE
  5
14D7
  8
0
 62
     0
 10
163.03216181690561
 20
44.525933060419888
 30
0.0
 11
163.42903681690561
 21
45.213340724673792
 31
0.0
  0
LINE
  5
14D8
  8
0
 62
     0
 10
161.8415368169056
 20
42.463710067658198
 30
0.0
 11
162.2384118169056
 21
43.151117731912102
 31
0.0
  0
LINE
  5
14D9
  8
0
 62
     0
 10
160.7065256184371
 20
40.497813004751052
 30
0.0
 11
161.04778681690561
 21
41.088894739150412
 31
0.0
  0
LINE
  5
14DA
  8
0
 62
     0
 10
166.60403710140159
 20
53.462232531466661
 30
0.0
 11
167.00091210140161
 21
54.149640195720558
 31
0.0
  0
LINE
  5
14DB
  8
0
 62
     0
 10
165.4134121014016
 20
51.400009538704971
 30
0.0
 11
165.8102871014016
 21
52.087417202958861
 31
0.0
  0
LINE
  5
14DC
  8
0
 62
     0
 10
164.22278710140171
 20
49.337786545943281
 30
0.0
 11
164.6196621014017
 21
50.025194210197178
 31
0.0
  0
LINE
  5
14DD
  8
0
 62
     0
 10
163.0321621014017
 20
47.275563553181591
 30
0.0
 11
163.42903710140169
 21
47.962971217435481
 31
0.0
  0
LINE
  5
14DE
  8
0
 62
     0
 10
161.84153710140171
 20
45.213340560419901
 30
0.0
 11
162.23841210140171
 21
45.900748224673791
 31
0.0
  0
LINE
  5
14DF
  8
0
 62
     0
 10
160.6509121014017
 20
43.151117567658211
 30
0.0
 11
161.0477871014017
 21
43.838525231912108
 31
0.0
  0
LINE
  5
14E0
  8
0
 62
     0
 10
159.46028710140169
 20
41.088894574896507
 30
0.0
 11
159.85716210140171
 21
41.776302239150411
 31
0.0
  0
LINE
  5
14E1
  8
0
 62
     0
 10
166.6040373858977
 20
56.211863024228329
 30
0.0
 11
166.65973369548229
 21
56.308331862223064
 31
0.0
  0
LINE
  5
14E2
  8
0
 62
     0
 10
165.41341238589769
 20
54.149640031466639
 30
0.0
 11
165.81028738589771
 21
54.837047695720528
 31
0.0
  0
LINE
  5
14E3
  8
0
 62
     0
 10
164.2227873858977
 20
52.087417038704949
 30
0.0
 11
164.6196623858977
 21
52.774824702958838
 31
0.0
  0
LINE
  5
14E4
  8
0
 62
     0
 10
163.03216238589769
 20
50.025194045943259
 30
0.0
 11
163.42903738589769
 21
50.712601710197163
 31
0.0
  0
LINE
  5
14E5
  8
0
 62
     0
 10
161.84153738589771
 20
47.962971053181562
 30
0.0
 11
162.2384123858977
 21
48.650378717435458
 31
0.0
  0
LINE
  5
14E6
  8
0
 62
     0
 10
160.65091238589781
 20
45.900748060419879
 30
0.0
 11
161.04778738589781
 21
46.588155724673783
 31
0.0
  0
LINE
  5
14E7
  8
0
 62
     0
 10
159.4602873858978
 20
43.838525067658182
 30
0.0
 11
159.85716238589779
 21
44.525932731912079
 31
0.0
  0
LINE
  5
14E8
  8
0
 62
     0
 10
158.26966238589779
 20
41.776302074896499
 30
0.0
 11
158.66653738589781
 21
42.463709739150389
 31
0.0
  0
LINE
  5
14E9
  8
0
 62
     0
 10
157.4541630793214
 20
40.363815842369007
 30
0.0
 11
157.4759123858978
 21
40.401486746388699
 31
0.0
  0
LINE
  5
14EA
  8
0
 62
     0
 10
165.4134126703938
 20
56.899270524228342
 30
0.0
 11
165.70348947133351
 21
57.401698281553081
 31
0.0
  0
LINE
  5
14EB
  8
0
 62
     0
 10
164.22278767039381
 20
54.837047531466638
 30
0.0
 11
164.61966267039381
 21
55.524455195720542
 31
0.0
  0
LINE
  5
14EC
  8
0
 62
     0
 10
163.0321626703938
 20
52.774824538704948
 30
0.0
 11
163.4290376703938
 21
53.462232202958852
 31
0.0
  0
LINE
  5
14ED
  8
0
 62
     0
 10
161.84153767039379
 20
50.712601545943272
 30
0.0
 11
162.23841267039381
 21
51.400009210197162
 31
0.0
  0
LINE
  5
14EE
  8
0
 62
     0
 10
160.65091267039381
 20
48.650378553181568
 30
0.0
 11
161.0477876703938
 21
49.337786217435472
 31
0.0
  0
LINE
  5
14EF
  8
0
 62
     0
 10
159.4602876703938
 20
46.588155560419892
 30
0.0
 11
159.85716267039379
 21
47.275563224673782
 31
0.0
  0
LINE
  5
14F0
  8
0
 62
     0
 10
158.2696626703939
 20
44.525932567658188
 30
0.0
 11
158.66653767039381
 21
45.213340231912092
 31
0.0
  0
LINE
  5
14F1
  8
0
 62
     0
 10
157.07903767039389
 20
42.463709574896498
 30
0.0
 11
157.47591267039391
 21
43.151117239150402
 31
0.0
  0
LINE
  5
14F2
  8
0
 62
     0
 10
156.02915787246241
 20
40.645264423039002
 30
0.0
 11
156.2852876703939
 21
41.088894246388712
 31
0.0
  0
LINE
  5
14F3
  8
0
 62
     0
 10
164.2227879548899
 20
57.586678024228341
 30
0.0
 11
164.61966295488989
 21
58.274085688482231
 31
0.0
  0
LINE
  5
14F4
  8
0
 62
     0
 10
163.03216295488991
 20
55.524455031466651
 30
0.0
 11
163.42903795488991
 21
56.211862695720548
 31
0.0
  0
LINE
  5
14F5
  8
0
 62
     0
 10
161.8415379548899
 20
53.462232038704961
 30
0.0
 11
162.2384129548899
 21
54.149639702958858
 31
0.0
  0
LINE
  5
14F6
  8
0
 62
     0
 10
160.65091295488989
 20
51.400009045943271
 30
0.0
 11
161.04778795488991
 21
52.087416710197161
 31
0.0
  0
LINE
  5
14F7
  8
0
 62
     0
 10
159.46028795488991
 20
49.337786053181581
 30
0.0
 11
159.8571629548899
 21
50.025193717435478
 31
0.0
  0
LINE
  5
14F8
  8
0
 62
     0
 10
158.26966295489001
 20
47.275563060419877
 30
0.0
 11
158.66653795489
 21
47.962970724673781
 31
0.0
  0
LINE
  5
14F9
  8
0
 62
     0
 10
157.07903795489
 20
45.213340067658201
 30
0.0
 11
157.47591295488999
 21
45.900747731912098
 31
0.0
  0
LINE
  5
14FA
  8
0
 62
     0
 10
155.88841295488999
 20
43.151117074896511
 30
0.0
 11
156.28528795489001
 21
43.838524739150401
 31
0.0
  0
LINE
  5
14FB
  8
0
 62
     0
 10
154.709245975839
 20
41.10873995657267
 30
0.0
 11
155.09466295489
 21
41.776301746388711
 31
0.0
  0
LINE
  5
14FC
  8
0
 62
     0
 10
163.03216323938599
 20
58.27408552422834
 30
0.0
 11
163.42903823938599
 21
58.96149318848223
 31
0.0
  0
LINE
  5
14FD
  8
0
 62
     0
 10
161.84153823938601
 20
56.21186253146665
 30
0.0
 11
162.23841323938601
 21
56.899270195720547
 31
0.0
  0
LINE
  5
14FE
  8
0
 62
     0
 10
160.650913239386
 20
54.14963953870496
 30
0.0
 11
161.04778823938599
 21
54.837047202958857
 31
0.0
  0
LINE
  5
14FF
  8
0
 62
     0
 10
159.46028823938599
 20
52.08741654594327
 30
0.0
 11
159.85716323938601
 21
52.77482421019716
 31
0.0
  0
LINE
  5
1500
  8
0
 62
     0
 10
158.26966323938601
 20
50.02519355318158
 30
0.0
 11
158.666538239386
 21
50.712601217435477
 31
0.0
  0
LINE
  5
1501
  8
0
 62
     0
 10
157.07903823938611
 20
47.962970560419883
 30
0.0
 11
157.4759132393861
 21
48.65037822467378
 31
0.0
  0
LINE
  5
1502
  8
0
 62
     0
 10
155.8884132393861
 20
45.9007475676582
 30
0.0
 11
156.28528823938609
 21
46.588155231912097
 31
0.0
  0
LINE
  5
1503
  8
0
 62
     0
 10
154.69778823938611
 20
43.83852457489651
 30
0.0
 11
155.09466323938611
 21
44.5259322391504
 31
0.0
  0
LINE
  5
1504
  8
0
 62
     0
 10
153.5071632393861
 20
41.77630158213482
 30
0.0
 11
153.9040382393861
 21
42.46370924638871
 31
0.0
  0
LINE
  5
1505
  8
0
 62
     0
 10
161.84153852388209
 20
58.961493024228339
 30
0.0
 11
162.23058619847359
 21
59.635343363187339
 31
0.0
  0
LINE
  5
1506
  8
0
 62
     0
 10
160.65091352388211
 20
56.899270031466649
 30
0.0
 11
161.0477885238821
 21
57.586677695720539
 31
0.0
  0
LINE
  5
1507
  8
0
 62
     0
 10
159.4602885238821
 20
54.837047038704959
 30
0.0
 11
159.85716352388209
 21
55.524454702958863
 31
0.0
  0
LINE
  5
1508
  8
0
 62
     0
 10
158.26966352388209
 20
52.774824045943262
 30
0.0
 11
158.66653852388211
 21
53.462231710197159
 31
0.0
  0
LINE
  5
1509
  8
0
 62
     0
 10
157.0790385238821
 20
50.712601053181579
 30
0.0
 11
157.4759135238821
 21
51.400008717435483
 31
0.0
  0
LINE
  5
150A
  8
0
 62
     0
 10
155.88841352388221
 20
48.650378060419889
 30
0.0
 11
156.28528852388209
 21
49.337785724673779
 31
0.0
  0
LINE
  5
150B
  8
0
 62
     0
 10
154.6977885238822
 20
46.588155067658199
 30
0.0
 11
155.09466352388219
 21
47.275562731912089
 31
0.0
  0
LINE
  5
150C
  8
0
 62
     0
 10
153.50716352388221
 20
44.52593207489651
 30
0.0
 11
153.90403852388221
 21
45.213339739150399
 31
0.0
  0
LINE
  5
150D
  8
0
 62
     0
 10
152.35831285229901
 20
42.536064341404717
 30
0.0
 11
152.7134135238822
 21
43.151116746388709
 31
0.0
  0
LINE
  5
150E
  8
0
 62
     0
 10
160.65091380837819
 20
59.648900524228331
 30
0.0
 11
160.8785240743278
 21
60.043133069177301
 31
0.0
  0
LINE
  5
150F
  8
0
 62
     0
 10
159.46028880837821
 20
57.586677531466641
 30
0.0
 11
159.8571638083782
 21
58.274085195720531
 31
0.0
  0
LINE
  5
1510
  8
0
 62
     0
 10
158.2696638083782
 20
55.524454538704951
 30
0.0
 11
158.66653880837819
 21
56.211862202958848
 31
0.0
  0
LINE
  5
1511
  8
0
 62
     0
 10
157.07903880837819
 20
53.462231545943261
 30
0.0
 11
157.47591380837821
 21
54.149639210197151
 31
0.0
  0
LINE
  5
1512
  8
0
 62
     0
 10
155.8884138083782
 20
51.400008553181571
 30
0.0
 11
156.2852888083782
 21
52.087416217435468
 31
0.0
  0
LINE
  5
1513
  8
0
 62
     0
 10
154.69778880837831
 20
49.337785560419881
 30
0.0
 11
155.0946638083783
 21
50.025193224673778
 31
0.0
  0
LINE
  5
1514
  8
0
 62
     0
 10
153.50716380837829
 20
47.275562567658191
 30
0.0
 11
153.90403880837829
 21
47.962970231912081
 31
0.0
  0
LINE
  5
1515
  8
0
 62
     0
 10
152.31653880837831
 20
45.213339574896501
 30
0.0
 11
152.71341380837831
 21
45.900747239150398
 31
0.0
  0
LINE
  5
1516
  8
0
 62
     0
 10
151.32912554543699
 20
43.503089635414788
 30
0.0
 11
151.52278880837829
 21
43.838524246388701
 31
0.0
  0
LINE
  5
1517
  8
0
 62
     0
 10
158.26966409287431
 20
58.27408503146664
 30
0.0
 11
158.6665390928743
 21
58.961492695720537
 31
0.0
  0
LINE
  5
1518
  8
0
 62
     0
 10
157.0790390928743
 20
56.211862038704957
 30
0.0
 11
157.47591409287429
 21
56.899269702958861
 31
0.0
  0
LINE
  5
1519
  8
0
 62
     0
 10
155.88841409287431
 20
54.14963904594326
 30
0.0
 11
156.28528909287431
 21
54.837046710197157
 31
0.0
  0
LINE
  5
151A
  8
0
 62
     0
 10
154.6977890928743
 20
52.087416053181578
 30
0.0
 11
155.0946640928743
 21
52.774823717435467
 31
0.0
  0
LINE
  5
151B
  8
0
 62
     0
 10
153.50716409287429
 20
50.025193060419888
 30
0.0
 11
153.9040390928744
 21
50.712600724673777
 31
0.0
  0
LINE
  5
151C
  8
0
 62
     0
 10
152.31653909287439
 20
47.96297006765819
 30
0.0
 11
152.71341409287439
 21
48.650377731912087
 31
0.0
  0
LINE
  5
151D
  8
0
 62
     0
 10
151.12591409287441
 20
45.900747074896508
 30
0.0
 11
151.5227890928744
 21
46.588154739150397
 31
0.0
  0
LINE
  5
151E
  8
0
 62
     0
 10
157.07903937737041
 20
58.961492531466646
 30
0.0
 11
157.4759143773704
 21
59.64890019572055
 31
0.0
  0
LINE
  5
151F
  8
0
 62
     0
 10
155.8884143773704
 20
56.899269538704971
 30
0.0
 11
156.28528937737039
 21
57.58667720295886
 31
0.0
  0
LINE
  5
1520
  8
0
 62
     0
 10
154.69778937737041
 20
54.837046545943267
 30
0.0
 11
155.09466437737041
 21
55.52445421019717
 31
0.0
  0
LINE
  5
1521
  8
0
 62
     0
 10
153.5071643773704
 20
52.774823553181577
 30
0.0
 11
153.9040393773704
 21
53.46223121743548
 31
0.0
  0
LINE
  5
1522
  8
0
 62
     0
 10
152.3165393773705
 20
50.712600560419887
 30
0.0
 11
152.71341437737041
 21
51.40000822467379
 31
0.0
  0
LINE
  5
1523
  8
0
 62
     0
 10
151.12591437737049
 20
48.650377567658197
 30
0.0
 11
151.52278937737049
 21
49.3377852319121
 31
0.0
  0
LINE
  5
1524
  8
0
 62
     0
 10
149.93528937737051
 20
46.588154574896507
 30
0.0
 11
150.3321643773705
 21
47.27556223915041
 31
0.0
  0
LINE
  5
1525
  8
0
 62
     0
 10
155.88841466186639
 20
59.648900031466631
 30
0.0
 11
156.0567666365406
 21
59.94049420515676
 31
0.0
  0
LINE
  5
1526
  8
0
 62
     0
 10
154.69778966186649
 20
57.586677038704948
 30
0.0
 11
155.09466466186649
 21
58.274084702958852
 31
0.0
  0
LINE
  5
1527
  8
0
 62
     0
 10
153.50716466186651
 20
55.524454045943259
 30
0.0
 11
153.90403966186651
 21
56.211861710197148
 31
0.0
  0
LINE
  5
1528
  8
0
 62
     0
 10
152.3165396618665
 20
53.462231053181569
 30
0.0
 11
152.71341466186649
 21
54.149638717435458
 31
0.0
  0
LINE
  5
1529
  8
0
 62
     0
 10
151.12591466186649
 20
51.400008060419879
 30
0.0
 11
151.52278966186651
 21
52.087415724673782
 31
0.0
  0
LINE
  5
152A
  8
0
 62
     0
 10
149.93528966186651
 20
49.337785067658182
 30
0.0
 11
150.3321646618665
 21
50.025192731912078
 31
0.0
  0
LINE
  5
152B
  8
0
 62
     0
 10
149.0071346902007
 20
47.730173499435331
 30
0.0
 11
149.1415396618666
 21
47.962969739150402
 31
0.0
  0
LINE
  5
152C
  8
0
 62
     0
 10
153.50716494636259
 20
58.274084538704962
 30
0.0
 11
153.90403994636259
 21
58.961492202958858
 31
0.0
  0
LINE
  5
152D
  8
0
 62
     0
 10
152.31653994636261
 20
56.211861545943279
 30
0.0
 11
152.7134149463626
 21
56.899269210197183
 31
0.0
  0
LINE
  5
152E
  8
0
 62
     0
 10
151.1259149463626
 20
54.149638553181589
 30
0.0
 11
151.52278994636259
 21
54.837046217435478
 31
0.0
  0
LINE
  5
152F
  8
0
 62
     0
 10
149.93528994636259
 20
52.087415560419899
 30
0.0
 11
150.3321649463627
 21
52.774823224673789
 31
0.0
  0
LINE
  5
1530
  8
0
 62
     0
 10
148.8065828428237
 20
50.13243751022646
 30
0.0
 11
149.14153994636271
 21
50.712600231912113
 31
0.0
  0
LINE
  5
1531
  8
0
 62
     0
 10
149.93529023085881
 20
54.837046053181581
 30
0.0
 11
150.33216523085869
 21
55.524453717435478
 31
0.0
  0
LINE
  5
1532
  8
0
 62
     0
 10
164.61964759210079
 20
58.27405250919481
 30
0.0
 11
164.56385936677299
 21
58.370680549926618
 31
0.0
  0
LINE
  5
1533
  8
0
 62
     0
 10
165.81027259210069
 20
56.21182951643312
 30
0.0
 11
165.41339759210081
 21
56.89923718068701
 31
0.0
  0
LINE
  5
1534
  8
0
 62
     0
 10
167.0008975921007
 20
54.14960652367143
 30
0.0
 11
166.6040225921007
 21
54.837014187925327
 31
0.0
  0
LINE
  5
1535
  8
0
 62
     0
 10
168.19152259210071
 20
52.08738353090974
 30
0.0
 11
167.79464759210069
 21
52.774791195163637
 31
0.0
  0
LINE
  5
1536
  8
0
 62
     0
 10
163.42902287659689
 20
57.58664500919479
 30
0.0
 11
163.03214787659689
 21
58.274052673448693
 31
0.0
  0
LINE
  5
1537
  8
0
 62
     0
 10
164.6196478765969
 20
55.524422016433107
 30
0.0
 11
164.22277287659691
 21
56.211829680687003
 31
0.0
  0
LINE
  5
1538
  8
0
 62
     0
 10
165.81027287659691
 20
53.462199023671417
 30
0.0
 11
165.41339787659689
 21
54.149606687925314
 31
0.0
  0
LINE
  5
1539
  8
0
 62
     0
 10
167.00089787659681
 20
51.39997603090972
 30
0.0
 11
166.6040228765969
 21
52.087383695163624
 31
0.0
  0
LINE
  5
153A
  8
0
 62
     0
 10
168.19152287659679
 20
49.337753038148037
 30
0.0
 11
167.7946478765968
 21
50.025160702401941
 31
0.0
  0
LINE
  5
153B
  8
0
 62
     0
 10
161.04777316109301
 20
58.961460501956502
 30
0.0
 11
160.65089816109301
 21
59.648868166210391
 31
0.0
  0
LINE
  5
153C
  8
0
 62
     0
 10
162.23839816109299
 20
56.899237509194798
 30
0.0
 11
161.84152316109299
 21
57.586645173448701
 31
0.0
  0
LINE
  5
153D
  8
0
 62
     0
 10
163.429023161093
 20
54.837014516433122
 30
0.0
 11
163.03214816109301
 21
55.524422180687012
 31
0.0
  0
LINE
  5
153E
  8
0
 62
     0
 10
164.61964816109301
 20
52.774791523671418
 30
0.0
 11
164.22277316109299
 21
53.462199187925322
 31
0.0
  0
LINE
  5
153F
  8
0
 62
     0
 10
165.81027316109291
 20
50.712568530909728
 30
0.0
 11
165.41339816109291
 21
51.399976195163632
 31
0.0
  0
LINE
  5
1540
  8
0
 62
     0
 10
167.00089816109289
 20
48.650345538148052
 30
0.0
 11
166.6040231610929
 21
49.337753202401942
 31
0.0
  0
LINE
  5
1541
  8
0
 62
     0
 10
168.05491303935321
 20
46.824738217067797
 30
0.0
 11
167.79464816109291
 21
47.275530209640252
 31
0.0
  0
LINE
  5
1542
  8
0
 62
     0
 10
159.8571484455891
 20
58.274053001956489
 30
0.0
 11
159.46027344558911
 21
58.961460666210392
 31
0.0
  0
LINE
  5
1543
  8
0
 62
     0
 10
161.04777344558909
 20
56.211830009194792
 30
0.0
 11
160.65089844558909
 21
56.899237673448688
 31
0.0
  0
LINE
  5
1544
  8
0
 62
     0
 10
162.2383984455891
 20
54.149607016433109
 30
0.0
 11
161.8415234455891
 21
54.837014680687012
 31
0.0
  0
LINE
  5
1545
  8
0
 62
     0
 10
163.42902344558911
 20
52.087384023671419
 30
0.0
 11
163.03214844558909
 21
52.774791687925308
 31
0.0
  0
LINE
  5
1546
  8
0
 62
     0
 10
164.61964844558909
 20
50.025161030909729
 30
0.0
 11
164.2227734455891
 21
50.712568695163618
 31
0.0
  0
LINE
  5
1547
  8
0
 62
     0
 10
165.8102734455891
 20
47.962938038148039
 30
0.0
 11
165.41339844558911
 21
48.650345702401943
 31
0.0
  0
LINE
  5
1548
  8
0
 62
     0
 10
167.000898445589
 20
45.900715045386342
 30
0.0
 11
166.60402344558901
 21
46.588122709640238
 31
0.0
  0
LINE
  5
1549
  8
0
 62
     0
 10
157.47589873008519
 20
59.648868494718187
 30
0.0
 11
157.17178428569551
 21
60.175610163716691
 31
0.0
  0
LINE
  5
154A
  8
0
 62
     0
 10
158.6665237300852
 20
57.586645501956497
 30
0.0
 11
158.26964873008521
 21
58.274053166210393
 31
0.0
  0
LINE
  5
154B
  8
0
 62
     0
 10
159.85714873008521
 20
55.5244225091948
 30
0.0
 11
159.46027373008519
 21
56.211830173448703
 31
0.0
  0
LINE
  5
154C
  8
0
 62
     0
 10
161.0477737300852
 20
53.462199516433117
 30
0.0
 11
160.6508987300852
 21
54.149607180687021
 31
0.0
  0
LINE
  5
154D
  8
0
 62
     0
 10
162.23839873008521
 20
51.39997652367142
 30
0.0
 11
161.84152373008521
 21
52.087384187925323
 31
0.0
  0
LINE
  5
154E
  8
0
 62
     0
 10
163.42902373008511
 20
49.337753530909737
 30
0.0
 11
163.0321487300852
 21
50.025161195163633
 31
0.0
  0
LINE
  5
154F
  8
0
 62
     0
 10
164.61964873008509
 20
47.27553053814804
 30
0.0
 11
164.22277373008509
 21
47.962938202401943
 31
0.0
  0
LINE
  5
1550
  8
0
 62
     0
 10
165.8102737300851
 20
45.21330754538635
 30
0.0
 11
165.41339873008511
 21
45.900715209640254
 31
0.0
  0
LINE
  5
1551
  8
0
 62
     0
 10
156.2852740145814
 20
58.96146099471818
 30
0.0
 11
155.88839901458141
 21
59.648868658972077
 31
0.0
  0
LINE
  5
1552
  8
0
 62
     0
 10
157.4758990145813
 20
56.899238001956491
 30
0.0
 11
157.07902401458131
 21
57.586645666210387
 31
0.0
  0
LINE
  5
1553
  8
0
 62
     0
 10
158.66652401458131
 20
54.837015009194801
 30
0.0
 11
158.26964901458129
 21
55.52442267344869
 31
0.0
  0
LINE
  5
1554
  8
0
 62
     0
 10
159.8571490145813
 20
52.774792016433111
 30
0.0
 11
159.4602740145813
 21
53.462199680687007
 31
0.0
  0
LINE
  5
1555
  8
0
 62
     0
 10
161.04777401458131
 20
50.712569023671421
 30
0.0
 11
160.65089901458131
 21
51.39997668792531
 31
0.0
  0
LINE
  5
1556
  8
0
 62
     0
 10
162.23839901458129
 20
48.650346030909731
 30
0.0
 11
161.8415240145813
 21
49.337753695163627
 31
0.0
  0
LINE
  5
1557
  8
0
 62
     0
 10
163.4290240145813
 20
46.588123038148041
 30
0.0
 11
163.03214901458131
 21
47.27553070240193
 31
0.0
  0
LINE
  5
1558
  8
0
 62
     0
 10
164.6196490145812
 20
44.525900045386351
 30
0.0
 11
164.22277401458129
 21
45.21330770964024
 31
0.0
  0
LINE
  5
1559
  8
0
 62
     0
 10
165.5075236895515
 20
42.988055997584183
 30
0.0
 11
165.41339901458119
 21
43.151084716878557
 31
0.0
  0
LINE
  5
155A
  8
0
 62
     0
 10
155.0946492990775
 20
58.274053494718189
 30
0.0
 11
154.69777429907739
 21
58.961461158972092
 31
0.0
  0
LINE
  5
155B
  8
0
 62
     0
 10
156.2852742990774
 20
56.211830501956499
 30
0.0
 11
155.88839929907741
 21
56.899238166210388
 31
0.0
  0
LINE
  5
155C
  8
0
 62
     0
 10
157.47589929907741
 20
54.149607509194809
 30
0.0
 11
157.07902429907739
 21
54.837015173448698
 31
0.0
  0
LINE
  5
155D
  8
0
 62
     0
 10
158.66652429907739
 20
52.087384516433119
 30
0.0
 11
158.2696492990774
 21
52.774792180687022
 31
0.0
  0
LINE
  5
155E
  8
0
 62
     0
 10
159.85714929907741
 20
50.025161523671422
 30
0.0
 11
159.46027429907741
 21
50.712569187925318
 31
0.0
  0
LINE
  5
155F
  8
0
 62
     0
 10
161.04777429907739
 20
47.962938530909739
 30
0.0
 11
160.65089929907739
 21
48.650346195163642
 31
0.0
  0
LINE
  5
1560
  8
0
 62
     0
 10
162.2383992990774
 20
45.900715538148042
 30
0.0
 11
161.84152429907741
 21
46.588123202401938
 31
0.0
  0
LINE
  5
1561
  8
0
 62
     0
 10
163.4290242990773
 20
43.838492545386359
 30
0.0
 11
163.0321492990773
 21
44.525900209640248
 31
0.0
  0
LINE
  5
1562
  8
0
 62
     0
 10
164.4271589194081
 20
42.109672670179862
 30
0.0
 11
164.22277429907729
 21
42.463677216878558
 31
0.0
  0
LINE
  5
1563
  8
0
 62
     0
 10
153.90402458357349
 20
57.586645994718182
 30
0.0
 11
153.50714958357361
 21
58.274053658972079
 31
0.0
  0
LINE
  5
1564
  8
0
 62
     0
 10
155.0946495835735
 20
55.524423001956492
 30
0.0
 11
154.6977745835735
 21
56.211830666210389
 31
0.0
  0
LINE
  5
1565
  8
0
 62
     0
 10
156.28527458357351
 20
53.462200009194802
 30
0.0
 11
155.88839958357349
 21
54.149607673448699
 31
0.0
  0
LINE
  5
1566
  8
0
 62
     0
 10
157.47589958357349
 20
51.399977016433112
 30
0.0
 11
157.0790245835735
 21
52.087384680687009
 31
0.0
  0
LINE
  5
1567
  8
0
 62
     0
 10
158.6665245835735
 20
49.337754023671422
 30
0.0
 11
158.26964958357351
 21
50.025161687925312
 31
0.0
  0
LINE
  5
1568
  8
0
 62
     0
 10
159.85714958357349
 20
47.275531030909733
 30
0.0
 11
159.46027458357349
 21
47.962938695163629
 31
0.0
  0
LINE
  5
1569
  8
0
 62
     0
 10
161.04777458357341
 20
45.213308038148043
 30
0.0
 11
160.6508995835735
 21
45.900715702401932
 31
0.0
  0
LINE
  5
156A
  8
0
 62
     0
 10
162.2383995835734
 20
43.151085045386353
 30
0.0
 11
161.8415245835734
 21
43.838492709640249
 31
0.0
  0
LINE
  5
156B
  8
0
 62
     0
 10
163.25066901723349
 20
41.397782955338123
 30
0.0
 11
163.03214958357341
 21
41.776269716878559
 31
0.0
  0
LINE
  5
156C
  8
0
 62
     0
 10
152.71339986806959
 20
56.89923849471819
 30
0.0
 11
152.31652486806971
 21
57.586646158972087
 31
0.0
  0
LINE
  5
156D
  8
0
 62
     0
 10
153.9040248680696
 20
54.8370155019565
 30
0.0
 11
153.5071498680696
 21
55.52442316621039
 31
0.0
  0
LINE
  5
156E
  8
0
 62
     0
 10
155.09464986806961
 20
52.77479250919481
 30
0.0
 11
154.69777486806959
 21
53.462200173448707
 31
0.0
  0
LINE
  5
156F
  8
0
 62
     0
 10
156.28527486806959
 20
50.71256951643312
 30
0.0
 11
155.8883998680696
 21
51.399977180687017
 31
0.0
  0
LINE
  5
1570
  8
0
 62
     0
 10
157.4758998680696
 20
48.650346523671431
 30
0.0
 11
157.07902486806961
 21
49.33775418792532
 31
0.0
  0
LINE
  5
1571
  8
0
 62
     0
 10
158.66652486806959
 20
46.588123530909741
 30
0.0
 11
158.26964986806959
 21
47.275531195163637
 31
0.0
  0
LINE
  5
1572
  8
0
 62
     0
 10
159.8571498680696
 20
44.525900538148043
 30
0.0
 11
159.4602748680696
 21
45.21330820240194
 31
0.0
  0
LINE
  5
1573
  8
0
 62
     0
 10
161.0477748680695
 20
42.463677545386361
 30
0.0
 11
160.6508998680695
 21
43.151085209640257
 31
0.0
  0
LINE
  5
1574
  8
0
 62
     0
 10
161.97888371225591
 20
40.850949719878891
 30
0.0
 11
161.84152486806951
 21
41.08886221687856
 31
0.0
  0
LINE
  5
1575
  8
0
 62
     0
 10
151.52277515256571
 20
56.211830994718191
 30
0.0
 11
151.1435753770061
 21
56.868624272206141
 31
0.0
  0
LINE
  5
1576
  8
0
 62
     0
 10
152.7134001525657
 20
54.149608001956501
 30
0.0
 11
152.3165251525657
 21
54.837015666210391
 31
0.0
  0
LINE
  5
1577
  8
0
 62
     0
 10
153.90402515256571
 20
52.087385009194811
 30
0.0
 11
153.50715015256571
 21
52.774792673448708
 31
0.0
  0
LINE
  5
1578
  8
0
 62
     0
 10
155.09465015256569
 20
50.025162016433121
 30
0.0
 11
154.6977751525657
 21
50.712569680687018
 31
0.0
  0
LINE
  5
1579
  8
0
 62
     0
 10
156.28527515256559
 20
47.962939023671431
 30
0.0
 11
155.88840015256571
 21
48.650346687925321
 31
0.0
  0
LINE
  5
157A
  8
0
 62
     0
 10
157.4759001525656
 20
45.900716030909742
 30
0.0
 11
157.07902515256561
 21
46.588123695163638
 31
0.0
  0
LINE
  5
157B
  8
0
 62
     0
 10
158.66652515256561
 20
43.838493038148037
 30
0.0
 11
158.26965015256559
 21
44.525900702401941
 31
0.0
  0
LINE
  5
157C
  8
0
 62
     0
 10
159.85715015256559
 20
41.776270045386362
 30
0.0
 11
159.4602751525656
 21
42.463677709640258
 31
0.0
  0
LINE
  5
157D
  8
0
 62
     0
 10
150.33215043706181
 20
55.524423494718206
 30
0.0
 11
150.24677136003609
 21
55.672304394030043
 31
0.0
  0
LINE
  5
157E
  8
0
 62
     0
 10
151.5227754370618
 20
53.462200501956509
 30
0.0
 11
151.1259004370618
 21
54.149608166210413
 31
0.0
  0
LINE
  5
157F
  8
0
 62
     0
 10
152.71340043706181
 20
51.399977509194827
 30
0.0
 11
152.31652543706181
 21
52.08738517344873
 31
0.0
  0
LINE
  5
1580
  8
0
 62
     0
 10
153.90402543706179
 20
49.337754516433129
 30
0.0
 11
153.5071504370618
 21
50.025162180687033
 31
0.0
  0
LINE
  5
1581
  8
0
 62
     0
 10
155.0946504370618
 20
47.275531523671447
 30
0.0
 11
154.69777543706181
 21
47.962939187925343
 31
0.0
  0
LINE
  5
1582
  8
0
 62
     0
 10
156.2852754370617
 20
45.21330853090975
 30
0.0
 11
155.8884004370617
 21
45.900716195163653
 31
0.0
  0
LINE
  5
1583
  8
0
 62
     0
 10
157.47590043706171
 20
43.15108553814806
 30
0.0
 11
157.07902543706169
 21
43.838493202401963
 31
0.0
  0
LINE
  5
1584
  8
0
 62
     0
 10
158.66652543706169
 20
41.088862545386377
 30
0.0
 11
158.2696504370617
 21
41.776270209640273
 31
0.0
  0
LINE
  5
1585
  8
0
 62
     0
 10
150.33215072155789
 20
52.77479300195651
 30
0.0
 11
149.9352757215579
 21
53.4622006662104
 31
0.0
  0
LINE
  5
1586
  8
0
 62
     0
 10
151.52277572155791
 20
50.71257000919482
 30
0.0
 11
151.12590072155791
 21
51.399977673448717
 31
0.0
  0
LINE
  5
1587
  8
0
 62
     0
 10
152.7134007215578
 20
48.65034701643313
 30
0.0
 11
152.31652572155781
 21
49.33775468068702
 31
0.0
  0
LINE
  5
1588
  8
0
 62
     0
 10
153.90402572155779
 20
46.58812402367144
 30
0.0
 11
153.50715072155779
 21
47.275531687925337
 31
0.0
  0
LINE
  5
1589
  8
0
 62
     0
 10
155.0946507215578
 20
44.52590103090975
 30
0.0
 11
154.6977757215578
 21
45.21330869516364
 31
0.0
  0
LINE
  5
158A
  8
0
 62
     0
 10
156.28527572155781
 20
42.463678038148061
 30
0.0
 11
155.88840072155779
 21
43.15108570240195
 31
0.0
  0
LINE
  5
158B
  8
0
 62
     0
 10
157.47590072155779
 20
40.401455045386371
 30
0.0
 11
157.0790257215578
 21
41.088862709640267
 31
0.0
  0
LINE
  5
158C
  8
0
 62
     0
 10
149.14152600605399
 20
52.087385501956518
 30
0.0
 11
148.91649411593991
 21
52.477152168957417
 31
0.0
  0
LINE
  5
158D
  8
0
 62
     0
 10
150.33215100605389
 20
50.025162509194828
 30
0.0
 11
149.93527600605401
 21
50.712570173448732
 31
0.0
  0
LINE
  5
158E
  8
0
 62
     0
 10
151.5227760060539
 20
47.962939516433131
 30
0.0
 11
151.12590100605391
 21
48.650347180687028
 31
0.0
  0
LINE
  5
158F
  8
0
 62
     0
 10
152.71340100605391
 20
45.900716523671448
 30
0.0
 11
152.31652600605389
 21
46.588124187925352
 31
0.0
  0
LINE
  5
1590
  8
0
 62
     0
 10
153.9040260060539
 20
43.838493530909751
 30
0.0
 11
153.5071510060539
 21
44.525901195163648
 31
0.0
  0
LINE
  5
1591
  8
0
 62
     0
 10
155.09465100605391
 20
41.776270538148069
 30
0.0
 11
154.69777600605391
 21
42.463678202401958
 31
0.0
  0
LINE
  5
1592
  8
0
 62
     0
 10
149.14152629054999
 20
49.337755009194808
 30
0.0
 11
148.80658284282379
 21
49.91789407831898
 31
0.0
  0
LINE
  5
1593
  8
0
 62
     0
 10
150.33215129055
 20
47.275532016433132
 30
0.0
 11
149.93527629055001
 21
47.962939680687022
 31
0.0
  0
LINE
  5
1594
  8
0
 62
     0
 10
151.52277629055001
 20
45.213309023671428
 30
0.0
 11
151.12590129054999
 21
45.900716687925332
 31
0.0
  0
LINE
  5
1595
  8
0
 62
     0
 10
152.71340129055
 20
43.151086030909738
 30
0.0
 11
152.31652629055
 21
43.838493695163642
 31
0.0
  0
LINE
  5
1596
  8
0
 62
     0
 10
153.55026424874819
 20
41.70159686833798
 30
0.0
 11
153.50715129055001
 21
41.776270702401952
 31
0.0
  0
LINE
  5
1597
  8
0
 62
     0
 10
161.0478090076011
 20
41.088868458526719
 30
0.0
 11
161.84155900760109
 21
41.088868458526719
 31
0.0
  0
LINE
  5
1598
  8
0
 62
     0
 10
158.66655900760111
 20
41.088868458526719
 30
0.0
 11
159.4603090076011
 21
41.088868458526719
 31
0.0
  0
LINE
  5
1599
  8
0
 62
     0
 10
156.2853090076012
 20
41.088868458526719
 30
0.0
 11
157.0790590076011
 21
41.088868458526719
 31
0.0
  0
LINE
  5
159A
  8
0
 62
     0
 10
163.4290590076011
 20
42.463683458526717
 30
0.0
 11
164.22280900760109
 21
42.463683458526717
 31
0.0
  0
LINE
  5
159B
  8
0
 62
     0
 10
161.0478090076011
 20
42.463683458526717
 30
0.0
 11
161.84155900760109
 21
42.463683458526717
 31
0.0
  0
LINE
  5
159C
  8
0
 62
     0
 10
158.66655900760111
 20
42.463683458526717
 30
0.0
 11
159.4603090076011
 21
42.463683458526717
 31
0.0
  0
LINE
  5
159D
  8
0
 62
     0
 10
156.2853090076012
 20
42.463683458526717
 30
0.0
 11
157.0790590076011
 21
42.463683458526717
 31
0.0
  0
LINE
  5
159E
  8
0
 62
     0
 10
153.90405900760121
 20
42.463683458526717
 30
0.0
 11
154.69780900760111
 21
42.463683458526717
 31
0.0
  0
LINE
  5
159F
  8
0
 62
     0
 10
165.81030900760109
 20
43.838498458526722
 30
0.0
 11
166.3154886887678
 21
43.838498458526722
 31
0.0
  0
LINE
  5
15A0
  8
0
 62
     0
 10
163.4290590076011
 20
43.838498458526722
 30
0.0
 11
164.22280900760109
 21
43.838498458526722
 31
0.0
  0
LINE
  5
15A1
  8
0
 62
     0
 10
161.0478090076011
 20
43.838498458526722
 30
0.0
 11
161.84155900760109
 21
43.838498458526722
 31
0.0
  0
LINE
  5
15A2
  8
0
 62
     0
 10
158.66655900760111
 20
43.838498458526722
 30
0.0
 11
159.4603090076011
 21
43.838498458526722
 31
0.0
  0
LINE
  5
15A3
  8
0
 62
     0
 10
156.28530900760109
 20
43.838498458526722
 30
0.0
 11
157.0790590076011
 21
43.838498458526722
 31
0.0
  0
LINE
  5
15A4
  8
0
 62
     0
 10
153.90405900760109
 20
43.838498458526722
 30
0.0
 11
154.69780900760111
 21
43.838498458526722
 31
0.0
  0
LINE
  5
15A5
  8
0
 62
     0
 10
151.5228090076011
 20
43.838498458526722
 30
0.0
 11
152.31655900760109
 21
43.838498458526722
 31
0.0
  0
LINE
  5
15A6
  8
0
 62
     0
 10
165.81030900760109
 20
45.213313458526713
 30
0.0
 11
166.60405900760111
 21
45.213313458526713
 31
0.0
  0
LINE
  5
15A7
  8
0
 62
     0
 10
163.4290590076011
 20
45.213313458526713
 30
0.0
 11
164.22280900760109
 21
45.213313458526713
 31
0.0
  0
LINE
  5
15A8
  8
0
 62
     0
 10
161.0478090076011
 20
45.213313458526713
 30
0.0
 11
161.84155900760109
 21
45.213313458526713
 31
0.0
  0
LINE
  5
15A9
  8
0
 62
     0
 10
158.66655900760111
 20
45.213313458526713
 30
0.0
 11
159.4603090076011
 21
45.213313458526713
 31
0.0
  0
LINE
  5
15AA
  8
0
 62
     0
 10
156.28530900760109
 20
45.213313458526713
 30
0.0
 11
157.0790590076011
 21
45.213313458526713
 31
0.0
  0
LINE
  5
15AB
  8
0
 62
     0
 10
153.90405900760109
 20
45.213313458526713
 30
0.0
 11
154.69780900760111
 21
45.213313458526713
 31
0.0
  0
LINE
  5
15AC
  8
0
 62
     0
 10
151.5228090076011
 20
45.213313458526713
 30
0.0
 11
152.31655900760109
 21
45.213313458526713
 31
0.0
  0
LINE
  5
15AD
  8
0
 62
     0
 10
165.81030900760109
 20
46.588128458526711
 30
0.0
 11
166.60405900760111
 21
46.588128458526711
 31
0.0
  0
LINE
  5
15AE
  8
0
 62
     0
 10
163.4290590076011
 20
46.588128458526711
 30
0.0
 11
164.22280900760109
 21
46.588128458526711
 31
0.0
  0
LINE
  5
15AF
  8
0
 62
     0
 10
161.0478090076011
 20
46.588128458526711
 30
0.0
 11
161.84155900760109
 21
46.588128458526711
 31
0.0
  0
LINE
  5
15B0
  8
0
 62
     0
 10
158.66655900760111
 20
46.588128458526711
 30
0.0
 11
159.4603090076011
 21
46.588128458526711
 31
0.0
  0
LINE
  5
15B1
  8
0
 62
     0
 10
156.28530900760109
 20
46.588128458526711
 30
0.0
 11
157.0790590076011
 21
46.588128458526711
 31
0.0
  0
LINE
  5
15B2
  8
0
 62
     0
 10
153.90405900760109
 20
46.588128458526711
 30
0.0
 11
154.69780900760111
 21
46.588128458526711
 31
0.0
  0
LINE
  5
15B3
  8
0
 62
     0
 10
151.5228090076011
 20
46.588128458526711
 30
0.0
 11
152.31655900760109
 21
46.588128458526711
 31
0.0
  0
LINE
  5
15B4
  8
0
 62
     0
 10
149.38425810580071
 20
46.588128458526711
 30
0.0
 11
149.93530900760109
 21
46.588128458526711
 31
0.0
  0
LINE
  5
15B5
  8
0
 62
     0
 10
168.19155900760109
 20
47.962943458526723
 30
0.0
 11
168.39986688947141
 21
47.962943458526723
 31
0.0
  0
LINE
  5
15B6
  8
0
 62
     0
 10
165.81030900760109
 20
47.962943458526723
 30
0.0
 11
166.60405900760111
 21
47.962943458526723
 31
0.0
  0
LINE
  5
15B7
  8
0
 62
     0
 10
163.4290590076011
 20
47.962943458526723
 30
0.0
 11
164.22280900760109
 21
47.962943458526723
 31
0.0
  0
LINE
  5
15B8
  8
0
 62
     0
 10
161.0478090076011
 20
47.962943458526723
 30
0.0
 11
161.84155900760109
 21
47.962943458526723
 31
0.0
  0
LINE
  5
15B9
  8
0
 62
     0
 10
158.66655900760111
 20
47.962943458526723
 30
0.0
 11
159.4603090076011
 21
47.962943458526723
 31
0.0
  0
LINE
  5
15BA
  8
0
 62
     0
 10
156.28530900760109
 20
47.962943458526723
 30
0.0
 11
157.0790590076011
 21
47.962943458526723
 31
0.0
  0
LINE
  5
15BB
  8
0
 62
     0
 10
153.90405900760109
 20
47.962943458526723
 30
0.0
 11
154.69780900760111
 21
47.962943458526723
 31
0.0
  0
LINE
  5
15BC
  8
0
 62
     0
 10
151.5228090076011
 20
47.962943458526723
 30
0.0
 11
152.31655900760109
 21
47.962943458526723
 31
0.0
  0
LINE
  5
15BD
  8
0
 62
     0
 10
149.1415590076011
 20
47.962943458526723
 30
0.0
 11
149.93530900760109
 21
47.962943458526723
 31
0.0
  0
LINE
  5
15BE
  8
0
 62
     0
 10
168.19155900760109
 20
49.337758458526721
 30
0.0
 11
168.62882614883421
 21
49.337758458526721
 31
0.0
  0
LINE
  5
15BF
  8
0
 62
     0
 10
165.81030900760109
 20
49.337758458526721
 30
0.0
 11
166.60405900760111
 21
49.337758458526721
 31
0.0
  0
LINE
  5
15C0
  8
0
 62
     0
 10
163.4290590076011
 20
49.337758458526721
 30
0.0
 11
164.22280900760109
 21
49.337758458526721
 31
0.0
  0
LINE
  5
15C1
  8
0
 62
     0
 10
161.0478090076011
 20
49.337758458526721
 30
0.0
 11
161.84155900760109
 21
49.337758458526721
 31
0.0
  0
LINE
  5
15C2
  8
0
 62
     0
 10
158.66655900760111
 20
49.337758458526721
 30
0.0
 11
159.4603090076011
 21
49.337758458526721
 31
0.0
  0
LINE
  5
15C3
  8
0
 62
     0
 10
156.28530900760109
 20
49.337758458526721
 30
0.0
 11
157.0790590076011
 21
49.337758458526721
 31
0.0
  0
LINE
  5
15C4
  8
0
 62
     0
 10
153.90405900760109
 20
49.337758458526721
 30
0.0
 11
154.69780900760111
 21
49.337758458526721
 31
0.0
  0
LINE
  5
15C5
  8
0
 62
     0
 10
151.5228090076011
 20
49.337758458526721
 30
0.0
 11
152.31655900760109
 21
49.337758458526721
 31
0.0
  0
LINE
  5
15C6
  8
0
 62
     0
 10
149.1415590076011
 20
49.337758458526721
 30
0.0
 11
149.93530900760109
 21
49.337758458526721
 31
0.0
  0
LINE
  5
15C7
  8
0
 62
     0
 10
168.19155900760109
 20
50.712573458526712
 30
0.0
 11
168.6652130162993
 21
50.712573458526712
 31
0.0
  0
LINE
  5
15C8
  8
0
 62
     0
 10
165.81030900760109
 20
50.712573458526712
 30
0.0
 11
166.60405900760111
 21
50.712573458526712
 31
0.0
  0
LINE
  5
15C9
  8
0
 62
     0
 10
163.4290590076011
 20
50.712573458526712
 30
0.0
 11
164.22280900760109
 21
50.712573458526712
 31
0.0
  0
LINE
  5
15CA
  8
0
 62
     0
 10
161.0478090076011
 20
50.712573458526712
 30
0.0
 11
161.84155900760109
 21
50.712573458526712
 31
0.0
  0
LINE
  5
15CB
  8
0
 62
     0
 10
158.66655900760111
 20
50.712573458526712
 30
0.0
 11
159.4603090076011
 21
50.712573458526712
 31
0.0
  0
LINE
  5
15CC
  8
0
 62
     0
 10
156.28530900760109
 20
50.712573458526712
 30
0.0
 11
157.0790590076011
 21
50.712573458526712
 31
0.0
  0
LINE
  5
15CD
  8
0
 62
     0
 10
153.90405900760109
 20
50.712573458526712
 30
0.0
 11
154.69780900760111
 21
50.712573458526712
 31
0.0
  0
LINE
  5
15CE
  8
0
 62
     0
 10
151.5228090076011
 20
50.712573458526712
 30
0.0
 11
152.31655900760109
 21
50.712573458526712
 31
0.0
  0
LINE
  5
15CF
  8
0
 62
     0
 10
149.1415590076011
 20
50.712573458526712
 30
0.0
 11
149.93530900760109
 21
50.712573458526712
 31
0.0
  0
LINE
  5
15D0
  8
0
 62
     0
 10
168.19155900760109
 20
52.087388458526711
 30
0.0
 11
168.5111646923414
 21
52.087388458526711
 31
0.0
  0
LINE
  5
15D1
  8
0
 62
     0
 10
165.81030900760109
 20
52.087388458526711
 30
0.0
 11
166.60405900760111
 21
52.087388458526711
 31
0.0
  0
LINE
  5
15D2
  8
0
 62
     0
 10
163.4290590076011
 20
52.087388458526711
 30
0.0
 11
164.22280900760109
 21
52.087388458526711
 31
0.0
  0
LINE
  5
15D3
  8
0
 62
     0
 10
161.0478090076011
 20
52.087388458526711
 30
0.0
 11
161.84155900760109
 21
52.087388458526711
 31
0.0
  0
LINE
  5
15D4
  8
0
 62
     0
 10
158.66655900760111
 20
52.087388458526711
 30
0.0
 11
159.4603090076011
 21
52.087388458526711
 31
0.0
  0
LINE
  5
15D5
  8
0
 62
     0
 10
156.28530900760109
 20
52.087388458526711
 30
0.0
 11
157.0790590076011
 21
52.087388458526711
 31
0.0
  0
LINE
  5
15D6
  8
0
 62
     0
 10
153.90405900760109
 20
52.087388458526711
 30
0.0
 11
154.69780900760111
 21
52.087388458526711
 31
0.0
  0
LINE
  5
15D7
  8
0
 62
     0
 10
151.5228090076011
 20
52.087388458526711
 30
0.0
 11
152.31655900760109
 21
52.087388458526711
 31
0.0
  0
LINE
  5
15D8
  8
0
 62
     0
 10
149.1415590076011
 20
52.087388458526711
 30
0.0
 11
149.93530900760109
 21
52.087388458526711
 31
0.0
  0
LINE
  5
15D9
  8
0
 62
     0
 10
165.81030900760109
 20
53.462203458526709
 30
0.0
 11
166.60405900760111
 21
53.462203458526709
 31
0.0
  0
LINE
  5
15DA
  8
0
 62
     0
 10
163.4290590076011
 20
53.462203458526709
 30
0.0
 11
164.22280900760109
 21
53.462203458526709
 31
0.0
  0
LINE
  5
15DB
  8
0
 62
     0
 10
161.0478090076011
 20
53.462203458526709
 30
0.0
 11
161.84155900760109
 21
53.462203458526709
 31
0.0
  0
LINE
  5
15DC
  8
0
 62
     0
 10
158.66655900760111
 20
53.462203458526709
 30
0.0
 11
159.4603090076011
 21
53.462203458526709
 31
0.0
  0
LINE
  5
15DD
  8
0
 62
     0
 10
156.28530900760109
 20
53.462203458526709
 30
0.0
 11
157.0790590076011
 21
53.462203458526709
 31
0.0
  0
LINE
  5
15DE
  8
0
 62
     0
 10
153.90405900760109
 20
53.462203458526709
 30
0.0
 11
154.69780900760111
 21
53.462203458526709
 31
0.0
  0
LINE
  5
15DF
  8
0
 62
     0
 10
151.5228090076011
 20
53.462203458526709
 30
0.0
 11
152.31655900760109
 21
53.462203458526709
 31
0.0
  0
LINE
  5
15E0
  8
0
 62
     0
 10
149.19096058188421
 20
53.462203458526709
 30
0.0
 11
149.93530900760109
 21
53.462203458526709
 31
0.0
  0
LINE
  5
15E1
  8
0
 62
     0
 10
165.81030900760109
 20
54.837018458526707
 30
0.0
 11
166.60405900760111
 21
54.837018458526707
 31
0.0
  0
LINE
  5
15E2
  8
0
 62
     0
 10
163.4290590076011
 20
54.837018458526707
 30
0.0
 11
164.22280900760109
 21
54.837018458526707
 31
0.0
  0
LINE
  5
15E3
  8
0
 62
     0
 10
161.0478090076011
 20
54.837018458526707
 30
0.0
 11
161.84155900760109
 21
54.837018458526707
 31
0.0
  0
LINE
  5
15E4
  8
0
 62
     0
 10
158.66655900760111
 20
54.837018458526707
 30
0.0
 11
159.4603090076011
 21
54.837018458526707
 31
0.0
  0
LINE
  5
15E5
  8
0
 62
     0
 10
156.28530900760109
 20
54.837018458526707
 30
0.0
 11
157.0790590076011
 21
54.837018458526707
 31
0.0
  0
LINE
  5
15E6
  8
0
 62
     0
 10
153.90405900760109
 20
54.837018458526707
 30
0.0
 11
154.69780900760111
 21
54.837018458526707
 31
0.0
  0
LINE
  5
15E7
  8
0
 62
     0
 10
151.5228090076011
 20
54.837018458526707
 30
0.0
 11
152.31655900760109
 21
54.837018458526707
 31
0.0
  0
LINE
  5
15E8
  8
0
 62
     0
 10
149.76819792236711
 20
54.837018458526707
 30
0.0
 11
149.93530900760109
 21
54.837018458526707
 31
0.0
  0
LINE
  5
15E9
  8
0
 62
     0
 10
165.81030900760109
 20
56.211833458526712
 30
0.0
 11
166.60405900760111
 21
56.211833458526712
 31
0.0
  0
LINE
  5
15EA
  8
0
 62
     0
 10
163.4290590076011
 20
56.211833458526712
 30
0.0
 11
164.22280900760109
 21
56.211833458526712
 31
0.0
  0
LINE
  5
15EB
  8
0
 62
     0
 10
161.0478090076011
 20
56.211833458526712
 30
0.0
 11
161.84155900760109
 21
56.211833458526712
 31
0.0
  0
LINE
  5
15EC
  8
0
 62
     0
 10
158.66655900760111
 20
56.211833458526712
 30
0.0
 11
159.4603090076011
 21
56.211833458526712
 31
0.0
  0
LINE
  5
15ED
  8
0
 62
     0
 10
156.28530900760109
 20
56.211833458526712
 30
0.0
 11
157.0790590076011
 21
56.211833458526712
 31
0.0
  0
LINE
  5
15EE
  8
0
 62
     0
 10
153.90405900760109
 20
56.211833458526712
 30
0.0
 11
154.69780900760111
 21
56.211833458526712
 31
0.0
  0
LINE
  5
15EF
  8
0
 62
     0
 10
151.5228090076011
 20
56.211833458526712
 30
0.0
 11
152.31655900760109
 21
56.211833458526712
 31
0.0
  0
LINE
  5
15F0
  8
0
 62
     0
 10
163.4290590076011
 20
57.586648458526717
 30
0.0
 11
164.22280900760109
 21
57.586648458526717
 31
0.0
  0
LINE
  5
15F1
  8
0
 62
     0
 10
161.0478090076011
 20
57.586648458526717
 30
0.0
 11
161.84155900760109
 21
57.586648458526717
 31
0.0
  0
LINE
  5
15F2
  8
0
 62
     0
 10
158.66655900760111
 20
57.586648458526717
 30
0.0
 11
159.4603090076011
 21
57.586648458526717
 31
0.0
  0
LINE
  5
15F3
  8
0
 62
     0
 10
156.2853090076012
 20
57.586648458526717
 30
0.0
 11
157.0790590076011
 21
57.586648458526717
 31
0.0
  0
LINE
  5
15F4
  8
0
 62
     0
 10
153.90405900760121
 20
57.586648458526717
 30
0.0
 11
154.69780900760111
 21
57.586648458526717
 31
0.0
  0
LINE
  5
15F5
  8
0
 62
     0
 10
151.83707850392511
 20
57.586648458526717
 30
0.0
 11
152.31655900760109
 21
57.586648458526717
 31
0.0
  0
LINE
  5
15F6
  8
0
 62
     0
 10
163.4290590076011
 20
58.961463458526723
 30
0.0
 11
163.65317497690259
 21
58.961463458526723
 31
0.0
  0
LINE
  5
15F7
  8
0
 62
     0
 10
161.0478090076011
 20
58.961463458526723
 30
0.0
 11
161.84155900760109
 21
58.961463458526723
 31
0.0
  0
LINE
  5
15F8
  8
0
 62
     0
 10
158.66655900760111
 20
58.961463458526723
 30
0.0
 11
159.4603090076011
 21
58.961463458526723
 31
0.0
  0
LINE
  5
15F9
  8
0
 62
     0
 10
156.2853090076012
 20
58.961463458526723
 30
0.0
 11
157.0790590076011
 21
58.961463458526723
 31
0.0
  0
LINE
  5
15FA
  8
0
 62
     0
 10
153.90405900760121
 20
58.961463458526723
 30
0.0
 11
154.69780900760111
 21
58.961463458526723
 31
0.0
  0
ENDBLK
  5
15FC
  8
0
  0
BLOCK
  8
0
  2
*X40
 70
     1
 10
0.0
 20
0.0
 30
0.0
  3
*X40
  1

  0
LINE
  5
166C
  8
0
 62
     0
 10
191.81209140030899
 20
3.2267128578567958
 30
0.0
 11
193.00736801079529
 21
4.4219894683430852
 31
0.0
  0
LINE
  5
166D
  8
0
 62
     0
 10
187.32196333977441
 20
3.2267128578568101
 30
0.0
 11
193.00736801079529
 21
8.9121175288776584
 31
0.0
  0
LINE
  5
166E
  8
0
 62
     0
 10
182.8318352792399
 20
3.2267128578567958
 30
0.0
 11
193.00736801079529
 21
13.40224558941223
 31
0.0
  0
LINE
  5
166F
  8
0
 62
     0
 10
178.3417072187053
 20
3.2267128578568238
 30
0.0
 11
193.00736801079529
 21
17.892373649946801
 31
0.0
  0
LINE
  5
1670
  8
0
 62
     0
 10
173.85157915817069
 20
3.2267128578568238
 30
0.0
 11
193.00736801079529
 21
22.382501710481382
 31
0.0
  0
LINE
  5
1671
  8
0
 62
     0
 10
169.36145109763621
 20
3.2267128578568238
 30
0.0
 11
193.00736801079529
 21
26.872629771015951
 31
0.0
  0
LINE
  5
1672
  8
0
 62
     0
 10
164.8713230371016
 20
3.226712857856838
 30
0.0
 11
193.00736801079529
 21
31.362757831550539
 31
0.0
  0
LINE
  5
1673
  8
0
 62
     0
 10
160.381194976567
 20
3.2267128578568531
 30
0.0
 11
193.00736801079529
 21
35.852885892085119
 31
0.0
  0
LINE
  5
1674
  8
0
 62
     0
 10
155.8910669160324
 20
3.226712857856838
 30
0.0
 11
192.9527434555354
 21
40.288389397359829
 31
0.0
  0
LINE
  5
1675
  8
0
 62
     0
 10
151.40093885549791
 20
3.226712857856838
 30
0.0
 11
188.4626153950008
 21
40.288389397359829
 31
0.0
  0
LINE
  5
1676
  8
0
 62
     0
 10
146.91081079496331
 20
3.2267128578568531
 30
0.0
 11
183.97248733446619
 21
40.288389397359822
 31
0.0
  0
LINE
  5
1677
  8
0
 62
     0
 10
142.42068273442871
 20
3.2267128578568531
 30
0.0
 11
179.48235927393171
 21
40.288389397359801
 31
0.0
  0
LINE
  5
1678
  8
0
 62
     0
 10
137.93055467389411
 20
3.2267128578568669
 30
0.0
 11
174.9922312133971
 21
40.288389397359822
 31
0.0
  0
LINE
  5
1679
  8
0
 62
     0
 10
133.44042661335959
 20
3.2267128578568669
 30
0.0
 11
170.5021031528625
 21
40.288389397359801
 31
0.0
  0
LINE
  5
167A
  8
0
 62
     0
 10
128.95029855282499
 20
3.226712857856874
 30
0.0
 11
166.01197509232799
 21
40.288389397359822
 31
0.0
  0
LINE
  5
167B
  8
0
 62
     0
 10
124.4601704922904
 20
3.226712857856874
 30
0.0
 11
161.52184703179341
 21
40.288389397359808
 31
0.0
  0
LINE
  5
167C
  8
0
 62
     0
 10
119.9700424317558
 20
3.2267128578568811
 30
0.0
 11
157.03171897125881
 21
40.288389397359829
 31
0.0
  0
LINE
  5
167D
  8
0
 62
     0
 10
115.4799143712213
 20
3.2267128578568949
 30
0.0
 11
152.54159091072421
 21
40.288389397359822
 31
0.0
  0
LINE
  5
167E
  8
0
 62
     0
 10
110.9897863106867
 20
3.2267128578568949
 30
0.0
 11
148.05146285018961
 21
40.288389397359822
 31
0.0
  0
LINE
  5
167F
  8
0
 62
     0
 10
106.49965825015209
 20
3.226712857856902
 30
0.0
 11
143.56133478965509
 21
40.288389397359822
 31
0.0
  0
LINE
  5
1680
  8
0
 62
     0
 10
102.00953018961761
 20
3.226712857856902
 30
0.0
 11
139.07120672912049
 21
40.288389397359822
 31
0.0
  0
LINE
  5
1681
  8
0
 62
     0
 10
97.519402129083005
 20
3.2267128578569091
 30
0.0
 11
134.54652774046059
 21
40.253838469234509
 31
0.0
  0
LINE
  5
1682
  8
0
 62
     0
 10
93.029274068548432
 20
3.226712857856902
 30
0.0
 11
130.0909506080514
 21
40.288389397359822
 31
0.0
  0
LINE
  5
1683
  8
0
 62
     0
 10
88.539146008013887
 20
3.2267128578569091
 30
0.0
 11
125.6008225475168
 21
40.288389397359822
 31
0.0
  0
LINE
  5
1684
  8
0
 62
     0
 10
84.049017947479285
 20
3.2267128578569171
 30
0.0
 11
121.1106944869822
 21
40.288389397359822
 31
0.0
  0
LINE
  5
1685
  8
0
 62
     0
 10
79.558889886944712
 20
3.226712857856902
 30
0.0
 11
116.6205664264476
 21
40.288389397359822
 31
0.0
  0
LINE
  5
1686
  8
0
 62
     0
 10
75.068761826410139
 20
3.2267128578569091
 30
0.0
 11
112.13043836591299
 21
40.288389397359822
 31
0.0
  0
LINE
  5
1687
  8
0
 62
     0
 10
70.578633765875566
 20
3.2267128578569091
 30
0.0
 11
107.64031030537851
 21
40.288389397359822
 31
0.0
  0
LINE
  5
1688
  8
0
 62
     0
 10
66.088505705340978
 20
3.2267128578569131
 30
0.0
 11
103.12400135310889
 21
40.262208505624898
 31
0.0
  0
LINE
  5
1689
  8
0
 62
     0
 10
61.598377644806412
 20
3.2267128578569091
 30
0.0
 11
98.660054184309331
 21
40.288389397359822
 31
0.0
  0
LINE
  5
168A
  8
0
 62
     0
 10
57.108249584271817
 20
3.226712857856906
 30
0.0
 11
94.169926123774744
 21
40.288389397359822
 31
0.0
  0
LINE
  5
168B
  8
0
 62
     0
 10
52.618121523737251
 20
3.226712857856906
 30
0.0
 11
89.67979806324017
 21
40.288389397359822
 31
0.0
  0
LINE
  5
168C
  8
0
 62
     0
 10
48.127993463202678
 20
3.2267128578569091
 30
0.0
 11
85.189670002705626
 21
40.288389397359822
 31
0.0
  0
LINE
  5
168D
  8
0
 62
     0
 10
43.637865402668098
 20
3.2267128578569091
 30
0.0
 11
80.699541942171024
 21
40.288389397359822
 31
0.0
  0
LINE
  5
168E
  8
0
 62
     0
 10
39.147737342133532
 20
3.2267128578569091
 30
0.0
 11
76.016561280877866
 21
40.095536796601237
 31
0.0
  0
LINE
  5
168F
  8
0
 62
     0
 10
34.657609281598951
 20
3.2267128578569082
 30
0.0
 11
70.483823938134364
 21
39.052927514392323
 31
0.0
  0
LINE
  5
1690
  8
0
 62
     0
 10
30.167481221064371
 20
3.2267128578569091
 30
0.0
 11
64.951086595390834
 21
38.01031823218338
 31
0.0
  0
LINE
  5
1691
  8
0
 62
     0
 10
25.677353160529801
 20
3.2267128578569109
 30
0.0
 11
59.418349252647339
 21
36.967708949974451
 31
0.0
  0
LINE
  5
1692
  8
0
 62
     0
 10
21.187225099995221
 20
3.2267128578569082
 30
0.0
 11
53.885611909903837
 21
35.925099667765529
 31
0.0
  0
LINE
  5
1693
  8
0
 62
     0
 10
16.69709703946064
 20
3.2267128578569091
 30
0.0
 11
48.352874567160342
 21
34.882490385556601
 31
0.0
  0
LINE
  5
1694
  8
0
 62
     0
 10
12.20696897892606
 20
3.2267128578569091
 30
0.0
 11
42.820137224416811
 21
33.839881103347672
 31
0.0
  0
LINE
  5
1695
  8
0
 62
     0
 10
7.7168409183914859
 20
3.2267128578569091
 30
0.0
 11
37.287399881673323
 21
32.797271821138743
 31
0.0
  0
LINE
  5
1696
  8
0
 62
     0
 10
3.22671285785691
 20
3.22671285785691
 30
0.0
 11
31.754662538929811
 21
31.754662538929811
 31
0.0
  0
LINE
  5
1697
  8
0
 62
     0
 10
1.426970951675232
 20
5.9170990122098077
 30
0.0
 11
26.221925196186309
 21
30.712053256720871
 31
0.0
  0
LINE
  5
1698
  8
0
 62
     0
 10
1.42697095167523
 20
10.40722707274438
 30
0.0
 11
20.689187853442789
 21
29.669443974511939
 31
0.0
  0
LINE
  5
1699
  8
0
 62
     0
 10
1.4269709516752309
 20
14.89735513327896
 30
0.0
 11
15.15645051069928
 21
28.62683469230301
 31
0.0
  0
LINE
  5
169A
  8
0
 62
     0
 10
1.4269709516752329
 20
19.38748319381353
 30
0.0
 11
9.6237131679557724
 21
27.584225410094081
 31
0.0
  0
LINE
  5
169B
  8
0
 62
     0
 10
1.42697095167523
 20
23.87761125434811
 30
0.0
 11
4.0909758252122659
 21
26.541616127885149
 31
0.0
  0
ENDBLK
  5
169D
  8
0
  0
BLOCK
  8
0
  2
*U41
 70
     1
 10
0.0
 20
0.0
 30
0.0
  3
*U41
  1

  0
TEXT
  5
17BB
  8
0
 62
     2
 10
519.44555345861374
 20
444.85263631951398
 30
0.0
 40
6.0
  1
100
 50
90.0
  7
BYGG-01482201$0$ISO
  0
ENDBLK
  5
17BD
  8
0
  0
BLOCK
  8
0
  2
*U42
 70
     1
 10
0.0
 20
0.0
 30
0.0
  3
*U42
  1

  0
TEXT
  5
17BF
  8
0
 62
     2
 10
551.65528576274187
 20
514.06440195840526
 30
0.0
 40
6.0
  1
50
  7
BYGG-01482201$0$ISO
  0
ENDBLK
  5
17C1
  8
0
  0
BLOCK
  8
0
  2
*U43
 70
     1
 10
0.0
 20
0.0
 30
0.0
  3
*U43
  1

  0
TEXT
  5
183A
  8
0
 10
641.15247639990275
 20
316.63306531357932
 30
0.0
 40
3.0
  1
47.6
  7
BYGG-014357$0$ISO
  0
ENDBLK
  5
183C
  8
0
  0
BLOCK
  8
0
  2
*U44
 70
     1
 10
0.0
 20
0.0
 30
0.0
  3
*U44
  1

  0
TEXT
  5
1894
  8
0
 62
     2
 10
1.8600612505260341
 20
15.36917458955009
 30
0.0
 40
3.0
  1
18,5
 50
90.0
  7
BYGG-014279$0$ISO
  0
ENDBLK
  5
1896
  8
0
  0
BLOCK
  8
0
  2
*U45
 70
     1
 10
0.0
 20
0.0
 30
0.0
  3
*U45
  1

  0
TEXT
  5
1898
  8
0
 62
     2
 10
34.830704100513778
 20
1.248809543065921
 30
0.0
 40
3.0
  1
50
  7
BYGG-014279$0$ISO
  0
ENDBLK
  5
189A
  8
0
  0
BLOCK
  8
0
  2
*X46
 70
     1
 10
0.0
 20
0.0
 30
0.0
  3
*X46
  1

  0
LINE
  5
1955
  8
0
 62
     0
 10
27.047475049077178
 20
2.7464027910031059
 30
0.0
 11
27.047475049077178
 21
2.7464027910031059
 31
0.0
  0
LINE
  5
1956
  8
0
 62
     0
 10
24.269350049077179
 20
2.7464027910031059
 30
0.0
 11
24.269350049077179
 21
2.7464027910031059
 31
0.0
  0
LINE
  5
1957
  8
0
 62
     0
 10
21.49122504907718
 20
2.7464027910031059
 30
0.0
 11
21.49122504907718
 21
2.7464027910031059
 31
0.0
  0
LINE
  5
1958
  8
0
 62
     0
 10
18.71310004907718
 20
2.7464027910031059
 30
0.0
 11
18.71310004907718
 21
2.7464027910031059
 31
0.0
  0
LINE
  5
1959
  8
0
 62
     0
 10
15.934975049077179
 20
2.7464027910031059
 30
0.0
 11
15.934975049077179
 21
2.7464027910031059
 31
0.0
  0
LINE
  5
195A
  8
0
 62
     0
 10
38.159975049077147
 20
2.7464027910031059
 30
0.0
 11
38.159975049077147
 21
2.7464027910031059
 31
0.0
  0
LINE
  5
195B
  8
0
 62
     0
 10
35.381850049077151
 20
2.7464027910031059
 30
0.0
 11
35.381850049077151
 21
2.7464027910031059
 31
0.0
  0
LINE
  5
195C
  8
0
 62
     0
 10
32.603725049077148
 20
2.7464027910031059
 30
0.0
 11
32.603725049077148
 21
2.7464027910031059
 31
0.0
  0
LINE
  5
195D
  8
0
 62
     0
 10
29.825600049077149
 20
2.7464027910031059
 30
0.0
 11
29.825600049077149
 21
2.7464027910031059
 31
0.0
  0
LINE
  5
195E
  8
0
 62
     0
 10
13.15685004907716
 20
2.7464027910031059
 30
0.0
 11
13.15685004907716
 21
2.7464027910031059
 31
0.0
  0
LINE
  5
195F
  8
0
 62
     0
 10
10.378725049077159
 20
2.7464027910031059
 30
0.0
 11
10.378725049077159
 21
2.7464027910031059
 31
0.0
  0
LINE
  5
1960
  8
0
 62
     0
 10
7.6006000490771646
 20
2.7464027910031059
 30
0.0
 11
7.6006000490771646
 21
2.7464027910031059
 31
0.0
  0
LINE
  5
1961
  8
0
 62
     0
 10
4.8224750490771662
 20
2.7464027910031059
 30
0.0
 11
4.8224750490771662
 21
2.7464027910031059
 31
0.0
  0
LINE
  5
1962
  8
0
 62
     0
 10
25.65841254907717
 20
5.5245277910030941
 30
0.0
 11
25.65841254907717
 21
5.5245277910030941
 31
0.0
  0
LINE
  5
1963
  8
0
 62
     0
 10
22.88028754907717
 20
5.5245277910030941
 30
0.0
 11
22.88028754907717
 21
5.5245277910030941
 31
0.0
  0
LINE
  5
1964
  8
0
 62
     0
 10
20.102162549077171
 20
5.5245277910030941
 30
0.0
 11
20.102162549077171
 21
5.5245277910030941
 31
0.0
  0
LINE
  5
1965
  8
0
 62
     0
 10
17.324037549077168
 20
5.5245277910030941
 30
0.0
 11
17.324037549077168
 21
5.5245277910030941
 31
0.0
  0
LINE
  5
1966
  8
0
 62
     0
 10
36.770912549077131
 20
5.5245277910030941
 30
0.0
 11
36.770912549077131
 21
5.5245277910030941
 31
0.0
  0
LINE
  5
1967
  8
0
 62
     0
 10
33.992787549077129
 20
5.5245277910030941
 30
0.0
 11
33.992787549077129
 21
5.5245277910030941
 31
0.0
  0
LINE
  5
1968
  8
0
 62
     0
 10
31.214662549077129
 20
5.5245277910030941
 30
0.0
 11
31.214662549077129
 21
5.5245277910030941
 31
0.0
  0
LINE
  5
1969
  8
0
 62
     0
 10
28.43653754907713
 20
5.5245277910030941
 30
0.0
 11
28.43653754907713
 21
5.5245277910030941
 31
0.0
  0
LINE
  5
196A
  8
0
 62
     0
 10
14.54591254907716
 20
5.5245277910030941
 30
0.0
 11
14.54591254907716
 21
5.5245277910030941
 31
0.0
  0
LINE
  5
196B
  8
0
 62
     0
 10
11.767787549077161
 20
5.5245277910030941
 30
0.0
 11
11.767787549077161
 21
5.5245277910030941
 31
0.0
  0
LINE
  5
196C
  8
0
 62
     0
 10
8.9896625490771598
 20
5.5245277910030941
 30
0.0
 11
8.9896625490771598
 21
5.5245277910030941
 31
0.0
  0
LINE
  5
196D
  8
0
 62
     0
 10
6.2115375490771596
 20
5.5245277910030941
 30
0.0
 11
6.2115375490771596
 21
5.5245277910030941
 31
0.0
  0
LINE
  5
196E
  8
0
 62
     0
 10
27.04747504907715
 20
8.3026527910030836
 30
0.0
 11
27.04747504907715
 21
8.3026527910030836
 31
0.0
  0
LINE
  5
196F
  8
0
 62
     0
 10
24.269350049077151
 20
8.3026527910030836
 30
0.0
 11
24.269350049077151
 21
8.3026527910030836
 31
0.0
  0
LINE
  5
1970
  8
0
 62
     0
 10
21.491225049077151
 20
8.3026527910030836
 30
0.0
 11
21.491225049077151
 21
8.3026527910030836
 31
0.0
  0
LINE
  5
1971
  8
0
 62
     0
 10
18.713100049077148
 20
8.3026527910030836
 30
0.0
 11
18.713100049077148
 21
8.3026527910030836
 31
0.0
  0
LINE
  5
1972
  8
0
 62
     0
 10
15.934975049077149
 20
8.3026527910030836
 30
0.0
 11
15.934975049077149
 21
8.3026527910030836
 31
0.0
  0
LINE
  5
1973
  8
0
 62
     0
 10
38.159975049077147
 20
8.3026527910030836
 30
0.0
 11
38.159975049077147
 21
8.3026527910030836
 31
0.0
  0
LINE
  5
1974
  8
0
 62
     0
 10
35.381850049077151
 20
8.3026527910030836
 30
0.0
 11
35.381850049077151
 21
8.3026527910030836
 31
0.0
  0
LINE
  5
1975
  8
0
 62
     0
 10
32.603725049077148
 20
8.3026527910030836
 30
0.0
 11
32.603725049077148
 21
8.3026527910030836
 31
0.0
  0
LINE
  5
1976
  8
0
 62
     0
 10
29.825600049077149
 20
8.3026527910030836
 30
0.0
 11
29.825600049077149
 21
8.3026527910030836
 31
0.0
  0
LINE
  5
1977
  8
0
 62
     0
 10
13.15685004907716
 20
8.3026527910030836
 30
0.0
 11
13.15685004907716
 21
8.3026527910030836
 31
0.0
  0
LINE
  5
1978
  8
0
 62
     0
 10
10.378725049077159
 20
8.3026527910030836
 30
0.0
 11
10.378725049077159
 21
8.3026527910030836
 31
0.0
  0
LINE
  5
1979
  8
0
 62
     0
 10
7.6006000490771646
 20
8.3026527910030836
 30
0.0
 11
7.6006000490771646
 21
8.3026527910030836
 31
0.0
  0
LINE
  5
197A
  8
0
 62
     0
 10
4.8224750490771662
 20
8.3026527910030836
 30
0.0
 11
4.8224750490771662
 21
8.3026527910030836
 31
0.0
  0
LINE
  5
197B
  8
0
 62
     0
 10
25.658412549077141
 20
11.08077779100307
 30
0.0
 11
25.658412549077141
 21
11.08077779100307
 31
0.0
  0
LINE
  5
197C
  8
0
 62
     0
 10
22.880287549077138
 20
11.08077779100307
 30
0.0
 11
22.880287549077138
 21
11.08077779100307
 31
0.0
  0
LINE
  5
197D
  8
0
 62
     0
 10
20.102162549077139
 20
11.08077779100307
 30
0.0
 11
20.102162549077139
 21
11.08077779100307
 31
0.0
  0
LINE
  5
197E
  8
0
 62
     0
 10
17.32403754907714
 20
11.08077779100307
 30
0.0
 11
17.32403754907714
 21
11.08077779100307
 31
0.0
  0
LINE
  5
197F
  8
0
 62
     0
 10
36.770912549077188
 20
11.08077779100307
 30
0.0
 11
36.770912549077188
 21
11.08077779100307
 31
0.0
  0
LINE
  5
1980
  8
0
 62
     0
 10
33.992787549077192
 20
11.08077779100307
 30
0.0
 11
33.992787549077192
 21
11.08077779100307
 31
0.0
  0
LINE
  5
1981
  8
0
 62
     0
 10
31.214662549077179
 20
11.08077779100307
 30
0.0
 11
31.214662549077179
 21
11.08077779100307
 31
0.0
  0
LINE
  5
1982
  8
0
 62
     0
 10
28.43653754907718
 20
11.08077779100307
 30
0.0
 11
28.43653754907718
 21
11.08077779100307
 31
0.0
  0
LINE
  5
1983
  8
0
 62
     0
 10
14.54591254907716
 20
11.08077779100307
 30
0.0
 11
14.54591254907716
 21
11.08077779100307
 31
0.0
  0
LINE
  5
1984
  8
0
 62
     0
 10
11.767787549077161
 20
11.08077779100307
 30
0.0
 11
11.767787549077161
 21
11.08077779100307
 31
0.0
  0
LINE
  5
1985
  8
0
 62
     0
 10
8.9896625490771598
 20
11.08077779100307
 30
0.0
 11
8.9896625490771598
 21
11.08077779100307
 31
0.0
  0
LINE
  5
1986
  8
0
 62
     0
 10
6.2115375490771596
 20
11.08077779100307
 30
0.0
 11
6.2115375490771596
 21
11.08077779100307
 31
0.0
  0
LINE
  5
1987
  8
0
 62
     0
 10
27.04747504907715
 20
13.858902791003061
 30
0.0
 11
27.04747504907715
 21
13.858902791003061
 31
0.0
  0
LINE
  5
1988
  8
0
 62
     0
 10
24.269350049077151
 20
13.858902791003061
 30
0.0
 11
24.269350049077151
 21
13.858902791003061
 31
0.0
  0
LINE
  5
1989
  8
0
 62
     0
 10
21.491225049077151
 20
13.858902791003061
 30
0.0
 11
21.491225049077151
 21
13.858902791003061
 31
0.0
  0
LINE
  5
198A
  8
0
 62
     0
 10
18.713100049077148
 20
13.858902791003061
 30
0.0
 11
18.713100049077148
 21
13.858902791003061
 31
0.0
  0
LINE
  5
198B
  8
0
 62
     0
 10
15.934975049077149
 20
13.858902791003061
 30
0.0
 11
15.934975049077149
 21
13.858902791003061
 31
0.0
  0
LINE
  5
198C
  8
0
 62
     0
 10
40.93810004907715
 20
13.858902791003061
 30
0.0
 11
40.93810004907715
 21
13.858902791003061
 31
0.0
  0
LINE
  5
198D
  8
0
 62
     0
 10
38.159975049077147
 20
13.858902791003061
 30
0.0
 11
38.159975049077147
 21
13.858902791003061
 31
0.0
  0
LINE
  5
198E
  8
0
 62
     0
 10
35.381850049077151
 20
13.858902791003061
 30
0.0
 11
35.381850049077151
 21
13.858902791003061
 31
0.0
  0
LINE
  5
198F
  8
0
 62
     0
 10
32.603725049077148
 20
13.858902791003061
 30
0.0
 11
32.603725049077148
 21
13.858902791003061
 31
0.0
  0
LINE
  5
1990
  8
0
 62
     0
 10
29.825600049077149
 20
13.858902791003061
 30
0.0
 11
29.825600049077149
 21
13.858902791003061
 31
0.0
  0
LINE
  5
1991
  8
0
 62
     0
 10
13.15685004907715
 20
13.858902791003061
 30
0.0
 11
13.15685004907715
 21
13.858902791003061
 31
0.0
  0
LINE
  5
1992
  8
0
 62
     0
 10
10.378725049077151
 20
13.858902791003061
 30
0.0
 11
10.378725049077151
 21
13.858902791003061
 31
0.0
  0
LINE
  5
1993
  8
0
 62
     0
 10
7.6006000490771486
 20
13.858902791003061
 30
0.0
 11
7.6006000490771486
 21
13.858902791003061
 31
0.0
  0
LINE
  5
1994
  8
0
 62
     0
 10
4.8224750490771493
 20
13.858902791003061
 30
0.0
 11
4.8224750490771493
 21
13.858902791003061
 31
0.0
  0
LINE
  5
1995
  8
0
 62
     0
 10
2.0443500490771491
 20
13.858902791003061
 30
0.0
 11
2.0443500490771491
 21
13.858902791003061
 31
0.0
  0
LINE
  5
1996
  8
0
 62
     0
 10
25.65841254907717
 20
16.637027791003099
 30
0.0
 11
25.65841254907717
 21
16.637027791003099
 31
0.0
  0
LINE
  5
1997
  8
0
 62
     0
 10
22.88028754907717
 20
16.637027791003099
 30
0.0
 11
22.88028754907717
 21
16.637027791003099
 31
0.0
  0
LINE
  5
1998
  8
0
 62
     0
 10
20.102162549077171
 20
16.637027791003099
 30
0.0
 11
20.102162549077171
 21
16.637027791003099
 31
0.0
  0
LINE
  5
1999
  8
0
 62
     0
 10
17.324037549077168
 20
16.637027791003099
 30
0.0
 11
17.324037549077168
 21
16.637027791003099
 31
0.0
  0
LINE
  5
199A
  8
0
 62
     0
 10
42.327162549077187
 20
16.637027791003099
 30
0.0
 11
42.327162549077187
 21
16.637027791003099
 31
0.0
  0
LINE
  5
199B
  8
0
 62
     0
 10
39.549037549077191
 20
16.637027791003099
 30
0.0
 11
39.549037549077191
 21
16.637027791003099
 31
0.0
  0
LINE
  5
199C
  8
0
 62
     0
 10
36.770912549077188
 20
16.637027791003099
 30
0.0
 11
36.770912549077188
 21
16.637027791003099
 31
0.0
  0
LINE
  5
199D
  8
0
 62
     0
 10
33.992787549077192
 20
16.637027791003099
 30
0.0
 11
33.992787549077192
 21
16.637027791003099
 31
0.0
  0
LINE
  5
199E
  8
0
 62
     0
 10
31.214662549077179
 20
16.637027791003099
 30
0.0
 11
31.214662549077179
 21
16.637027791003099
 31
0.0
  0
LINE
  5
199F
  8
0
 62
     0
 10
28.43653754907718
 20
16.637027791003099
 30
0.0
 11
28.43653754907718
 21
16.637027791003099
 31
0.0
  0
LINE
  5
19A0
  8
0
 62
     0
 10
14.54591254907718
 20
16.637027791003099
 30
0.0
 11
14.54591254907718
 21
16.637027791003099
 31
0.0
  0
LINE
  5
19A1
  8
0
 62
     0
 10
11.76778754907718
 20
16.637027791003099
 30
0.0
 11
11.76778754907718
 21
16.637027791003099
 31
0.0
  0
LINE
  5
19A2
  8
0
 62
     0
 10
8.9896625490771829
 20
16.637027791003099
 30
0.0
 11
8.9896625490771829
 21
16.637027791003099
 31
0.0
  0
LINE
  5
19A3
  8
0
 62
     0
 10
6.2115375490771827
 20
16.637027791003099
 30
0.0
 11
6.2115375490771827
 21
16.637027791003099
 31
0.0
  0
LINE
  5
19A4
  8
0
 62
     0
 10
3.433412549077183
 20
16.637027791003099
 30
0.0
 11
3.433412549077183
 21
16.637027791003099
 31
0.0
  0
LINE
  5
19A5
  8
0
 62
     0
 10
0.6552875490771837
 20
16.637027791003099
 30
0.0
 11
0.6552875490771837
 21
16.637027791003099
 31
0.0
  0
LINE
  5
19A6
  8
0
 62
     0
 10
27.047475049077178
 20
19.415152791003091
 30
0.0
 11
27.047475049077178
 21
19.415152791003091
 31
0.0
  0
LINE
  5
19A7
  8
0
 62
     0
 10
24.269350049077179
 20
19.415152791003091
 30
0.0
 11
24.269350049077179
 21
19.415152791003091
 31
0.0
  0
LINE
  5
19A8
  8
0
 62
     0
 10
21.49122504907718
 20
19.415152791003091
 30
0.0
 11
21.49122504907718
 21
19.415152791003091
 31
0.0
  0
LINE
  5
19A9
  8
0
 62
     0
 10
18.71310004907718
 20
19.415152791003091
 30
0.0
 11
18.71310004907718
 21
19.415152791003091
 31
0.0
  0
LINE
  5
19AA
  8
0
 62
     0
 10
15.934975049077179
 20
19.415152791003091
 30
0.0
 11
15.934975049077179
 21
19.415152791003091
 31
0.0
  0
LINE
  5
19AB
  8
0
 62
     0
 10
40.938100049077192
 20
19.415152791003091
 30
0.0
 11
40.938100049077192
 21
19.415152791003091
 31
0.0
  0
LINE
  5
19AC
  8
0
 62
     0
 10
38.159975049077183
 20
19.415152791003091
 30
0.0
 11
38.159975049077183
 21
19.415152791003091
 31
0.0
  0
LINE
  5
19AD
  8
0
 62
     0
 10
35.38185004907718
 20
19.415152791003091
 30
0.0
 11
35.38185004907718
 21
19.415152791003091
 31
0.0
  0
LINE
  5
19AE
  8
0
 62
     0
 10
32.603725049077177
 20
19.415152791003091
 30
0.0
 11
32.603725049077177
 21
19.415152791003091
 31
0.0
  0
LINE
  5
19AF
  8
0
 62
     0
 10
29.825600049077181
 20
19.415152791003091
 30
0.0
 11
29.825600049077181
 21
19.415152791003091
 31
0.0
  0
LINE
  5
19B0
  8
0
 62
     0
 10
13.15685004907718
 20
19.415152791003091
 30
0.0
 11
13.15685004907718
 21
19.415152791003091
 31
0.0
  0
LINE
  5
19B1
  8
0
 62
     0
 10
10.37872504907717
 20
19.415152791003091
 30
0.0
 11
10.37872504907717
 21
19.415152791003091
 31
0.0
  0
LINE
  5
19B2
  8
0
 62
     0
 10
7.600600049077177
 20
19.415152791003091
 30
0.0
 11
7.600600049077177
 21
19.415152791003091
 31
0.0
  0
LINE
  5
19B3
  8
0
 62
     0
 10
4.8224750490771768
 20
19.415152791003091
 30
0.0
 11
4.8224750490771768
 21
19.415152791003091
 31
0.0
  0
LINE
  5
19B4
  8
0
 62
     0
 10
2.0443500490771771
 20
19.415152791003091
 30
0.0
 11
2.0443500490771771
 21
19.415152791003091
 31
0.0
  0
LINE
  5
19B5
  8
0
 62
     0
 10
25.65841254907717
 20
22.19327779100308
 30
0.0
 11
25.65841254907717
 21
22.19327779100308
 31
0.0
  0
LINE
  5
19B6
  8
0
 62
     0
 10
22.88028754907717
 20
22.19327779100308
 30
0.0
 11
22.88028754907717
 21
22.19327779100308
 31
0.0
  0
LINE
  5
19B7
  8
0
 62
     0
 10
20.102162549077171
 20
22.19327779100308
 30
0.0
 11
20.102162549077171
 21
22.19327779100308
 31
0.0
  0
LINE
  5
19B8
  8
0
 62
     0
 10
17.324037549077168
 20
22.19327779100308
 30
0.0
 11
17.324037549077168
 21
22.19327779100308
 31
0.0
  0
LINE
  5
19B9
  8
0
 62
     0
 10
42.327162549077173
 20
22.19327779100308
 30
0.0
 11
42.327162549077173
 21
22.19327779100308
 31
0.0
  0
LINE
  5
19BA
  8
0
 62
     0
 10
39.549037549077163
 20
22.19327779100308
 30
0.0
 11
39.549037549077163
 21
22.19327779100308
 31
0.0
  0
LINE
  5
19BB
  8
0
 62
     0
 10
36.77091254907716
 20
22.19327779100308
 30
0.0
 11
36.77091254907716
 21
22.19327779100308
 31
0.0
  0
LINE
  5
19BC
  8
0
 62
     0
 10
33.992787549077157
 20
22.19327779100308
 30
0.0
 11
33.992787549077157
 21
22.19327779100308
 31
0.0
  0
LINE
  5
19BD
  8
0
 62
     0
 10
31.214662549077161
 20
22.19327779100308
 30
0.0
 11
31.214662549077161
 21
22.19327779100308
 31
0.0
  0
LINE
  5
19BE
  8
0
 62
     0
 10
28.436537549077158
 20
22.19327779100308
 30
0.0
 11
28.436537549077158
 21
22.19327779100308
 31
0.0
  0
LINE
  5
19BF
  8
0
 62
     0
 10
14.545912549077149
 20
22.19327779100308
 30
0.0
 11
14.545912549077149
 21
22.19327779100308
 31
0.0
  0
LINE
  5
19C0
  8
0
 62
     0
 10
11.76778754907715
 20
22.19327779100308
 30
0.0
 11
11.76778754907715
 21
22.19327779100308
 31
0.0
  0
LINE
  5
19C1
  8
0
 62
     0
 10
8.9896625490771545
 20
22.19327779100308
 30
0.0
 11
8.9896625490771545
 21
22.19327779100308
 31
0.0
  0
LINE
  5
19C2
  8
0
 62
     0
 10
6.2115375490771552
 20
22.19327779100308
 30
0.0
 11
6.2115375490771552
 21
22.19327779100308
 31
0.0
  0
LINE
  5
19C3
  8
0
 62
     0
 10
3.4334125490771541
 20
22.19327779100308
 30
0.0
 11
3.4334125490771541
 21
22.19327779100308
 31
0.0
  0
LINE
  5
19C4
  8
0
 62
     0
 10
0.6552875490771553
 20
22.19327779100308
 30
0.0
 11
0.6552875490771553
 21
22.19327779100308
 31
0.0
  0
LINE
  5
19C5
  8
0
 62
     0
 10
27.04747504907715
 20
24.971402791003069
 30
0.0
 11
27.04747504907715
 21
24.971402791003069
 31
0.0
  0
LINE
  5
19C6
  8
0
 62
     0
 10
24.269350049077151
 20
24.971402791003069
 30
0.0
 11
24.269350049077151
 21
24.971402791003069
 31
0.0
  0
LINE
  5
19C7
  8
0
 62
     0
 10
21.491225049077151
 20
24.971402791003069
 30
0.0
 11
21.491225049077151
 21
24.971402791003069
 31
0.0
  0
LINE
  5
19C8
  8
0
 62
     0
 10
18.713100049077148
 20
24.971402791003069
 30
0.0
 11
18.713100049077148
 21
24.971402791003069
 31
0.0
  0
LINE
  5
19C9
  8
0
 62
     0
 10
15.934975049077149
 20
24.971402791003069
 30
0.0
 11
15.934975049077149
 21
24.971402791003069
 31
0.0
  0
LINE
  5
19CA
  8
0
 62
     0
 10
40.93810004907715
 20
24.971402791003069
 30
0.0
 11
40.93810004907715
 21
24.971402791003069
 31
0.0
  0
LINE
  5
19CB
  8
0
 62
     0
 10
38.159975049077147
 20
24.971402791003069
 30
0.0
 11
38.159975049077147
 21
24.971402791003069
 31
0.0
  0
LINE
  5
19CC
  8
0
 62
     0
 10
35.381850049077151
 20
24.971402791003069
 30
0.0
 11
35.381850049077151
 21
24.971402791003069
 31
0.0
  0
LINE
  5
19CD
  8
0
 62
     0
 10
32.603725049077148
 20
24.971402791003069
 30
0.0
 11
32.603725049077148
 21
24.971402791003069
 31
0.0
  0
LINE
  5
19CE
  8
0
 62
     0
 10
29.825600049077149
 20
24.971402791003069
 30
0.0
 11
29.825600049077149
 21
24.971402791003069
 31
0.0
  0
LINE
  5
19CF
  8
0
 62
     0
 10
13.15685004907715
 20
24.971402791003069
 30
0.0
 11
13.15685004907715
 21
24.971402791003069
 31
0.0
  0
LINE
  5
19D0
  8
0
 62
     0
 10
10.378725049077151
 20
24.971402791003069
 30
0.0
 11
10.378725049077151
 21
24.971402791003069
 31
0.0
  0
LINE
  5
19D1
  8
0
 62
     0
 10
7.6006000490771486
 20
24.971402791003069
 30
0.0
 11
7.6006000490771486
 21
24.971402791003069
 31
0.0
  0
LINE
  5
19D2
  8
0
 62
     0
 10
4.8224750490771493
 20
24.971402791003069
 30
0.0
 11
4.8224750490771493
 21
24.971402791003069
 31
0.0
  0
LINE
  5
19D3
  8
0
 62
     0
 10
2.0443500490771491
 20
24.971402791003069
 30
0.0
 11
2.0443500490771491
 21
24.971402791003069
 31
0.0
  0
LINE
  5
19D4
  8
0
 62
     0
 10
25.658412549077141
 20
27.749527791003061
 30
0.0
 11
25.658412549077141
 21
27.749527791003061
 31
0.0
  0
LINE
  5
19D5
  8
0
 62
     0
 10
22.880287549077138
 20
27.749527791003061
 30
0.0
 11
22.880287549077138
 21
27.749527791003061
 31
0.0
  0
LINE
  5
19D6
  8
0
 62
     0
 10
20.102162549077139
 20
27.749527791003061
 30
0.0
 11
20.102162549077139
 21
27.749527791003061
 31
0.0
  0
LINE
  5
19D7
  8
0
 62
     0
 10
17.32403754907714
 20
27.749527791003061
 30
0.0
 11
17.32403754907714
 21
27.749527791003061
 31
0.0
  0
LINE
  5
19D8
  8
0
 62
     0
 10
42.327162549077173
 20
27.749527791003061
 30
0.0
 11
42.327162549077173
 21
27.749527791003061
 31
0.0
  0
LINE
  5
19D9
  8
0
 62
     0
 10
39.549037549077163
 20
27.749527791003061
 30
0.0
 11
39.549037549077163
 21
27.749527791003061
 31
0.0
  0
LINE
  5
19DA
  8
0
 62
     0
 10
36.77091254907716
 20
27.749527791003061
 30
0.0
 11
36.77091254907716
 21
27.749527791003061
 31
0.0
  0
LINE
  5
19DB
  8
0
 62
     0
 10
33.992787549077157
 20
27.749527791003061
 30
0.0
 11
33.992787549077157
 21
27.749527791003061
 31
0.0
  0
LINE
  5
19DC
  8
0
 62
     0
 10
31.214662549077161
 20
27.749527791003061
 30
0.0
 11
31.214662549077161
 21
27.749527791003061
 31
0.0
  0
LINE
  5
19DD
  8
0
 62
     0
 10
28.436537549077158
 20
27.749527791003061
 30
0.0
 11
28.436537549077158
 21
27.749527791003061
 31
0.0
  0
LINE
  5
19DE
  8
0
 62
     0
 10
14.545912549077149
 20
27.749527791003061
 30
0.0
 11
14.545912549077149
 21
27.749527791003061
 31
0.0
  0
LINE
  5
19DF
  8
0
 62
     0
 10
11.76778754907715
 20
27.749527791003061
 30
0.0
 11
11.76778754907715
 21
27.749527791003061
 31
0.0
  0
LINE
  5
19E0
  8
0
 62
     0
 10
8.9896625490771545
 20
27.749527791003061
 30
0.0
 11
8.9896625490771545
 21
27.749527791003061
 31
0.0
  0
LINE
  5
19E1
  8
0
 62
     0
 10
6.2115375490771552
 20
27.749527791003061
 30
0.0
 11
6.2115375490771552
 21
27.749527791003061
 31
0.0
  0
LINE
  5
19E2
  8
0
 62
     0
 10
3.4334125490771541
 20
27.749527791003061
 30
0.0
 11
3.4334125490771541
 21
27.749527791003061
 31
0.0
  0
LINE
  5
19E3
  8
0
 62
     0
 10
0.6552875490771553
 20
27.749527791003061
 30
0.0
 11
0.6552875490771553
 21
27.749527791003061
 31
0.0
  0
LINE
  5
19E4
  8
0
 62
     0
 10
27.047475049077178
 20
30.52765279100311
 30
0.0
 11
27.047475049077178
 21
30.52765279100311
 31
0.0
  0
LINE
  5
19E5
  8
0
 62
     0
 10
24.269350049077179
 20
30.52765279100311
 30
0.0
 11
24.269350049077179
 21
30.52765279100311
 31
0.0
  0
LINE
  5
19E6
  8
0
 62
     0
 10
21.49122504907718
 20
30.52765279100311
 30
0.0
 11
21.49122504907718
 21
30.52765279100311
 31
0.0
  0
LINE
  5
19E7
  8
0
 62
     0
 10
18.71310004907718
 20
30.52765279100311
 30
0.0
 11
18.71310004907718
 21
30.52765279100311
 31
0.0
  0
LINE
  5
19E8
  8
0
 62
     0
 10
15.934975049077179
 20
30.52765279100311
 30
0.0
 11
15.934975049077179
 21
30.52765279100311
 31
0.0
  0
LINE
  5
19E9
  8
0
 62
     0
 10
40.938100049077192
 20
30.52765279100311
 30
0.0
 11
40.938100049077192
 21
30.52765279100311
 31
0.0
  0
LINE
  5
19EA
  8
0
 62
     0
 10
38.159975049077183
 20
30.52765279100311
 30
0.0
 11
38.159975049077183
 21
30.52765279100311
 31
0.0
  0
LINE
  5
19EB
  8
0
 62
     0
 10
35.38185004907718
 20
30.52765279100311
 30
0.0
 11
35.38185004907718
 21
30.52765279100311
 31
0.0
  0
LINE
  5
19EC
  8
0
 62
     0
 10
32.603725049077177
 20
30.52765279100311
 30
0.0
 11
32.603725049077177
 21
30.52765279100311
 31
0.0
  0
LINE
  5
19ED
  8
0
 62
     0
 10
29.825600049077181
 20
30.52765279100311
 30
0.0
 11
29.825600049077181
 21
30.52765279100311
 31
0.0
  0
LINE
  5
19EE
  8
0
 62
     0
 10
13.15685004907718
 20
30.52765279100311
 30
0.0
 11
13.15685004907718
 21
30.52765279100311
 31
0.0
  0
LINE
  5
19EF
  8
0
 62
     0
 10
10.37872504907717
 20
30.52765279100311
 30
0.0
 11
10.37872504907717
 21
30.52765279100311
 31
0.0
  0
LINE
  5
19F0
  8
0
 62
     0
 10
7.600600049077177
 20
30.52765279100311
 30
0.0
 11
7.600600049077177
 21
30.52765279100311
 31
0.0
  0
LINE
  5
19F1
  8
0
 62
     0
 10
4.8224750490771768
 20
30.52765279100311
 30
0.0
 11
4.8224750490771768
 21
30.52765279100311
 31
0.0
  0
LINE
  5
19F2
  8
0
 62
     0
 10
2.0443500490771771
 20
30.52765279100311
 30
0.0
 11
2.0443500490771771
 21
30.52765279100311
 31
0.0
  0
LINE
  5
19F3
  8
0
 62
     0
 10
25.65841254907717
 20
33.305777791003088
 30
0.0
 11
25.65841254907717
 21
33.305777791003088
 31
0.0
  0
LINE
  5
19F4
  8
0
 62
     0
 10
22.88028754907717
 20
33.305777791003088
 30
0.0
 11
22.88028754907717
 21
33.305777791003088
 31
0.0
  0
LINE
  5
19F5
  8
0
 62
     0
 10
20.102162549077171
 20
33.305777791003088
 30
0.0
 11
20.102162549077171
 21
33.305777791003088
 31
0.0
  0
LINE
  5
19F6
  8
0
 62
     0
 10
17.324037549077168
 20
33.305777791003088
 30
0.0
 11
17.324037549077168
 21
33.305777791003088
 31
0.0
  0
LINE
  5
19F7
  8
0
 62
     0
 10
42.327162549077173
 20
33.305777791003088
 30
0.0
 11
42.327162549077173
 21
33.305777791003088
 31
0.0
  0
LINE
  5
19F8
  8
0
 62
     0
 10
39.549037549077163
 20
33.305777791003088
 30
0.0
 11
39.549037549077163
 21
33.305777791003088
 31
0.0
  0
LINE
  5
19F9
  8
0
 62
     0
 10
36.77091254907716
 20
33.305777791003088
 30
0.0
 11
36.77091254907716
 21
33.305777791003088
 31
0.0
  0
LINE
  5
19FA
  8
0
 62
     0
 10
33.992787549077157
 20
33.305777791003088
 30
0.0
 11
33.992787549077157
 21
33.305777791003088
 31
0.0
  0
LINE
  5
19FB
  8
0
 62
     0
 10
31.214662549077161
 20
33.305777791003088
 30
0.0
 11
31.214662549077161
 21
33.305777791003088
 31
0.0
  0
LINE
  5
19FC
  8
0
 62
     0
 10
28.436537549077158
 20
33.305777791003088
 30
0.0
 11
28.436537549077158
 21
33.305777791003088
 31
0.0
  0
LINE
  5
19FD
  8
0
 62
     0
 10
14.545912549077149
 20
33.305777791003088
 30
0.0
 11
14.545912549077149
 21
33.305777791003088
 31
0.0
  0
LINE
  5
19FE
  8
0
 62
     0
 10
11.76778754907715
 20
33.305777791003088
 30
0.0
 11
11.76778754907715
 21
33.305777791003088
 31
0.0
  0
LINE
  5
19FF
  8
0
 62
     0
 10
8.9896625490771545
 20
33.305777791003088
 30
0.0
 11
8.9896625490771545
 21
33.305777791003088
 31
0.0
  0
LINE
  5
1A00
  8
0
 62
     0
 10
6.2115375490771552
 20
33.305777791003088
 30
0.0
 11
6.2115375490771552
 21
33.305777791003088
 31
0.0
  0
LINE
  5
1A01
  8
0
 62
     0
 10
3.4334125490771541
 20
33.305777791003088
 30
0.0
 11
3.4334125490771541
 21
33.305777791003088
 31
0.0
  0
LINE
  5
1A02
  8
0
 62
     0
 10
0.6552875490771553
 20
33.305777791003088
 30
0.0
 11
0.6552875490771553
 21
33.305777791003088
 31
0.0
  0
LINE
  5
1A03
  8
0
 62
     0
 10
27.04747504907715
 20
36.083902791003091
 30
0.0
 11
27.04747504907715
 21
36.083902791003091
 31
0.0
  0
LINE
  5
1A04
  8
0
 62
     0
 10
24.269350049077151
 20
36.083902791003091
 30
0.0
 11
24.269350049077151
 21
36.083902791003091
 31
0.0
  0
LINE
  5
1A05
  8
0
 62
     0
 10
21.491225049077151
 20
36.083902791003091
 30
0.0
 11
21.491225049077151
 21
36.083902791003091
 31
0.0
  0
LINE
  5
1A06
  8
0
 62
     0
 10
18.713100049077148
 20
36.083902791003091
 30
0.0
 11
18.713100049077148
 21
36.083902791003091
 31
0.0
  0
LINE
  5
1A07
  8
0
 62
     0
 10
15.934975049077149
 20
36.083902791003091
 30
0.0
 11
15.934975049077149
 21
36.083902791003091
 31
0.0
  0
LINE
  5
1A08
  8
0
 62
     0
 10
40.93810004907715
 20
36.083902791003091
 30
0.0
 11
40.93810004907715
 21
36.083902791003091
 31
0.0
  0
LINE
  5
1A09
  8
0
 62
     0
 10
38.159975049077147
 20
36.083902791003091
 30
0.0
 11
38.159975049077147
 21
36.083902791003091
 31
0.0
  0
LINE
  5
1A0A
  8
0
 62
     0
 10
35.381850049077151
 20
36.083902791003091
 30
0.0
 11
35.381850049077151
 21
36.083902791003091
 31
0.0
  0
LINE
  5
1A0B
  8
0
 62
     0
 10
32.603725049077148
 20
36.083902791003091
 30
0.0
 11
32.603725049077148
 21
36.083902791003091
 31
0.0
  0
LINE
  5
1A0C
  8
0
 62
     0
 10
29.825600049077149
 20
36.083902791003091
 30
0.0
 11
29.825600049077149
 21
36.083902791003091
 31
0.0
  0
LINE
  5
1A0D
  8
0
 62
     0
 10
13.15685004907715
 20
36.083902791003091
 30
0.0
 11
13.15685004907715
 21
36.083902791003091
 31
0.0
  0
LINE
  5
1A0E
  8
0
 62
     0
 10
10.378725049077151
 20
36.083902791003091
 30
0.0
 11
10.378725049077151
 21
36.083902791003091
 31
0.0
  0
LINE
  5
1A0F
  8
0
 62
     0
 10
7.6006000490771486
 20
36.083902791003091
 30
0.0
 11
7.6006000490771486
 21
36.083902791003091
 31
0.0
  0
LINE
  5
1A10
  8
0
 62
     0
 10
4.8224750490771493
 20
36.083902791003091
 30
0.0
 11
4.8224750490771493
 21
36.083902791003091
 31
0.0
  0
LINE
  5
1A11
  8
0
 62
     0
 10
2.0443500490771491
 20
36.083902791003091
 30
0.0
 11
2.0443500490771491
 21
36.083902791003091
 31
0.0
  0
LINE
  5
1A12
  8
0
 62
     0
 10
25.658412549077141
 20
38.862027791003072
 30
0.0
 11
25.658412549077141
 21
38.862027791003072
 31
0.0
  0
LINE
  5
1A13
  8
0
 62
     0
 10
22.880287549077138
 20
38.862027791003072
 30
0.0
 11
22.880287549077138
 21
38.862027791003072
 31
0.0
  0
LINE
  5
1A14
  8
0
 62
     0
 10
20.102162549077139
 20
38.862027791003072
 30
0.0
 11
20.102162549077139
 21
38.862027791003072
 31
0.0
  0
LINE
  5
1A15
  8
0
 62
     0
 10
17.32403754907714
 20
38.862027791003072
 30
0.0
 11
17.32403754907714
 21
38.862027791003072
 31
0.0
  0
LINE
  5
1A16
  8
0
 62
     0
 10
42.327162549077173
 20
38.862027791003072
 30
0.0
 11
42.327162549077173
 21
38.862027791003072
 31
0.0
  0
LINE
  5
1A17
  8
0
 62
     0
 10
39.549037549077163
 20
38.862027791003072
 30
0.0
 11
39.549037549077163
 21
38.862027791003072
 31
0.0
  0
LINE
  5
1A18
  8
0
 62
     0
 10
36.77091254907716
 20
38.862027791003072
 30
0.0
 11
36.77091254907716
 21
38.862027791003072
 31
0.0
  0
LINE
  5
1A19
  8
0
 62
     0
 10
33.992787549077157
 20
38.862027791003072
 30
0.0
 11
33.992787549077157
 21
38.862027791003072
 31
0.0
  0
LINE
  5
1A1A
  8
0
 62
     0
 10
31.214662549077161
 20
38.862027791003072
 30
0.0
 11
31.214662549077161
 21
38.862027791003072
 31
0.0
  0
LINE
  5
1A1B
  8
0
 62
     0
 10
28.436537549077158
 20
38.862027791003072
 30
0.0
 11
28.436537549077158
 21
38.862027791003072
 31
0.0
  0
LINE
  5
1A1C
  8
0
 62
     0
 10
14.545912549077149
 20
38.862027791003072
 30
0.0
 11
14.545912549077149
 21
38.862027791003072
 31
0.0
  0
LINE
  5
1A1D
  8
0
 62
     0
 10
11.76778754907715
 20
38.862027791003072
 30
0.0
 11
11.76778754907715
 21
38.862027791003072
 31
0.0
  0
LINE
  5
1A1E
  8
0
 62
     0
 10
8.9896625490771545
 20
38.862027791003072
 30
0.0
 11
8.9896625490771545
 21
38.862027791003072
 31
0.0
  0
LINE
  5
1A1F
  8
0
 62
     0
 10
6.2115375490771552
 20
38.862027791003072
 30
0.0
 11
6.2115375490771552
 21
38.862027791003072
 31
0.0
  0
LINE
  5
1A20
  8
0
 62
     0
 10
3.4334125490771541
 20
38.862027791003072
 30
0.0
 11
3.4334125490771541
 21
38.862027791003072
 31
0.0
  0
LINE
  5
1A21
  8
0
 62
     0
 10
0.6552875490771553
 20
38.862027791003072
 30
0.0
 11
0.6552875490771553
 21
38.862027791003072
 31
0.0
  0
LINE
  5
1A22
  8
0
 62
     0
 10
27.04747504907715
 20
41.640152791003061
 30
0.0
 11
27.04747504907715
 21
41.640152791003061
 31
0.0
  0
LINE
  5
1A23
  8
0
 62
     0
 10
24.269350049077151
 20
41.640152791003061
 30
0.0
 11
24.269350049077151
 21
41.640152791003061
 31
0.0
  0
LINE
  5
1A24
  8
0
 62
     0
 10
21.491225049077151
 20
41.640152791003061
 30
0.0
 11
21.491225049077151
 21
41.640152791003061
 31
0.0
  0
LINE
  5
1A25
  8
0
 62
     0
 10
18.713100049077148
 20
41.640152791003061
 30
0.0
 11
18.713100049077148
 21
41.640152791003061
 31
0.0
  0
LINE
  5
1A26
  8
0
 62
     0
 10
15.934975049077149
 20
41.640152791003061
 30
0.0
 11
15.934975049077149
 21
41.640152791003061
 31
0.0
  0
LINE
  5
1A27
  8
0
 62
     0
 10
40.93810004907715
 20
41.640152791003061
 30
0.0
 11
40.93810004907715
 21
41.640152791003061
 31
0.0
  0
LINE
  5
1A28
  8
0
 62
     0
 10
38.159975049077147
 20
41.640152791003061
 30
0.0
 11
38.159975049077147
 21
41.640152791003061
 31
0.0
  0
LINE
  5
1A29
  8
0
 62
     0
 10
35.381850049077151
 20
41.640152791003061
 30
0.0
 11
35.381850049077151
 21
41.640152791003061
 31
0.0
  0
LINE
  5
1A2A
  8
0
 62
     0
 10
32.603725049077148
 20
41.640152791003061
 30
0.0
 11
32.603725049077148
 21
41.640152791003061
 31
0.0
  0
LINE
  5
1A2B
  8
0
 62
     0
 10
29.825600049077149
 20
41.640152791003061
 30
0.0
 11
29.825600049077149
 21
41.640152791003061
 31
0.0
  0
LINE
  5
1A2C
  8
0
 62
     0
 10
13.15685004907715
 20
41.640152791003061
 30
0.0
 11
13.15685004907715
 21
41.640152791003061
 31
0.0
  0
LINE
  5
1A2D
  8
0
 62
     0
 10
10.378725049077151
 20
41.640152791003061
 30
0.0
 11
10.378725049077151
 21
41.640152791003061
 31
0.0
  0
LINE
  5
1A2E
  8
0
 62
     0
 10
7.6006000490771486
 20
41.640152791003061
 30
0.0
 11
7.6006000490771486
 21
41.640152791003061
 31
0.0
  0
LINE
  5
1A2F
  8
0
 62
     0
 10
4.8224750490771493
 20
41.640152791003061
 30
0.0
 11
4.8224750490771493
 21
41.640152791003061
 31
0.0
  0
LINE
  5
1A30
  8
0
 62
     0
 10
2.0443500490771491
 20
41.640152791003061
 30
0.0
 11
2.0443500490771491
 21
41.640152791003061
 31
0.0
  0
LINE
  5
1A31
  8
0
 62
     0
 10
25.65841254907717
 20
44.418277791003099
 30
0.0
 11
25.65841254907717
 21
44.418277791003099
 31
0.0
  0
LINE
  5
1A32
  8
0
 62
     0
 10
22.88028754907717
 20
44.418277791003099
 30
0.0
 11
22.88028754907717
 21
44.418277791003099
 31
0.0
  0
LINE
  5
1A33
  8
0
 62
     0
 10
20.102162549077171
 20
44.418277791003099
 30
0.0
 11
20.102162549077171
 21
44.418277791003099
 31
0.0
  0
LINE
  5
1A34
  8
0
 62
     0
 10
17.324037549077168
 20
44.418277791003099
 30
0.0
 11
17.324037549077168
 21
44.418277791003099
 31
0.0
  0
LINE
  5
1A35
  8
0
 62
     0
 10
42.327162549077187
 20
44.418277791003099
 30
0.0
 11
42.327162549077187
 21
44.418277791003099
 31
0.0
  0
LINE
  5
1A36
  8
0
 62
     0
 10
39.549037549077191
 20
44.418277791003099
 30
0.0
 11
39.549037549077191
 21
44.418277791003099
 31
0.0
  0
LINE
  5
1A37
  8
0
 62
     0
 10
36.770912549077188
 20
44.418277791003099
 30
0.0
 11
36.770912549077188
 21
44.418277791003099
 31
0.0
  0
LINE
  5
1A38
  8
0
 62
     0
 10
33.992787549077192
 20
44.418277791003099
 30
0.0
 11
33.992787549077192
 21
44.418277791003099
 31
0.0
  0
LINE
  5
1A39
  8
0
 62
     0
 10
31.214662549077179
 20
44.418277791003099
 30
0.0
 11
31.214662549077179
 21
44.418277791003099
 31
0.0
  0
LINE
  5
1A3A
  8
0
 62
     0
 10
28.43653754907718
 20
44.418277791003099
 30
0.0
 11
28.43653754907718
 21
44.418277791003099
 31
0.0
  0
LINE
  5
1A3B
  8
0
 62
     0
 10
14.54591254907718
 20
44.418277791003099
 30
0.0
 11
14.54591254907718
 21
44.418277791003099
 31
0.0
  0
LINE
  5
1A3C
  8
0
 62
     0
 10
11.76778754907718
 20
44.418277791003099
 30
0.0
 11
11.76778754907718
 21
44.418277791003099
 31
0.0
  0
LINE
  5
1A3D
  8
0
 62
     0
 10
8.9896625490771829
 20
44.418277791003099
 30
0.0
 11
8.9896625490771829
 21
44.418277791003099
 31
0.0
  0
LINE
  5
1A3E
  8
0
 62
     0
 10
6.2115375490771827
 20
44.418277791003099
 30
0.0
 11
6.2115375490771827
 21
44.418277791003099
 31
0.0
  0
LINE
  5
1A3F
  8
0
 62
     0
 10
3.433412549077183
 20
44.418277791003099
 30
0.0
 11
3.433412549077183
 21
44.418277791003099
 31
0.0
  0
LINE
  5
1A40
  8
0
 62
     0
 10
0.6552875490771837
 20
44.418277791003099
 30
0.0
 11
0.6552875490771837
 21
44.418277791003099
 31
0.0
  0
LINE
  5
1A41
  8
0
 62
     0
 10
27.047475049077178
 20
47.196402791003102
 30
0.0
 11
27.047475049077178
 21
47.196402791003102
 31
0.0
  0
LINE
  5
1A42
  8
0
 62
     0
 10
24.269350049077179
 20
47.196402791003102
 30
0.0
 11
24.269350049077179
 21
47.196402791003102
 31
0.0
  0
LINE
  5
1A43
  8
0
 62
     0
 10
21.49122504907718
 20
47.196402791003102
 30
0.0
 11
21.49122504907718
 21
47.196402791003102
 31
0.0
  0
LINE
  5
1A44
  8
0
 62
     0
 10
18.71310004907718
 20
47.196402791003102
 30
0.0
 11
18.71310004907718
 21
47.196402791003102
 31
0.0
  0
LINE
  5
1A45
  8
0
 62
     0
 10
15.934975049077179
 20
47.196402791003102
 30
0.0
 11
15.934975049077179
 21
47.196402791003102
 31
0.0
  0
LINE
  5
1A46
  8
0
 62
     0
 10
38.159975049077183
 20
47.196402791003102
 30
0.0
 11
38.159975049077183
 21
47.196402791003102
 31
0.0
  0
LINE
  5
1A47
  8
0
 62
     0
 10
35.38185004907718
 20
47.196402791003102
 30
0.0
 11
35.38185004907718
 21
47.196402791003102
 31
0.0
  0
LINE
  5
1A48
  8
0
 62
     0
 10
32.603725049077177
 20
47.196402791003102
 30
0.0
 11
32.603725049077177
 21
47.196402791003102
 31
0.0
  0
LINE
  5
1A49
  8
0
 62
     0
 10
29.825600049077181
 20
47.196402791003102
 30
0.0
 11
29.825600049077181
 21
47.196402791003102
 31
0.0
  0
LINE
  5
1A4A
  8
0
 62
     0
 10
13.15685004907716
 20
47.196402791003102
 30
0.0
 11
13.15685004907716
 21
47.196402791003102
 31
0.0
  0
LINE
  5
1A4B
  8
0
 62
     0
 10
10.378725049077159
 20
47.196402791003102
 30
0.0
 11
10.378725049077159
 21
47.196402791003102
 31
0.0
  0
LINE
  5
1A4C
  8
0
 62
     0
 10
7.6006000490771646
 20
47.196402791003102
 30
0.0
 11
7.6006000490771646
 21
47.196402791003102
 31
0.0
  0
LINE
  5
1A4D
  8
0
 62
     0
 10
4.8224750490771662
 20
47.196402791003102
 30
0.0
 11
4.8224750490771662
 21
47.196402791003102
 31
0.0
  0
LINE
  5
1A4E
  8
0
 62
     0
 10
25.65841254907717
 20
49.974527791003077
 30
0.0
 11
25.65841254907717
 21
49.974527791003077
 31
0.0
  0
LINE
  5
1A4F
  8
0
 62
     0
 10
22.88028754907717
 20
49.974527791003077
 30
0.0
 11
22.88028754907717
 21
49.974527791003077
 31
0.0
  0
LINE
  5
1A50
  8
0
 62
     0
 10
20.102162549077171
 20
49.974527791003077
 30
0.0
 11
20.102162549077171
 21
49.974527791003077
 31
0.0
  0
LINE
  5
1A51
  8
0
 62
     0
 10
17.324037549077168
 20
49.974527791003077
 30
0.0
 11
17.324037549077168
 21
49.974527791003077
 31
0.0
  0
LINE
  5
1A52
  8
0
 62
     0
 10
36.77091254907716
 20
49.974527791003077
 30
0.0
 11
36.77091254907716
 21
49.974527791003077
 31
0.0
  0
LINE
  5
1A53
  8
0
 62
     0
 10
33.992787549077157
 20
49.974527791003077
 30
0.0
 11
33.992787549077157
 21
49.974527791003077
 31
0.0
  0
LINE
  5
1A54
  8
0
 62
     0
 10
31.214662549077161
 20
49.974527791003077
 30
0.0
 11
31.214662549077161
 21
49.974527791003077
 31
0.0
  0
LINE
  5
1A55
  8
0
 62
     0
 10
28.436537549077158
 20
49.974527791003077
 30
0.0
 11
28.436537549077158
 21
49.974527791003077
 31
0.0
  0
LINE
  5
1A56
  8
0
 62
     0
 10
14.54591254907716
 20
49.974527791003077
 30
0.0
 11
14.54591254907716
 21
49.974527791003077
 31
0.0
  0
LINE
  5
1A57
  8
0
 62
     0
 10
11.767787549077161
 20
49.974527791003077
 30
0.0
 11
11.767787549077161
 21
49.974527791003077
 31
0.0
  0
LINE
  5
1A58
  8
0
 62
     0
 10
8.9896625490771598
 20
49.974527791003077
 30
0.0
 11
8.9896625490771598
 21
49.974527791003077
 31
0.0
  0
LINE
  5
1A59
  8
0
 62
     0
 10
6.2115375490771596
 20
49.974527791003077
 30
0.0
 11
6.2115375490771596
 21
49.974527791003077
 31
0.0
  0
LINE
  5
1A5A
  8
0
 62
     0
 10
27.04747504907715
 20
52.752652791003072
 30
0.0
 11
27.04747504907715
 21
52.752652791003072
 31
0.0
  0
LINE
  5
1A5B
  8
0
 62
     0
 10
24.269350049077151
 20
52.752652791003072
 30
0.0
 11
24.269350049077151
 21
52.752652791003072
 31
0.0
  0
LINE
  5
1A5C
  8
0
 62
     0
 10
21.491225049077151
 20
52.752652791003072
 30
0.0
 11
21.491225049077151
 21
52.752652791003072
 31
0.0
  0
LINE
  5
1A5D
  8
0
 62
     0
 10
18.713100049077148
 20
52.752652791003072
 30
0.0
 11
18.713100049077148
 21
52.752652791003072
 31
0.0
  0
LINE
  5
1A5E
  8
0
 62
     0
 10
15.934975049077149
 20
52.752652791003072
 30
0.0
 11
15.934975049077149
 21
52.752652791003072
 31
0.0
  0
LINE
  5
1A5F
  8
0
 62
     0
 10
38.159975049077147
 20
52.752652791003072
 30
0.0
 11
38.159975049077147
 21
52.752652791003072
 31
0.0
  0
LINE
  5
1A60
  8
0
 62
     0
 10
35.381850049077151
 20
52.752652791003072
 30
0.0
 11
35.381850049077151
 21
52.752652791003072
 31
0.0
  0
LINE
  5
1A61
  8
0
 62
     0
 10
32.603725049077148
 20
52.752652791003072
 30
0.0
 11
32.603725049077148
 21
52.752652791003072
 31
0.0
  0
LINE
  5
1A62
  8
0
 62
     0
 10
29.825600049077149
 20
52.752652791003072
 30
0.0
 11
29.825600049077149
 21
52.752652791003072
 31
0.0
  0
LINE
  5
1A63
  8
0
 62
     0
 10
13.15685004907716
 20
52.752652791003072
 30
0.0
 11
13.15685004907716
 21
52.752652791003072
 31
0.0
  0
LINE
  5
1A64
  8
0
 62
     0
 10
10.378725049077159
 20
52.752652791003072
 30
0.0
 11
10.378725049077159
 21
52.752652791003072
 31
0.0
  0
LINE
  5
1A65
  8
0
 62
     0
 10
7.6006000490771646
 20
52.752652791003072
 30
0.0
 11
7.6006000490771646
 21
52.752652791003072
 31
0.0
  0
LINE
  5
1A66
  8
0
 62
     0
 10
4.8224750490771662
 20
52.752652791003072
 30
0.0
 11
4.8224750490771662
 21
52.752652791003072
 31
0.0
  0
LINE
  5
1A67
  8
0
 62
     0
 10
25.658412549077141
 20
55.530777791003061
 30
0.0
 11
25.658412549077141
 21
55.530777791003061
 31
0.0
  0
LINE
  5
1A68
  8
0
 62
     0
 10
22.880287549077138
 20
55.530777791003061
 30
0.0
 11
22.880287549077138
 21
55.530777791003061
 31
0.0
  0
LINE
  5
1A69
  8
0
 62
     0
 10
20.102162549077139
 20
55.530777791003061
 30
0.0
 11
20.102162549077139
 21
55.530777791003061
 31
0.0
  0
LINE
  5
1A6A
  8
0
 62
     0
 10
17.32403754907714
 20
55.530777791003061
 30
0.0
 11
17.32403754907714
 21
55.530777791003061
 31
0.0
  0
LINE
  5
1A6B
  8
0
 62
     0
 10
36.77091254907716
 20
55.530777791003061
 30
0.0
 11
36.77091254907716
 21
55.530777791003061
 31
0.0
  0
LINE
  5
1A6C
  8
0
 62
     0
 10
33.992787549077157
 20
55.530777791003061
 30
0.0
 11
33.992787549077157
 21
55.530777791003061
 31
0.0
  0
LINE
  5
1A6D
  8
0
 62
     0
 10
31.214662549077161
 20
55.530777791003061
 30
0.0
 11
31.214662549077161
 21
55.530777791003061
 31
0.0
  0
LINE
  5
1A6E
  8
0
 62
     0
 10
28.436537549077158
 20
55.530777791003061
 30
0.0
 11
28.436537549077158
 21
55.530777791003061
 31
0.0
  0
LINE
  5
1A6F
  8
0
 62
     0
 10
14.54591254907716
 20
55.530777791003061
 30
0.0
 11
14.54591254907716
 21
55.530777791003061
 31
0.0
  0
LINE
  5
1A70
  8
0
 62
     0
 10
11.767787549077161
 20
55.530777791003061
 30
0.0
 11
11.767787549077161
 21
55.530777791003061
 31
0.0
  0
LINE
  5
1A71
  8
0
 62
     0
 10
8.9896625490771598
 20
55.530777791003061
 30
0.0
 11
8.9896625490771598
 21
55.530777791003061
 31
0.0
  0
LINE
  5
1A72
  8
0
 62
     0
 10
6.2115375490771596
 20
55.530777791003061
 30
0.0
 11
6.2115375490771596
 21
55.530777791003061
 31
0.0
  0
LINE
  5
1A73
  8
0
 62
     0
 10
27.047475049077178
 20
58.308902791003099
 30
0.0
 11
27.047475049077178
 21
58.308902791003099
 31
0.0
  0
LINE
  5
1A74
  8
0
 62
     0
 10
24.269350049077179
 20
58.308902791003099
 30
0.0
 11
24.269350049077179
 21
58.308902791003099
 31
0.0
  0
LINE
  5
1A75
  8
0
 62
     0
 10
21.49122504907718
 20
58.308902791003099
 30
0.0
 11
21.49122504907718
 21
58.308902791003099
 31
0.0
  0
LINE
  5
1A76
  8
0
 62
     0
 10
18.71310004907718
 20
58.308902791003099
 30
0.0
 11
18.71310004907718
 21
58.308902791003099
 31
0.0
  0
LINE
  5
1A77
  8
0
 62
     0
 10
15.934975049077179
 20
58.308902791003099
 30
0.0
 11
15.934975049077179
 21
58.308902791003099
 31
0.0
  0
LINE
  5
1A78
  8
0
 62
     0
 10
38.159975049077183
 20
58.308902791003099
 30
0.0
 11
38.159975049077183
 21
58.308902791003099
 31
0.0
  0
LINE
  5
1A79
  8
0
 62
     0
 10
35.38185004907718
 20
58.308902791003099
 30
0.0
 11
35.38185004907718
 21
58.308902791003099
 31
0.0
  0
LINE
  5
1A7A
  8
0
 62
     0
 10
32.603725049077177
 20
58.308902791003099
 30
0.0
 11
32.603725049077177
 21
58.308902791003099
 31
0.0
  0
LINE
  5
1A7B
  8
0
 62
     0
 10
29.825600049077181
 20
58.308902791003099
 30
0.0
 11
29.825600049077181
 21
58.308902791003099
 31
0.0
  0
LINE
  5
1A7C
  8
0
 62
     0
 10
13.15685004907716
 20
58.308902791003099
 30
0.0
 11
13.15685004907716
 21
58.308902791003099
 31
0.0
  0
LINE
  5
1A7D
  8
0
 62
     0
 10
10.378725049077159
 20
58.308902791003099
 30
0.0
 11
10.378725049077159
 21
58.308902791003099
 31
0.0
  0
LINE
  5
1A7E
  8
0
 62
     0
 10
7.6006000490771646
 20
58.308902791003099
 30
0.0
 11
7.6006000490771646
 21
58.308902791003099
 31
0.0
  0
LINE
  5
1A7F
  8
0
 62
     0
 10
4.8224750490771662
 20
58.308902791003099
 30
0.0
 11
4.8224750490771662
 21
58.308902791003099
 31
0.0
  0
LINE
  5
1A80
  8
0
 62
     0
 10
25.65841254907717
 20
61.087027791003088
 30
0.0
 11
25.65841254907717
 21
61.087027791003088
 31
0.0
  0
LINE
  5
1A81
  8
0
 62
     0
 10
22.88028754907717
 20
61.087027791003088
 30
0.0
 11
22.88028754907717
 21
61.087027791003088
 31
0.0
  0
LINE
  5
1A82
  8
0
 62
     0
 10
20.102162549077171
 20
61.087027791003088
 30
0.0
 11
20.102162549077171
 21
61.087027791003088
 31
0.0
  0
LINE
  5
1A83
  8
0
 62
     0
 10
17.324037549077168
 20
61.087027791003088
 30
0.0
 11
17.324037549077168
 21
61.087027791003088
 31
0.0
  0
LINE
  5
1A84
  8
0
 62
     0
 10
36.77091254907716
 20
61.087027791003088
 30
0.0
 11
36.77091254907716
 21
61.087027791003088
 31
0.0
  0
LINE
  5
1A85
  8
0
 62
     0
 10
33.992787549077157
 20
61.087027791003088
 30
0.0
 11
33.992787549077157
 21
61.087027791003088
 31
0.0
  0
LINE
  5
1A86
  8
0
 62
     0
 10
31.214662549077161
 20
61.087027791003088
 30
0.0
 11
31.214662549077161
 21
61.087027791003088
 31
0.0
  0
LINE
  5
1A87
  8
0
 62
     0
 10
28.436537549077158
 20
61.087027791003088
 30
0.0
 11
28.436537549077158
 21
61.087027791003088
 31
0.0
  0
LINE
  5
1A88
  8
0
 62
     0
 10
14.54591254907716
 20
61.087027791003088
 30
0.0
 11
14.54591254907716
 21
61.087027791003088
 31
0.0
  0
LINE
  5
1A89
  8
0
 62
     0
 10
11.767787549077161
 20
61.087027791003088
 30
0.0
 11
11.767787549077161
 21
61.087027791003088
 31
0.0
  0
LINE
  5
1A8A
  8
0
 62
     0
 10
8.9896625490771598
 20
61.087027791003088
 30
0.0
 11
8.9896625490771598
 21
61.087027791003088
 31
0.0
  0
LINE
  5
1A8B
  8
0
 62
     0
 10
6.2115375490771596
 20
61.087027791003088
 30
0.0
 11
6.2115375490771596
 21
61.087027791003088
 31
0.0
  0
LINE
  5
1A8C
  8
0
 62
     0
 10
27.04747504907715
 20
63.865152791003077
 30
0.0
 11
27.04747504907715
 21
63.865152791003077
 31
0.0
  0
LINE
  5
1A8D
  8
0
 62
     0
 10
24.269350049077151
 20
63.865152791003077
 30
0.0
 11
24.269350049077151
 21
63.865152791003077
 31
0.0
  0
LINE
  5
1A8E
  8
0
 62
     0
 10
21.491225049077151
 20
63.865152791003077
 30
0.0
 11
21.491225049077151
 21
63.865152791003077
 31
0.0
  0
LINE
  5
1A8F
  8
0
 62
     0
 10
18.713100049077148
 20
63.865152791003077
 30
0.0
 11
18.713100049077148
 21
63.865152791003077
 31
0.0
  0
LINE
  5
1A90
  8
0
 62
     0
 10
15.934975049077149
 20
63.865152791003077
 30
0.0
 11
15.934975049077149
 21
63.865152791003077
 31
0.0
  0
LINE
  5
1A91
  8
0
 62
     0
 10
38.159975049077147
 20
63.865152791003077
 30
0.0
 11
38.159975049077147
 21
63.865152791003077
 31
0.0
  0
LINE
  5
1A92
  8
0
 62
     0
 10
35.381850049077151
 20
63.865152791003077
 30
0.0
 11
35.381850049077151
 21
63.865152791003077
 31
0.0
  0
LINE
  5
1A93
  8
0
 62
     0
 10
32.603725049077148
 20
63.865152791003077
 30
0.0
 11
32.603725049077148
 21
63.865152791003077
 31
0.0
  0
LINE
  5
1A94
  8
0
 62
     0
 10
29.825600049077149
 20
63.865152791003077
 30
0.0
 11
29.825600049077149
 21
63.865152791003077
 31
0.0
  0
LINE
  5
1A95
  8
0
 62
     0
 10
13.15685004907716
 20
63.865152791003077
 30
0.0
 11
13.15685004907716
 21
63.865152791003077
 31
0.0
  0
LINE
  5
1A96
  8
0
 62
     0
 10
10.378725049077159
 20
63.865152791003077
 30
0.0
 11
10.378725049077159
 21
63.865152791003077
 31
0.0
  0
LINE
  5
1A97
  8
0
 62
     0
 10
7.6006000490771646
 20
63.865152791003077
 30
0.0
 11
7.6006000490771646
 21
63.865152791003077
 31
0.0
  0
LINE
  5
1A98
  8
0
 62
     0
 10
4.8224750490771662
 20
63.865152791003077
 30
0.0
 11
4.8224750490771662
 21
63.865152791003077
 31
0.0
  0
LINE
  5
1A99
  8
0
 62
     0
 10
25.658412549077141
 20
66.643277791003072
 30
0.0
 11
25.658412549077141
 21
66.643277791003072
 31
0.0
  0
LINE
  5
1A9A
  8
0
 62
     0
 10
22.880287549077138
 20
66.643277791003072
 30
0.0
 11
22.880287549077138
 21
66.643277791003072
 31
0.0
  0
LINE
  5
1A9B
  8
0
 62
     0
 10
20.102162549077139
 20
66.643277791003072
 30
0.0
 11
20.102162549077139
 21
66.643277791003072
 31
0.0
  0
LINE
  5
1A9C
  8
0
 62
     0
 10
17.32403754907714
 20
66.643277791003072
 30
0.0
 11
17.32403754907714
 21
66.643277791003072
 31
0.0
  0
LINE
  5
1A9D
  8
0
 62
     0
 10
36.77091254907716
 20
66.643277791003072
 30
0.0
 11
36.77091254907716
 21
66.643277791003072
 31
0.0
  0
LINE
  5
1A9E
  8
0
 62
     0
 10
33.992787549077157
 20
66.643277791003072
 30
0.0
 11
33.992787549077157
 21
66.643277791003072
 31
0.0
  0
LINE
  5
1A9F
  8
0
 62
     0
 10
31.214662549077161
 20
66.643277791003072
 30
0.0
 11
31.214662549077161
 21
66.643277791003072
 31
0.0
  0
LINE
  5
1AA0
  8
0
 62
     0
 10
28.436537549077158
 20
66.643277791003072
 30
0.0
 11
28.436537549077158
 21
66.643277791003072
 31
0.0
  0
LINE
  5
1AA1
  8
0
 62
     0
 10
14.54591254907716
 20
66.643277791003072
 30
0.0
 11
14.54591254907716
 21
66.643277791003072
 31
0.0
  0
LINE
  5
1AA2
  8
0
 62
     0
 10
11.767787549077161
 20
66.643277791003072
 30
0.0
 11
11.767787549077161
 21
66.643277791003072
 31
0.0
  0
LINE
  5
1AA3
  8
0
 62
     0
 10
8.9896625490771598
 20
66.643277791003072
 30
0.0
 11
8.9896625490771598
 21
66.643277791003072
 31
0.0
  0
LINE
  5
1AA4
  8
0
 62
     0
 10
6.2115375490771596
 20
66.643277791003072
 30
0.0
 11
6.2115375490771596
 21
66.643277791003072
 31
0.0
  0
ENDBLK
  5
1AA6
  8
0
  0
BLOCK
  8
0
  2
*U47
 70
     1
 10
0.0
 20
0.0
 30
0.0
  3
*U47
  1

  0
TEXT
  5
1AA8
  8
0
 62
     2
 10
17.750000002984859
 20
77.124925948734443
 30
0.0
 40
2.999999997612111
  1
43.3
  7
BYGG-024364$0$ISO
  0
ENDBLK
  5
1AAA
  8
0
  0
BLOCK
  8
0
  2
*U48
 70
     1
 10
0.0
 20
0.0
 30
0.0
  3
*U48
  1

  0
TEXT
  5
1AAC
  8
0
 62
     2
 10
-5.5843227993721474
 20
53.95000000262668
 30
0.0
 40
2.999999997612111
  1
21.5
 50
90.0
  7
BYGG-024364$0$ISO
  0
ENDBLK
  5
1AAE
  8
0
  0
BLOCK
  8
0
  2
*U49
 70
     1
 10
0.0
 20
0.0
 30
0.0
  3
*U49
  1

  0
TEXT
  5
1AB0
  8
0
 62
     2
 10
-5.5843227993721403
 20
3.4500000026266782
 30
0.0
 40
2.999999997612111
  1
13.5
 50
90.0
  7
BYGG-024364$0$ISO
  0
ENDBLK
  5
1AB2
  8
0
  0
BLOCK
  8
0
  2
*U50
 70
     1
 10
0.0
 20
0.0
 30
0.0
  3
*U50
  1

  0
TEXT
  5
1AB4
  8
0
 62
     2
 10
-12.365229340811389
 20
31.899999999999999
 30
0.0
 40
3.0
  1
68
 50
90.0
  7
BYGG-024364$0$ISO
  0
ENDBLK
  5
1AB6
  8
0
  0
BLOCK
  8
0
  2
*U51
 70
     1
 10
0.0
 20
0.0
 30
0.0
  3
*U51
  1

  0
TEXT
  5
1AB8
  8
0
 62
     2
 10
11.64999999999981
 20
-9.0914471506167729
 30
0.0
 40
3.0
  1
5.1
  7
BYGG-024364$0$ISO
  0
ENDBLK
  5
1ABA
  8
0
  0
BLOCK
  8
0
  2
*U52
 70
     1
 10
0.0
 20
0.0
 30
0.0
  3
*U52
  1

  0
TEXT
  5
1ABC
  8
0
 62
     2
 10
49.849999999999987
 20
-9.0914471506167729
 30
0.0
 40
3.0
  1
5.1
  7
BYGG-024364$0$ISO
  0
ENDBLK
  5
1ABE
  8
0
  0
BLOCK
  8
0
  2
*U53
 70
     1
 10
0.0
 20
0.0
 30
0.0
  3
*U53
  1

  0
TEXT
  5
1ADA
  8
0
 10
5.3770525706610863
 20
81.463979948541308
 30
0.0
 40
3.0
  1
47.6
 50
90.000000000000028
  7
BYGG-014357$0$ISO
  0
ENDBLK
  5
1ADC
  8
0
  0
BLOCK
  8
0
  2
*U54
 70
     1
 10
0.0
 20
0.0
 30
0.0
  3
*U54
  1

  0
TEXT
  5
1ADE
  8
0
 62
     2
 10
19.328399227425521
 20
50.485069382018267
 30
0.0
 40
3.0
  1
18,5
 50
180.0
  7
BYGG-014279$0$ISO
  0
ENDBLK
  5
1AE0
  8
0
  0
BLOCK
  8
0
  2
*U55
 70
     1
 10
0.0
 20
0.0
 30
0.0
  3
*U55
  1

  0
TEXT
  5
1AE2
  8
0
 62
     2
 10
-3.562307026407717
 20
83.455712232005993
 30
0.0
 40
3.0
  1
50
 50
90.000000000000028
  7
BYGG-014279$0$ISO
  0
ENDBLK
  5
1AE4
  8
0
  0
BLOCK
  8
0
  2
*U56
 70
     1
 10
0.0
 20
0.0
 30
0.0
  3
*U56
  1

  0
TEXT
  5
1AE6
  8
0
 62
     2
 10
160.68421676774039
 20
81.603326991318056
 30
0.0
 40
2.999999997612111
  1
43.3
 50
90.0
  7
BYGG-024364$0$ISO
  0
ENDBLK
  5
1AE8
  8
0
  0
BLOCK
  8
0
  2
*U57
 70
     1
 10
0.0
 20
0.0
 30
0.0
  3
*U57
  1

  0
TEXT
  5
1AEA
  8
0
 62
     2
 10
139.50929082004069
 20
112.4376497877053
 30
0.0
 40
2.999999997612111
  1
21.5
  7
BYGG-024364$0$ISO
  0
ENDBLK
  5
1AEC
  8
0
  0
BLOCK
  8
0
  2
*U58
 70
     1
 10
0.0
 20
0.0
 30
0.0
  3
*U58
  1

  0
TEXT
  5
1AEE
  8
0
 62
     2
 10
89.009290820040761
 20
112.4376497877053
 30
0.0
 40
2.999999997612111
  1
13.5
  7
BYGG-024364$0$ISO
  0
ENDBLK
  5
1AF0
  8
0
  0
BLOCK
  8
0
  2
*U59
 70
     1
 10
0.0
 20
0.0
 30
0.0
  3
*U59
  1

  0
TEXT
  5
1AF2
  8
0
 62
     2
 10
117.4592908174141
 20
119.2185563291445
 30
0.0
 40
3.0
  1
68
  7
BYGG-024364$0$ISO
  0
ENDBLK
  5
1AF4
  8
0
  0
BLOCK
  8
0
  2
*U60
 70
     1
 10
0.0
 20
0.0
 30
0.0
  3
*U60
  1

  0
TEXT
  5
1AF6
  8
0
 62
     2
 10
74.467843666797279
 20
90.703326988333373
 30
0.0
 40
3.0
  1
5.1
 50
90.0
  7
BYGG-024364$0$ISO
  0
ENDBLK
  5
1AF8
  8
0
  0
BLOCK
  8
0
  2
*U61
 70
     1
 10
0.0
 20
0.0
 30
0.0
  3
*U61
  1

  0
TEXT
  5
1AFA
  8
0
 62
     2
 10
74.467843666797293
 20
52.503326988333193
 30
0.0
 40
3.0
  1
5.1
 50
90.0
  7
BYGG-024364$0$ISO
  0
ENDBLK
  5
1AFC
  8
0
  0
BLOCK
  8
0
  2
*U62
 70
     1
 10
0.0
 20
0.0
 30
0.0
  3
*U62
  1

  0
TEXT
  5
1AFE
  8
0
 62
     2
 10
122.07146878353019
 20
121.7004839062127
 30
0.0
 40
6.0
  1
100
  7
BYGG-01482201$0$ISO
  0
ENDBLK
  5
1B00
  8
0
  0
BLOCK
  8
0
  2
*U63
 70
     1
 10
0.0
 20
0.0
 30
0.0
  3
*U63
  1

  0
TEXT
  5
1B02
  8
0
 62
     2
 10
187.2832344224214
 20
81.086027192635996
 30
0.0
 40
6.0
  1
50
 50
90.0
  7
BYGG-01482201$0$ISO
  0
ENDBLK
  5
1B04
  8
0
  0
BLOCK
  8
0
  2
*X64
 70
     1
 10
0.0
 20
0.0
 30
0.0
  3
*X64
  1

  0
LINE
  5
1EE8
  8
0
 62
     0
 10
88.305693608417158
 20
79.805851939256016
 30
0.0
 11
88.305693608417158
 21
79.805851939256016
 31
0.0
  0
LINE
  5
1EE9
  8
0
 62
     0
 10
88.305693608417158
 20
82.583976939256004
 30
0.0
 11
88.305693608417158
 21
82.583976939256004
 31
0.0
  0
LINE
  5
1EEA
  8
0
 62
     0
 10
88.305693608417158
 20
85.362101939256036
 30
0.0
 11
88.305693608417158
 21
85.362101939256036
 31
0.0
  0
LINE
  5
1EEB
  8
0
 62
     0
 10
88.305693608417158
 20
88.140226939256024
 30
0.0
 11
88.305693608417158
 21
88.140226939256024
 31
0.0
  0
LINE
  5
1EEC
  8
0
 62
     0
 10
88.305693608417158
 20
90.918351939256027
 30
0.0
 11
88.305693608417158
 21
90.918351939256027
 31
0.0
  0
LINE
  5
1EED
  8
0
 62
     0
 10
88.305693608417158
 20
68.693351939256047
 30
0.0
 11
88.305693608417158
 21
68.693351939256047
 31
0.0
  0
LINE
  5
1EEE
  8
0
 62
     0
 10
88.305693608417158
 20
71.47147693925605
 30
0.0
 11
88.305693608417158
 21
71.47147693925605
 31
0.0
  0
LINE
  5
1EEF
  8
0
 62
     0
 10
88.305693608417158
 20
74.249601939256053
 30
0.0
 11
88.305693608417158
 21
74.249601939256053
 31
0.0
  0
LINE
  5
1EF0
  8
0
 62
     0
 10
88.305693608417158
 20
77.027726939256056
 30
0.0
 11
88.305693608417158
 21
77.027726939256056
 31
0.0
  0
LINE
  5
1EF1
  8
0
 62
     0
 10
88.305693608417158
 20
93.69647693925603
 30
0.0
 11
88.305693608417158
 21
93.69647693925603
 31
0.0
  0
LINE
  5
1EF2
  8
0
 62
     0
 10
88.305693608417158
 20
96.474601939256033
 30
0.0
 11
88.305693608417158
 21
96.474601939256033
 31
0.0
  0
LINE
  5
1EF3
  8
0
 62
     0
 10
88.305693608417158
 20
99.252726939256036
 30
0.0
 11
88.305693608417158
 21
99.252726939256036
 31
0.0
  0
LINE
  5
1EF4
  8
0
 62
     0
 10
88.305693608417158
 20
102.030851939256
 30
0.0
 11
88.305693608417158
 21
102.030851939256
 31
0.0
  0
LINE
  5
1EF5
  8
0
 62
     0
 10
91.083818608417147
 20
81.194914439255996
 30
0.0
 11
91.083818608417147
 21
81.194914439255996
 31
0.0
  0
LINE
  5
1EF6
  8
0
 62
     0
 10
91.083818608417147
 20
83.973039439255984
 30
0.0
 11
91.083818608417147
 21
83.973039439255984
 31
0.0
  0
LINE
  5
1EF7
  8
0
 62
     0
 10
91.083818608417147
 20
86.751164439256016
 30
0.0
 11
91.083818608417147
 21
86.751164439256016
 31
0.0
  0
LINE
  5
1EF8
  8
0
 62
     0
 10
91.083818608417147
 20
89.529289439256004
 30
0.0
 11
91.083818608417147
 21
89.529289439256004
 31
0.0
  0
LINE
  5
1EF9
  8
0
 62
     0
 10
91.083818608417147
 20
70.082414439256013
 30
0.0
 11
91.083818608417147
 21
70.082414439256013
 31
0.0
  0
LINE
  5
1EFA
  8
0
 62
     0
 10
91.083818608417147
 20
72.860539439256016
 30
0.0
 11
91.083818608417147
 21
72.860539439256016
 31
0.0
  0
LINE
  5
1EFB
  8
0
 62
     0
 10
91.083818608417147
 20
75.638664439256019
 30
0.0
 11
91.083818608417147
 21
75.638664439256019
 31
0.0
  0
LINE
  5
1EFC
  8
0
 62
     0
 10
91.083818608417147
 20
78.416789439256021
 30
0.0
 11
91.083818608417147
 21
78.416789439256021
 31
0.0
  0
LINE
  5
1EFD
  8
0
 62
     0
 10
91.083818608417147
 20
92.307414439255993
 30
0.0
 11
91.083818608417147
 21
92.307414439255993
 31
0.0
  0
LINE
  5
1EFE
  8
0
 62
     0
 10
91.083818608417147
 20
95.08553943925601
 30
0.0
 11
91.083818608417147
 21
95.08553943925601
 31
0.0
  0
LINE
  5
1EFF
  8
0
 62
     0
 10
91.083818608417147
 20
97.863664439256013
 30
0.0
 11
91.083818608417147
 21
97.863664439256013
 31
0.0
  0
LINE
  5
1F00
  8
0
 62
     0
 10
91.083818608417147
 20
100.641789439256
 30
0.0
 11
91.083818608417147
 21
100.641789439256
 31
0.0
  0
LINE
  5
1F01
  8
0
 62
     0
 10
93.861943608417135
 20
79.805851939256044
 30
0.0
 11
93.861943608417135
 21
79.805851939256044
 31
0.0
  0
LINE
  5
1F02
  8
0
 62
     0
 10
93.861943608417135
 20
82.583976939256047
 30
0.0
 11
93.861943608417135
 21
82.583976939256047
 31
0.0
  0
LINE
  5
1F03
  8
0
 62
     0
 10
93.861943608417135
 20
85.362101939256036
 30
0.0
 11
93.861943608417135
 21
85.362101939256036
 31
0.0
  0
LINE
  5
1F04
  8
0
 62
     0
 10
93.861943608417135
 20
88.140226939256067
 30
0.0
 11
93.861943608417135
 21
88.140226939256067
 31
0.0
  0
LINE
  5
1F05
  8
0
 62
     0
 10
93.861943608417135
 20
90.918351939256056
 30
0.0
 11
93.861943608417135
 21
90.918351939256056
 31
0.0
  0
LINE
  5
1F06
  8
0
 62
     0
 10
93.861943608417135
 20
68.693351939256047
 30
0.0
 11
93.861943608417135
 21
68.693351939256047
 31
0.0
  0
LINE
  5
1F07
  8
0
 62
     0
 10
93.861943608417135
 20
71.47147693925605
 30
0.0
 11
93.861943608417135
 21
71.47147693925605
 31
0.0
  0
LINE
  5
1F08
  8
0
 62
     0
 10
93.861943608417135
 20
74.249601939256053
 30
0.0
 11
93.861943608417135
 21
74.249601939256053
 31
0.0
  0
LINE
  5
1F09
  8
0
 62
     0
 10
93.861943608417135
 20
77.027726939256056
 30
0.0
 11
93.861943608417135
 21
77.027726939256056
 31
0.0
  0
LINE
  5
1F0A
  8
0
 62
     0
 10
93.861943608417135
 20
93.69647693925603
 30
0.0
 11
93.861943608417135
 21
93.69647693925603
 31
0.0
  0
LINE
  5
1F0B
  8
0
 62
     0
 10
93.861943608417135
 20
96.474601939256033
 30
0.0
 11
93.861943608417135
 21
96.474601939256033
 31
0.0
  0
LINE
  5
1F0C
  8
0
 62
     0
 10
93.861943608417135
 20
99.252726939256036
 30
0.0
 11
93.861943608417135
 21
99.252726939256036
 31
0.0
  0
LINE
  5
1F0D
  8
0
 62
     0
 10
93.861943608417135
 20
102.030851939256
 30
0.0
 11
93.861943608417135
 21
102.030851939256
 31
0.0
  0
LINE
  5
1F0E
  8
0
 62
     0
 10
96.640068608417124
 20
81.194914439256024
 30
0.0
 11
96.640068608417124
 21
81.194914439256024
 31
0.0
  0
LINE
  5
1F0F
  8
0
 62
     0
 10
96.640068608417124
 20
83.973039439256027
 30
0.0
 11
96.640068608417124
 21
83.973039439256027
 31
0.0
  0
LINE
  5
1F10
  8
0
 62
     0
 10
96.640068608417124
 20
86.751164439256016
 30
0.0
 11
96.640068608417124
 21
86.751164439256016
 31
0.0
  0
LINE
  5
1F11
  8
0
 62
     0
 10
96.640068608417124
 20
89.529289439256047
 30
0.0
 11
96.640068608417124
 21
89.529289439256047
 31
0.0
  0
LINE
  5
1F12
  8
0
 62
     0
 10
96.640068608417124
 20
70.082414439256013
 30
0.0
 11
96.640068608417124
 21
70.082414439256013
 31
0.0
  0
LINE
  5
1F13
  8
0
 62
     0
 10
96.640068608417124
 20
72.860539439256016
 30
0.0
 11
96.640068608417124
 21
72.860539439256016
 31
0.0
  0
LINE
  5
1F14
  8
0
 62
     0
 10
96.640068608417124
 20
75.638664439256019
 30
0.0
 11
96.640068608417124
 21
75.638664439256019
 31
0.0
  0
LINE
  5
1F15
  8
0
 62
     0
 10
96.640068608417124
 20
78.416789439256021
 30
0.0
 11
96.640068608417124
 21
78.416789439256021
 31
0.0
  0
LINE
  5
1F16
  8
0
 62
     0
 10
96.640068608417124
 20
92.307414439255993
 30
0.0
 11
96.640068608417124
 21
92.307414439255993
 31
0.0
  0
LINE
  5
1F17
  8
0
 62
     0
 10
96.640068608417124
 20
95.08553943925601
 30
0.0
 11
96.640068608417124
 21
95.08553943925601
 31
0.0
  0
LINE
  5
1F18
  8
0
 62
     0
 10
96.640068608417124
 20
97.863664439256013
 30
0.0
 11
96.640068608417124
 21
97.863664439256013
 31
0.0
  0
LINE
  5
1F19
  8
0
 62
     0
 10
96.640068608417124
 20
100.641789439256
 30
0.0
 11
96.640068608417124
 21
100.641789439256
 31
0.0
  0
LINE
  5
1F1A
  8
0
 62
     0
 10
99.418193608417127
 20
79.805851939256044
 30
0.0
 11
99.418193608417127
 21
79.805851939256044
 31
0.0
  0
LINE
  5
1F1B
  8
0
 62
     0
 10
99.418193608417127
 20
82.583976939256047
 30
0.0
 11
99.418193608417127
 21
82.583976939256047
 31
0.0
  0
LINE
  5
1F1C
  8
0
 62
     0
 10
99.418193608417127
 20
85.362101939256036
 30
0.0
 11
99.418193608417127
 21
85.362101939256036
 31
0.0
  0
LINE
  5
1F1D
  8
0
 62
     0
 10
99.418193608417127
 20
88.140226939256067
 30
0.0
 11
99.418193608417127
 21
88.140226939256067
 31
0.0
  0
LINE
  5
1F1E
  8
0
 62
     0
 10
99.418193608417127
 20
90.918351939256056
 30
0.0
 11
99.418193608417127
 21
90.918351939256056
 31
0.0
  0
LINE
  5
1F1F
  8
0
 62
     0
 10
99.418193608417127
 20
65.915226939256044
 30
0.0
 11
99.418193608417127
 21
65.915226939256044
 31
0.0
  0
LINE
  5
1F20
  8
0
 62
     0
 10
99.418193608417127
 20
68.693351939256047
 30
0.0
 11
99.418193608417127
 21
68.693351939256047
 31
0.0
  0
LINE
  5
1F21
  8
0
 62
     0
 10
99.418193608417127
 20
71.47147693925605
 30
0.0
 11
99.418193608417127
 21
71.47147693925605
 31
0.0
  0
LINE
  5
1F22
  8
0
 62
     0
 10
99.418193608417127
 20
74.249601939256053
 30
0.0
 11
99.418193608417127
 21
74.249601939256053
 31
0.0
  0
LINE
  5
1F23
  8
0
 62
     0
 10
99.418193608417127
 20
77.027726939256056
 30
0.0
 11
99.418193608417127
 21
77.027726939256056
 31
0.0
  0
LINE
  5
1F24
  8
0
 62
     0
 10
99.418193608417127
 20
93.696476939256044
 30
0.0
 11
99.418193608417127
 21
93.696476939256044
 31
0.0
  0
LINE
  5
1F25
  8
0
 62
     0
 10
99.418193608417127
 20
96.474601939256047
 30
0.0
 11
99.418193608417127
 21
96.474601939256047
 31
0.0
  0
LINE
  5
1F26
  8
0
 62
     0
 10
99.418193608417127
 20
99.252726939256064
 30
0.0
 11
99.418193608417127
 21
99.252726939256064
 31
0.0
  0
LINE
  5
1F27
  8
0
 62
     0
 10
99.418193608417127
 20
102.030851939256
 30
0.0
 11
99.418193608417127
 21
102.030851939256
 31
0.0
  0
LINE
  5
1F28
  8
0
 62
     0
 10
99.418193608417127
 20
104.808976939256
 30
0.0
 11
99.418193608417127
 21
104.808976939256
 31
0.0
  0
LINE
  5
1F29
  8
0
 62
     0
 10
102.1963186084171
 20
81.194914439256024
 30
0.0
 11
102.1963186084171
 21
81.194914439256024
 31
0.0
  0
LINE
  5
1F2A
  8
0
 62
     0
 10
102.1963186084171
 20
83.973039439256027
 30
0.0
 11
102.1963186084171
 21
83.973039439256027
 31
0.0
  0
LINE
  5
1F2B
  8
0
 62
     0
 10
102.1963186084171
 20
86.751164439256016
 30
0.0
 11
102.1963186084171
 21
86.751164439256016
 31
0.0
  0
LINE
  5
1F2C
  8
0
 62
     0
 10
102.1963186084171
 20
89.529289439256047
 30
0.0
 11
102.1963186084171
 21
89.529289439256047
 31
0.0
  0
LINE
  5
1F2D
  8
0
 62
     0
 10
102.1963186084171
 20
64.526164439256007
 30
0.0
 11
102.1963186084171
 21
64.526164439256007
 31
0.0
  0
LINE
  5
1F2E
  8
0
 62
     0
 10
102.1963186084171
 20
67.30428943925601
 30
0.0
 11
102.1963186084171
 21
67.30428943925601
 31
0.0
  0
LINE
  5
1F2F
  8
0
 62
     0
 10
102.1963186084171
 20
70.082414439256013
 30
0.0
 11
102.1963186084171
 21
70.082414439256013
 31
0.0
  0
LINE
  5
1F30
  8
0
 62
     0
 10
102.1963186084171
 20
72.860539439256016
 30
0.0
 11
102.1963186084171
 21
72.860539439256016
 31
0.0
  0
LINE
  5
1F31
  8
0
 62
     0
 10
102.1963186084171
 20
75.638664439256019
 30
0.0
 11
102.1963186084171
 21
75.638664439256019
 31
0.0
  0
LINE
  5
1F32
  8
0
 62
     0
 10
102.1963186084171
 20
78.416789439256021
 30
0.0
 11
102.1963186084171
 21
78.416789439256021
 31
0.0
  0
LINE
  5
1F33
  8
0
 62
     0
 10
102.1963186084171
 20
92.307414439255993
 30
0.0
 11
102.1963186084171
 21
92.307414439255993
 31
0.0
  0
LINE
  5
1F34
  8
0
 62
     0
 10
102.1963186084171
 20
95.08553943925601
 30
0.0
 11
102.1963186084171
 21
95.08553943925601
 31
0.0
  0
LINE
  5
1F35
  8
0
 62
     0
 10
102.1963186084171
 20
97.863664439256013
 30
0.0
 11
102.1963186084171
 21
97.863664439256013
 31
0.0
  0
LINE
  5
1F36
  8
0
 62
     0
 10
102.1963186084171
 20
100.641789439256
 30
0.0
 11
102.1963186084171
 21
100.641789439256
 31
0.0
  0
LINE
  5
1F37
  8
0
 62
     0
 10
102.1963186084171
 20
103.419914439256
 30
0.0
 11
102.1963186084171
 21
103.419914439256
 31
0.0
  0
LINE
  5
1F38
  8
0
 62
     0
 10
102.1963186084171
 20
106.19803943925599
 30
0.0
 11
102.1963186084171
 21
106.19803943925599
 31
0.0
  0
LINE
  5
1F39
  8
0
 62
     0
 10
104.9744436084171
 20
79.805851939255973
 30
0.0
 11
104.9744436084171
 21
79.805851939255973
 31
0.0
  0
LINE
  5
1F3A
  8
0
 62
     0
 10
104.9744436084171
 20
82.583976939256004
 30
0.0
 11
104.9744436084171
 21
82.583976939256004
 31
0.0
  0
LINE
  5
1F3B
  8
0
 62
     0
 10
104.9744436084171
 20
85.362101939255993
 30
0.0
 11
104.9744436084171
 21
85.362101939255993
 31
0.0
  0
LINE
  5
1F3C
  8
0
 62
     0
 10
104.9744436084171
 20
88.140226939255996
 30
0.0
 11
104.9744436084171
 21
88.140226939255996
 31
0.0
  0
LINE
  5
1F3D
  8
0
 62
     0
 10
104.9744436084171
 20
90.918351939255999
 30
0.0
 11
104.9744436084171
 21
90.918351939255999
 31
0.0
  0
LINE
  5
1F3E
  8
0
 62
     0
 10
104.9744436084171
 20
65.915226939255987
 30
0.0
 11
104.9744436084171
 21
65.915226939255987
 31
0.0
  0
LINE
  5
1F3F
  8
0
 62
     0
 10
104.9744436084171
 20
68.69335193925599
 30
0.0
 11
104.9744436084171
 21
68.69335193925599
 31
0.0
  0
LINE
  5
1F40
  8
0
 62
     0
 10
104.9744436084171
 20
71.471476939255993
 30
0.0
 11
104.9744436084171
 21
71.471476939255993
 31
0.0
  0
LINE
  5
1F41
  8
0
 62
     0
 10
104.9744436084171
 20
74.249601939255996
 30
0.0
 11
104.9744436084171
 21
74.249601939255996
 31
0.0
  0
LINE
  5
1F42
  8
0
 62
     0
 10
104.9744436084171
 20
77.027726939255999
 30
0.0
 11
104.9744436084171
 21
77.027726939255999
 31
0.0
  0
LINE
  5
1F43
  8
0
 62
     0
 10
104.9744436084171
 20
93.696476939255973
 30
0.0
 11
104.9744436084171
 21
93.696476939255973
 31
0.0
  0
LINE
  5
1F44
  8
0
 62
     0
 10
104.9744436084171
 20
96.47460193925599
 30
0.0
 11
104.9744436084171
 21
96.47460193925599
 31
0.0
  0
LINE
  5
1F45
  8
0
 62
     0
 10
104.9744436084171
 20
99.252726939255993
 30
0.0
 11
104.9744436084171
 21
99.252726939255993
 31
0.0
  0
LINE
  5
1F46
  8
0
 62
     0
 10
104.9744436084171
 20
102.030851939256
 30
0.0
 11
104.9744436084171
 21
102.030851939256
 31
0.0
  0
LINE
  5
1F47
  8
0
 62
     0
 10
104.9744436084171
 20
104.808976939256
 30
0.0
 11
104.9744436084171
 21
104.808976939256
 31
0.0
  0
LINE
  5
1F48
  8
0
 62
     0
 10
107.75256860841711
 20
81.194914439256024
 30
0.0
 11
107.75256860841711
 21
81.194914439256024
 31
0.0
  0
LINE
  5
1F49
  8
0
 62
     0
 10
107.75256860841711
 20
83.973039439256027
 30
0.0
 11
107.75256860841711
 21
83.973039439256027
 31
0.0
  0
LINE
  5
1F4A
  8
0
 62
     0
 10
107.75256860841711
 20
86.751164439256016
 30
0.0
 11
107.75256860841711
 21
86.751164439256016
 31
0.0
  0
LINE
  5
1F4B
  8
0
 62
     0
 10
107.75256860841711
 20
89.529289439256047
 30
0.0
 11
107.75256860841711
 21
89.529289439256047
 31
0.0
  0
LINE
  5
1F4C
  8
0
 62
     0
 10
107.75256860841711
 20
64.526164439256036
 30
0.0
 11
107.75256860841711
 21
64.526164439256036
 31
0.0
  0
LINE
  5
1F4D
  8
0
 62
     0
 10
107.75256860841711
 20
67.304289439256038
 30
0.0
 11
107.75256860841711
 21
67.304289439256038
 31
0.0
  0
LINE
  5
1F4E
  8
0
 62
     0
 10
107.75256860841711
 20
70.082414439256041
 30
0.0
 11
107.75256860841711
 21
70.082414439256041
 31
0.0
  0
LINE
  5
1F4F
  8
0
 62
     0
 10
107.75256860841711
 20
72.860539439256044
 30
0.0
 11
107.75256860841711
 21
72.860539439256044
 31
0.0
  0
LINE
  5
1F50
  8
0
 62
     0
 10
107.75256860841711
 20
75.638664439256047
 30
0.0
 11
107.75256860841711
 21
75.638664439256047
 31
0.0
  0
LINE
  5
1F51
  8
0
 62
     0
 10
107.75256860841711
 20
78.41678943925605
 30
0.0
 11
107.75256860841711
 21
78.41678943925605
 31
0.0
  0
LINE
  5
1F52
  8
0
 62
     0
 10
107.75256860841711
 20
92.307414439256036
 30
0.0
 11
107.75256860841711
 21
92.307414439256036
 31
0.0
  0
LINE
  5
1F53
  8
0
 62
     0
 10
107.75256860841711
 20
95.085539439256024
 30
0.0
 11
107.75256860841711
 21
95.085539439256024
 31
0.0
  0
LINE
  5
1F54
  8
0
 62
     0
 10
107.75256860841711
 20
97.863664439256041
 30
0.0
 11
107.75256860841711
 21
97.863664439256041
 31
0.0
  0
LINE
  5
1F55
  8
0
 62
     0
 10
107.75256860841711
 20
100.641789439256
 30
0.0
 11
107.75256860841711
 21
100.641789439256
 31
0.0
  0
LINE
  5
1F56
  8
0
 62
     0
 10
107.75256860841711
 20
103.419914439256
 30
0.0
 11
107.75256860841711
 21
103.419914439256
 31
0.0
  0
LINE
  5
1F57
  8
0
 62
     0
 10
107.75256860841711
 20
106.19803943925599
 30
0.0
 11
107.75256860841711
 21
106.19803943925599
 31
0.0
  0
LINE
  5
1F58
  8
0
 62
     0
 10
110.5306936084171
 20
79.805851939256016
 30
0.0
 11
110.5306936084171
 21
79.805851939256016
 31
0.0
  0
LINE
  5
1F59
  8
0
 62
     0
 10
110.5306936084171
 20
82.583976939256004
 30
0.0
 11
110.5306936084171
 21
82.583976939256004
 31
0.0
  0
LINE
  5
1F5A
  8
0
 62
     0
 10
110.5306936084171
 20
85.362101939256036
 30
0.0
 11
110.5306936084171
 21
85.362101939256036
 31
0.0
  0
LINE
  5
1F5B
  8
0
 62
     0
 10
110.5306936084171
 20
88.140226939256024
 30
0.0
 11
110.5306936084171
 21
88.140226939256024
 31
0.0
  0
LINE
  5
1F5C
  8
0
 62
     0
 10
110.5306936084171
 20
90.918351939256027
 30
0.0
 11
110.5306936084171
 21
90.918351939256027
 31
0.0
  0
LINE
  5
1F5D
  8
0
 62
     0
 10
110.5306936084171
 20
65.915226939256016
 30
0.0
 11
110.5306936084171
 21
65.915226939256016
 31
0.0
  0
LINE
  5
1F5E
  8
0
 62
     0
 10
110.5306936084171
 20
68.693351939256019
 30
0.0
 11
110.5306936084171
 21
68.693351939256019
 31
0.0
  0
LINE
  5
1F5F
  8
0
 62
     0
 10
110.5306936084171
 20
71.471476939256021
 30
0.0
 11
110.5306936084171
 21
71.471476939256021
 31
0.0
  0
LINE
  5
1F60
  8
0
 62
     0
 10
110.5306936084171
 20
74.249601939256024
 30
0.0
 11
110.5306936084171
 21
74.249601939256024
 31
0.0
  0
LINE
  5
1F61
  8
0
 62
     0
 10
110.5306936084171
 20
77.027726939256027
 30
0.0
 11
110.5306936084171
 21
77.027726939256027
 31
0.0
  0
LINE
  5
1F62
  8
0
 62
     0
 10
110.5306936084171
 20
93.696476939256016
 30
0.0
 11
110.5306936084171
 21
93.696476939256016
 31
0.0
  0
LINE
  5
1F63
  8
0
 62
     0
 10
110.5306936084171
 20
96.474601939256033
 30
0.0
 11
110.5306936084171
 21
96.474601939256033
 31
0.0
  0
LINE
  5
1F64
  8
0
 62
     0
 10
110.5306936084171
 20
99.252726939256021
 30
0.0
 11
110.5306936084171
 21
99.252726939256021
 31
0.0
  0
LINE
  5
1F65
  8
0
 62
     0
 10
110.5306936084171
 20
102.030851939256
 30
0.0
 11
110.5306936084171
 21
102.030851939256
 31
0.0
  0
LINE
  5
1F66
  8
0
 62
     0
 10
110.5306936084171
 20
104.808976939256
 30
0.0
 11
110.5306936084171
 21
104.808976939256
 31
0.0
  0
LINE
  5
1F67
  8
0
 62
     0
 10
113.3088186084171
 20
81.194914439256053
 30
0.0
 11
113.3088186084171
 21
81.194914439256053
 31
0.0
  0
LINE
  5
1F68
  8
0
 62
     0
 10
113.3088186084171
 20
83.973039439256056
 30
0.0
 11
113.3088186084171
 21
83.973039439256056
 31
0.0
  0
LINE
  5
1F69
  8
0
 62
     0
 10
113.3088186084171
 20
86.751164439256058
 30
0.0
 11
113.3088186084171
 21
86.751164439256058
 31
0.0
  0
LINE
  5
1F6A
  8
0
 62
     0
 10
113.3088186084171
 20
89.529289439256061
 30
0.0
 11
113.3088186084171
 21
89.529289439256061
 31
0.0
  0
LINE
  5
1F6B
  8
0
 62
     0
 10
113.3088186084171
 20
64.526164439256036
 30
0.0
 11
113.3088186084171
 21
64.526164439256036
 31
0.0
  0
LINE
  5
1F6C
  8
0
 62
     0
 10
113.3088186084171
 20
67.304289439256038
 30
0.0
 11
113.3088186084171
 21
67.304289439256038
 31
0.0
  0
LINE
  5
1F6D
  8
0
 62
     0
 10
113.3088186084171
 20
70.082414439256041
 30
0.0
 11
113.3088186084171
 21
70.082414439256041
 31
0.0
  0
LINE
  5
1F6E
  8
0
 62
     0
 10
113.3088186084171
 20
72.860539439256044
 30
0.0
 11
113.3088186084171
 21
72.860539439256044
 31
0.0
  0
LINE
  5
1F6F
  8
0
 62
     0
 10
113.3088186084171
 20
75.638664439256047
 30
0.0
 11
113.3088186084171
 21
75.638664439256047
 31
0.0
  0
LINE
  5
1F70
  8
0
 62
     0
 10
113.3088186084171
 20
78.41678943925605
 30
0.0
 11
113.3088186084171
 21
78.41678943925605
 31
0.0
  0
LINE
  5
1F71
  8
0
 62
     0
 10
113.3088186084171
 20
92.307414439256036
 30
0.0
 11
113.3088186084171
 21
92.307414439256036
 31
0.0
  0
LINE
  5
1F72
  8
0
 62
     0
 10
113.3088186084171
 20
95.085539439256024
 30
0.0
 11
113.3088186084171
 21
95.085539439256024
 31
0.0
  0
LINE
  5
1F73
  8
0
 62
     0
 10
113.3088186084171
 20
97.863664439256041
 30
0.0
 11
113.3088186084171
 21
97.863664439256041
 31
0.0
  0
LINE
  5
1F74
  8
0
 62
     0
 10
113.3088186084171
 20
100.641789439256
 30
0.0
 11
113.3088186084171
 21
100.641789439256
 31
0.0
  0
LINE
  5
1F75
  8
0
 62
     0
 10
113.3088186084171
 20
103.419914439256
 30
0.0
 11
113.3088186084171
 21
103.419914439256
 31
0.0
  0
LINE
  5
1F76
  8
0
 62
     0
 10
113.3088186084171
 20
106.19803943925599
 30
0.0
 11
113.3088186084171
 21
106.19803943925599
 31
0.0
  0
LINE
  5
1F77
  8
0
 62
     0
 10
116.0869436084171
 20
79.805851939255973
 30
0.0
 11
116.0869436084171
 21
79.805851939255973
 31
0.0
  0
LINE
  5
1F78
  8
0
 62
     0
 10
116.0869436084171
 20
82.583976939256004
 30
0.0
 11
116.0869436084171
 21
82.583976939256004
 31
0.0
  0
LINE
  5
1F79
  8
0
 62
     0
 10
116.0869436084171
 20
85.362101939255993
 30
0.0
 11
116.0869436084171
 21
85.362101939255993
 31
0.0
  0
LINE
  5
1F7A
  8
0
 62
     0
 10
116.0869436084171
 20
88.140226939255996
 30
0.0
 11
116.0869436084171
 21
88.140226939255996
 31
0.0
  0
LINE
  5
1F7B
  8
0
 62
     0
 10
116.0869436084171
 20
90.918351939255999
 30
0.0
 11
116.0869436084171
 21
90.918351939255999
 31
0.0
  0
LINE
  5
1F7C
  8
0
 62
     0
 10
116.0869436084171
 20
65.915226939255987
 30
0.0
 11
116.0869436084171
 21
65.915226939255987
 31
0.0
  0
LINE
  5
1F7D
  8
0
 62
     0
 10
116.0869436084171
 20
68.69335193925599
 30
0.0
 11
116.0869436084171
 21
68.69335193925599
 31
0.0
  0
LINE
  5
1F7E
  8
0
 62
     0
 10
116.0869436084171
 20
71.471476939255993
 30
0.0
 11
116.0869436084171
 21
71.471476939255993
 31
0.0
  0
LINE
  5
1F7F
  8
0
 62
     0
 10
116.0869436084171
 20
74.249601939255996
 30
0.0
 11
116.0869436084171
 21
74.249601939255996
 31
0.0
  0
LINE
  5
1F80
  8
0
 62
     0
 10
116.0869436084171
 20
77.027726939255999
 30
0.0
 11
116.0869436084171
 21
77.027726939255999
 31
0.0
  0
LINE
  5
1F81
  8
0
 62
     0
 10
116.0869436084171
 20
93.696476939255973
 30
0.0
 11
116.0869436084171
 21
93.696476939255973
 31
0.0
  0
LINE
  5
1F82
  8
0
 62
     0
 10
116.0869436084171
 20
96.47460193925599
 30
0.0
 11
116.0869436084171
 21
96.47460193925599
 31
0.0
  0
LINE
  5
1F83
  8
0
 62
     0
 10
116.0869436084171
 20
99.252726939255993
 30
0.0
 11
116.0869436084171
 21
99.252726939255993
 31
0.0
  0
LINE
  5
1F84
  8
0
 62
     0
 10
116.0869436084171
 20
102.030851939256
 30
0.0
 11
116.0869436084171
 21
102.030851939256
 31
0.0
  0
LINE
  5
1F85
  8
0
 62
     0
 10
116.0869436084171
 20
104.808976939256
 30
0.0
 11
116.0869436084171
 21
104.808976939256
 31
0.0
  0
LINE
  5
1F86
  8
0
 62
     0
 10
118.8650686084171
 20
81.194914439255953
 30
0.0
 11
118.8650686084171
 21
81.194914439255953
 31
0.0
  0
LINE
  5
1F87
  8
0
 62
     0
 10
118.8650686084171
 20
83.973039439255984
 30
0.0
 11
118.8650686084171
 21
83.973039439255984
 31
0.0
  0
LINE
  5
1F88
  8
0
 62
     0
 10
118.8650686084171
 20
86.751164439255973
 30
0.0
 11
118.8650686084171
 21
86.751164439255973
 31
0.0
  0
LINE
  5
1F89
  8
0
 62
     0
 10
118.8650686084171
 20
89.529289439255976
 30
0.0
 11
118.8650686084171
 21
89.529289439255976
 31
0.0
  0
LINE
  5
1F8A
  8
0
 62
     0
 10
118.8650686084171
 20
64.526164439255979
 30
0.0
 11
118.8650686084171
 21
64.526164439255979
 31
0.0
  0
LINE
  5
1F8B
  8
0
 62
     0
 10
118.8650686084171
 20
67.304289439255982
 30
0.0
 11
118.8650686084171
 21
67.304289439255982
 31
0.0
  0
LINE
  5
1F8C
  8
0
 62
     0
 10
118.8650686084171
 20
70.082414439255984
 30
0.0
 11
118.8650686084171
 21
70.082414439255984
 31
0.0
  0
LINE
  5
1F8D
  8
0
 62
     0
 10
118.8650686084171
 20
72.860539439255973
 30
0.0
 11
118.8650686084171
 21
72.860539439255973
 31
0.0
  0
LINE
  5
1F8E
  8
0
 62
     0
 10
118.8650686084171
 20
75.63866443925599
 30
0.0
 11
118.8650686084171
 21
75.63866443925599
 31
0.0
  0
LINE
  5
1F8F
  8
0
 62
     0
 10
118.8650686084171
 20
78.416789439255993
 30
0.0
 11
118.8650686084171
 21
78.416789439255993
 31
0.0
  0
LINE
  5
1F90
  8
0
 62
     0
 10
118.8650686084171
 20
92.307414439255979
 30
0.0
 11
118.8650686084171
 21
92.307414439255979
 31
0.0
  0
LINE
  5
1F91
  8
0
 62
     0
 10
118.8650686084171
 20
95.085539439255982
 30
0.0
 11
118.8650686084171
 21
95.085539439255982
 31
0.0
  0
LINE
  5
1F92
  8
0
 62
     0
 10
118.8650686084171
 20
97.863664439255984
 30
0.0
 11
118.8650686084171
 21
97.863664439255984
 31
0.0
  0
LINE
  5
1F93
  8
0
 62
     0
 10
118.8650686084171
 20
100.641789439256
 30
0.0
 11
118.8650686084171
 21
100.641789439256
 31
0.0
  0
LINE
  5
1F94
  8
0
 62
     0
 10
118.8650686084171
 20
103.419914439256
 30
0.0
 11
118.8650686084171
 21
103.419914439256
 31
0.0
  0
LINE
  5
1F95
  8
0
 62
     0
 10
118.8650686084171
 20
106.19803943925599
 30
0.0
 11
118.8650686084171
 21
106.19803943925599
 31
0.0
  0
LINE
  5
1F96
  8
0
 62
     0
 10
121.64319360841711
 20
79.805851939255959
 30
0.0
 11
121.64319360841711
 21
79.805851939255959
 31
0.0
  0
LINE
  5
1F97
  8
0
 62
     0
 10
121.64319360841711
 20
82.583976939255962
 30
0.0
 11
121.64319360841711
 21
82.583976939255962
 31
0.0
  0
LINE
  5
1F98
  8
0
 62
     0
 10
121.64319360841711
 20
85.362101939255965
 30
0.0
 11
121.64319360841711
 21
85.362101939255965
 31
0.0
  0
LINE
  5
1F99
  8
0
 62
     0
 10
121.64319360841711
 20
88.140226939255967
 30
0.0
 11
121.64319360841711
 21
88.140226939255967
 31
0.0
  0
LINE
  5
1F9A
  8
0
 62
     0
 10
121.64319360841711
 20
90.91835193925597
 30
0.0
 11
121.64319360841711
 21
90.91835193925597
 31
0.0
  0
LINE
  5
1F9B
  8
0
 62
     0
 10
121.64319360841711
 20
65.915226939255959
 30
0.0
 11
121.64319360841711
 21
65.915226939255959
 31
0.0
  0
LINE
  5
1F9C
  8
0
 62
     0
 10
121.64319360841711
 20
68.693351939255962
 30
0.0
 11
121.64319360841711
 21
68.693351939255962
 31
0.0
  0
LINE
  5
1F9D
  8
0
 62
     0
 10
121.64319360841711
 20
71.471476939255965
 30
0.0
 11
121.64319360841711
 21
71.471476939255965
 31
0.0
  0
LINE
  5
1F9E
  8
0
 62
     0
 10
121.64319360841711
 20
74.249601939255953
 30
0.0
 11
121.64319360841711
 21
74.249601939255953
 31
0.0
  0
LINE
  5
1F9F
  8
0
 62
     0
 10
121.64319360841711
 20
77.02772693925597
 30
0.0
 11
121.64319360841711
 21
77.02772693925597
 31
0.0
  0
LINE
  5
1FA0
  8
0
 62
     0
 10
121.64319360841711
 20
93.696476939255959
 30
0.0
 11
121.64319360841711
 21
93.696476939255959
 31
0.0
  0
LINE
  5
1FA1
  8
0
 62
     0
 10
121.64319360841711
 20
96.474601939255962
 30
0.0
 11
121.64319360841711
 21
96.474601939255962
 31
0.0
  0
LINE
  5
1FA2
  8
0
 62
     0
 10
121.64319360841711
 20
99.252726939255965
 30
0.0
 11
121.64319360841711
 21
99.252726939255965
 31
0.0
  0
LINE
  5
1FA3
  8
0
 62
     0
 10
121.64319360841711
 20
102.0308519392559
 30
0.0
 11
121.64319360841711
 21
102.0308519392559
 31
0.0
  0
LINE
  5
1FA4
  8
0
 62
     0
 10
121.64319360841711
 20
104.8089769392559
 30
0.0
 11
121.64319360841711
 21
104.8089769392559
 31
0.0
  0
LINE
  5
1FA5
  8
0
 62
     0
 10
124.4213186084171
 20
81.194914439255996
 30
0.0
 11
124.4213186084171
 21
81.194914439255996
 31
0.0
  0
LINE
  5
1FA6
  8
0
 62
     0
 10
124.4213186084171
 20
83.973039439255984
 30
0.0
 11
124.4213186084171
 21
83.973039439255984
 31
0.0
  0
LINE
  5
1FA7
  8
0
 62
     0
 10
124.4213186084171
 20
86.751164439256016
 30
0.0
 11
124.4213186084171
 21
86.751164439256016
 31
0.0
  0
LINE
  5
1FA8
  8
0
 62
     0
 10
124.4213186084171
 20
89.529289439256004
 30
0.0
 11
124.4213186084171
 21
89.529289439256004
 31
0.0
  0
LINE
  5
1FA9
  8
0
 62
     0
 10
124.4213186084171
 20
64.526164439255979
 30
0.0
 11
124.4213186084171
 21
64.526164439255979
 31
0.0
  0
LINE
  5
1FAA
  8
0
 62
     0
 10
124.4213186084171
 20
67.304289439255982
 30
0.0
 11
124.4213186084171
 21
67.304289439255982
 31
0.0
  0
LINE
  5
1FAB
  8
0
 62
     0
 10
124.4213186084171
 20
70.082414439255984
 30
0.0
 11
124.4213186084171
 21
70.082414439255984
 31
0.0
  0
LINE
  5
1FAC
  8
0
 62
     0
 10
124.4213186084171
 20
72.860539439255973
 30
0.0
 11
124.4213186084171
 21
72.860539439255973
 31
0.0
  0
LINE
  5
1FAD
  8
0
 62
     0
 10
124.4213186084171
 20
75.63866443925599
 30
0.0
 11
124.4213186084171
 21
75.63866443925599
 31
0.0
  0
LINE
  5
1FAE
  8
0
 62
     0
 10
124.4213186084171
 20
78.416789439255993
 30
0.0
 11
124.4213186084171
 21
78.416789439255993
 31
0.0
  0
LINE
  5
1FAF
  8
0
 62
     0
 10
124.4213186084171
 20
92.307414439255979
 30
0.0
 11
124.4213186084171
 21
92.307414439255979
 31
0.0
  0
LINE
  5
1FB0
  8
0
 62
     0
 10
124.4213186084171
 20
95.085539439255982
 30
0.0
 11
124.4213186084171
 21
95.085539439255982
 31
0.0
  0
LINE
  5
1FB1
  8
0
 62
     0
 10
124.4213186084171
 20
97.863664439255984
 30
0.0
 11
124.4213186084171
 21
97.863664439255984
 31
0.0
  0
LINE
  5
1FB2
  8
0
 62
     0
 10
124.4213186084171
 20
100.641789439256
 30
0.0
 11
124.4213186084171
 21
100.641789439256
 31
0.0
  0
LINE
  5
1FB3
  8
0
 62
     0
 10
124.4213186084171
 20
103.419914439256
 30
0.0
 11
124.4213186084171
 21
103.419914439256
 31
0.0
  0
LINE
  5
1FB4
  8
0
 62
     0
 10
124.4213186084171
 20
106.19803943925599
 30
0.0
 11
124.4213186084171
 21
106.19803943925599
 31
0.0
  0
LINE
  5
1FB5
  8
0
 62
     0
 10
127.1994436084171
 20
79.805851939256016
 30
0.0
 11
127.1994436084171
 21
79.805851939256016
 31
0.0
  0
LINE
  5
1FB6
  8
0
 62
     0
 10
127.1994436084171
 20
82.583976939256004
 30
0.0
 11
127.1994436084171
 21
82.583976939256004
 31
0.0
  0
LINE
  5
1FB7
  8
0
 62
     0
 10
127.1994436084171
 20
85.362101939256036
 30
0.0
 11
127.1994436084171
 21
85.362101939256036
 31
0.0
  0
LINE
  5
1FB8
  8
0
 62
     0
 10
127.1994436084171
 20
88.140226939256024
 30
0.0
 11
127.1994436084171
 21
88.140226939256024
 31
0.0
  0
LINE
  5
1FB9
  8
0
 62
     0
 10
127.1994436084171
 20
90.918351939256027
 30
0.0
 11
127.1994436084171
 21
90.918351939256027
 31
0.0
  0
LINE
  5
1FBA
  8
0
 62
     0
 10
127.1994436084171
 20
65.915226939256016
 30
0.0
 11
127.1994436084171
 21
65.915226939256016
 31
0.0
  0
LINE
  5
1FBB
  8
0
 62
     0
 10
127.1994436084171
 20
68.693351939256019
 30
0.0
 11
127.1994436084171
 21
68.693351939256019
 31
0.0
  0
LINE
  5
1FBC
  8
0
 62
     0
 10
127.1994436084171
 20
71.471476939256021
 30
0.0
 11
127.1994436084171
 21
71.471476939256021
 31
0.0
  0
LINE
  5
1FBD
  8
0
 62
     0
 10
127.1994436084171
 20
74.249601939256024
 30
0.0
 11
127.1994436084171
 21
74.249601939256024
 31
0.0
  0
LINE
  5
1FBE
  8
0
 62
     0
 10
127.1994436084171
 20
77.027726939256027
 30
0.0
 11
127.1994436084171
 21
77.027726939256027
 31
0.0
  0
LINE
  5
1FBF
  8
0
 62
     0
 10
127.1994436084171
 20
93.696476939256016
 30
0.0
 11
127.1994436084171
 21
93.696476939256016
 31
0.0
  0
LINE
  5
1FC0
  8
0
 62
     0
 10
127.1994436084171
 20
96.474601939256033
 30
0.0
 11
127.1994436084171
 21
96.474601939256033
 31
0.0
  0
LINE
  5
1FC1
  8
0
 62
     0
 10
127.1994436084171
 20
99.252726939256021
 30
0.0
 11
127.1994436084171
 21
99.252726939256021
 31
0.0
  0
LINE
  5
1FC2
  8
0
 62
     0
 10
127.1994436084171
 20
102.030851939256
 30
0.0
 11
127.1994436084171
 21
102.030851939256
 31
0.0
  0
LINE
  5
1FC3
  8
0
 62
     0
 10
127.1994436084171
 20
104.808976939256
 30
0.0
 11
127.1994436084171
 21
104.808976939256
 31
0.0
  0
LINE
  5
1FC4
  8
0
 62
     0
 10
129.9775686084171
 20
81.194914439255996
 30
0.0
 11
129.9775686084171
 21
81.194914439255996
 31
0.0
  0
LINE
  5
1FC5
  8
0
 62
     0
 10
129.9775686084171
 20
83.973039439255984
 30
0.0
 11
129.9775686084171
 21
83.973039439255984
 31
0.0
  0
LINE
  5
1FC6
  8
0
 62
     0
 10
129.9775686084171
 20
86.751164439256016
 30
0.0
 11
129.9775686084171
 21
86.751164439256016
 31
0.0
  0
LINE
  5
1FC7
  8
0
 62
     0
 10
129.9775686084171
 20
89.529289439256004
 30
0.0
 11
129.9775686084171
 21
89.529289439256004
 31
0.0
  0
LINE
  5
1FC8
  8
0
 62
     0
 10
129.9775686084171
 20
64.526164439255979
 30
0.0
 11
129.9775686084171
 21
64.526164439255979
 31
0.0
  0
LINE
  5
1FC9
  8
0
 62
     0
 10
129.9775686084171
 20
67.304289439255982
 30
0.0
 11
129.9775686084171
 21
67.304289439255982
 31
0.0
  0
LINE
  5
1FCA
  8
0
 62
     0
 10
129.9775686084171
 20
70.082414439255984
 30
0.0
 11
129.9775686084171
 21
70.082414439255984
 31
0.0
  0
LINE
  5
1FCB
  8
0
 62
     0
 10
129.9775686084171
 20
72.860539439255973
 30
0.0
 11
129.9775686084171
 21
72.860539439255973
 31
0.0
  0
LINE
  5
1FCC
  8
0
 62
     0
 10
129.9775686084171
 20
75.63866443925599
 30
0.0
 11
129.9775686084171
 21
75.63866443925599
 31
0.0
  0
LINE
  5
1FCD
  8
0
 62
     0
 10
129.9775686084171
 20
78.416789439255993
 30
0.0
 11
129.9775686084171
 21
78.416789439255993
 31
0.0
  0
LINE
  5
1FCE
  8
0
 62
     0
 10
129.9775686084171
 20
92.307414439255979
 30
0.0
 11
129.9775686084171
 21
92.307414439255979
 31
0.0
  0
LINE
  5
1FCF
  8
0
 62
     0
 10
129.9775686084171
 20
95.085539439255982
 30
0.0
 11
129.9775686084171
 21
95.085539439255982
 31
0.0
  0
LINE
  5
1FD0
  8
0
 62
     0
 10
129.9775686084171
 20
97.863664439255984
 30
0.0
 11
129.9775686084171
 21
97.863664439255984
 31
0.0
  0
LINE
  5
1FD1
  8
0
 62
     0
 10
129.9775686084171
 20
100.641789439256
 30
0.0
 11
129.9775686084171
 21
100.641789439256
 31
0.0
  0
LINE
  5
1FD2
  8
0
 62
     0
 10
129.9775686084171
 20
103.419914439256
 30
0.0
 11
129.9775686084171
 21
103.419914439256
 31
0.0
  0
LINE
  5
1FD3
  8
0
 62
     0
 10
129.9775686084171
 20
106.19803943925599
 30
0.0
 11
129.9775686084171
 21
106.19803943925599
 31
0.0
  0
LINE
  5
1FD4
  8
0
 62
     0
 10
132.75569360841709
 20
79.805851939255959
 30
0.0
 11
132.75569360841709
 21
79.805851939255959
 31
0.0
  0
LINE
  5
1FD5
  8
0
 62
     0
 10
132.75569360841709
 20
82.583976939255962
 30
0.0
 11
132.75569360841709
 21
82.583976939255962
 31
0.0
  0
LINE
  5
1FD6
  8
0
 62
     0
 10
132.75569360841709
 20
85.362101939255965
 30
0.0
 11
132.75569360841709
 21
85.362101939255965
 31
0.0
  0
LINE
  5
1FD7
  8
0
 62
     0
 10
132.75569360841709
 20
88.140226939255967
 30
0.0
 11
132.75569360841709
 21
88.140226939255967
 31
0.0
  0
LINE
  5
1FD8
  8
0
 62
     0
 10
132.75569360841709
 20
90.91835193925597
 30
0.0
 11
132.75569360841709
 21
90.91835193925597
 31
0.0
  0
LINE
  5
1FD9
  8
0
 62
     0
 10
132.75569360841709
 20
68.693351939255962
 30
0.0
 11
132.75569360841709
 21
68.693351939255962
 31
0.0
  0
LINE
  5
1FDA
  8
0
 62
     0
 10
132.75569360841709
 20
71.471476939255965
 30
0.0
 11
132.75569360841709
 21
71.471476939255965
 31
0.0
  0
LINE
  5
1FDB
  8
0
 62
     0
 10
132.75569360841709
 20
74.249601939255953
 30
0.0
 11
132.75569360841709
 21
74.249601939255953
 31
0.0
  0
LINE
  5
1FDC
  8
0
 62
     0
 10
132.75569360841709
 20
77.02772693925597
 30
0.0
 11
132.75569360841709
 21
77.02772693925597
 31
0.0
  0
LINE
  5
1FDD
  8
0
 62
     0
 10
132.75569360841709
 20
93.696476939255973
 30
0.0
 11
132.75569360841709
 21
93.696476939255973
 31
0.0
  0
LINE
  5
1FDE
  8
0
 62
     0
 10
132.75569360841709
 20
96.474601939255976
 30
0.0
 11
132.75569360841709
 21
96.474601939255976
 31
0.0
  0
LINE
  5
1FDF
  8
0
 62
     0
 10
132.75569360841709
 20
99.252726939255993
 30
0.0
 11
132.75569360841709
 21
99.252726939255993
 31
0.0
  0
LINE
  5
1FE0
  8
0
 62
     0
 10
132.75569360841709
 20
102.030851939256
 30
0.0
 11
132.75569360841709
 21
102.030851939256
 31
0.0
  0
LINE
  5
1FE1
  8
0
 62
     0
 10
135.53381860841711
 20
81.194914439255939
 30
0.0
 11
135.53381860841711
 21
81.194914439255939
 31
0.0
  0
LINE
  5
1FE2
  8
0
 62
     0
 10
135.53381860841711
 20
83.973039439255942
 30
0.0
 11
135.53381860841711
 21
83.973039439255942
 31
0.0
  0
LINE
  5
1FE3
  8
0
 62
     0
 10
135.53381860841711
 20
86.751164439255945
 30
0.0
 11
135.53381860841711
 21
86.751164439255945
 31
0.0
  0
LINE
  5
1FE4
  8
0
 62
     0
 10
135.53381860841711
 20
89.529289439255948
 30
0.0
 11
135.53381860841711
 21
89.529289439255948
 31
0.0
  0
LINE
  5
1FE5
  8
0
 62
     0
 10
135.53381860841711
 20
70.082414439255956
 30
0.0
 11
135.53381860841711
 21
70.082414439255956
 31
0.0
  0
LINE
  5
1FE6
  8
0
 62
     0
 10
135.53381860841711
 20
72.860539439255959
 30
0.0
 11
135.53381860841711
 21
72.860539439255959
 31
0.0
  0
LINE
  5
1FE7
  8
0
 62
     0
 10
135.53381860841711
 20
75.638664439255962
 30
0.0
 11
135.53381860841711
 21
75.638664439255962
 31
0.0
  0
LINE
  5
1FE8
  8
0
 62
     0
 10
135.53381860841711
 20
78.416789439255965
 30
0.0
 11
135.53381860841711
 21
78.416789439255965
 31
0.0
  0
LINE
  5
1FE9
  8
0
 62
     0
 10
135.53381860841711
 20
92.30741443925595
 30
0.0
 11
135.53381860841711
 21
92.30741443925595
 31
0.0
  0
LINE
  5
1FEA
  8
0
 62
     0
 10
135.53381860841711
 20
95.085539439255953
 30
0.0
 11
135.53381860841711
 21
95.085539439255953
 31
0.0
  0
LINE
  5
1FEB
  8
0
 62
     0
 10
135.53381860841711
 20
97.863664439255956
 30
0.0
 11
135.53381860841711
 21
97.863664439255956
 31
0.0
  0
LINE
  5
1FEC
  8
0
 62
     0
 10
135.53381860841711
 20
100.6417894392559
 30
0.0
 11
135.53381860841711
 21
100.6417894392559
 31
0.0
  0
LINE
  5
1FED
  8
0
 62
     0
 10
138.3119436084171
 20
79.805851939255973
 30
0.0
 11
138.3119436084171
 21
79.805851939255973
 31
0.0
  0
LINE
  5
1FEE
  8
0
 62
     0
 10
138.3119436084171
 20
82.583976939256004
 30
0.0
 11
138.3119436084171
 21
82.583976939256004
 31
0.0
  0
LINE
  5
1FEF
  8
0
 62
     0
 10
138.3119436084171
 20
85.362101939255993
 30
0.0
 11
138.3119436084171
 21
85.362101939255993
 31
0.0
  0
LINE
  5
1FF0
  8
0
 62
     0
 10
138.3119436084171
 20
88.140226939255996
 30
0.0
 11
138.3119436084171
 21
88.140226939255996
 31
0.0
  0
LINE
  5
1FF1
  8
0
 62
     0
 10
138.3119436084171
 20
90.918351939255999
 30
0.0
 11
138.3119436084171
 21
90.918351939255999
 31
0.0
  0
LINE
  5
1FF2
  8
0
 62
     0
 10
138.3119436084171
 20
68.69335193925599
 30
0.0
 11
138.3119436084171
 21
68.69335193925599
 31
0.0
  0
LINE
  5
1FF3
  8
0
 62
     0
 10
138.3119436084171
 20
71.471476939255993
 30
0.0
 11
138.3119436084171
 21
71.471476939255993
 31
0.0
  0
LINE
  5
1FF4
  8
0
 62
     0
 10
138.3119436084171
 20
74.249601939255996
 30
0.0
 11
138.3119436084171
 21
74.249601939255996
 31
0.0
  0
LINE
  5
1FF5
  8
0
 62
     0
 10
138.3119436084171
 20
77.027726939255999
 30
0.0
 11
138.3119436084171
 21
77.027726939255999
 31
0.0
  0
LINE
  5
1FF6
  8
0
 62
     0
 10
138.3119436084171
 20
93.696476939255973
 30
0.0
 11
138.3119436084171
 21
93.696476939255973
 31
0.0
  0
LINE
  5
1FF7
  8
0
 62
     0
 10
138.3119436084171
 20
96.474601939255976
 30
0.0
 11
138.3119436084171
 21
96.474601939255976
 31
0.0
  0
LINE
  5
1FF8
  8
0
 62
     0
 10
138.3119436084171
 20
99.252726939255993
 30
0.0
 11
138.3119436084171
 21
99.252726939255993
 31
0.0
  0
LINE
  5
1FF9
  8
0
 62
     0
 10
138.3119436084171
 20
102.030851939256
 30
0.0
 11
138.3119436084171
 21
102.030851939256
 31
0.0
  0
LINE
  5
1FFA
  8
0
 62
     0
 10
141.09006860841711
 20
81.194914439256024
 30
0.0
 11
141.09006860841711
 21
81.194914439256024
 31
0.0
  0
LINE
  5
1FFB
  8
0
 62
     0
 10
141.09006860841711
 20
83.973039439256027
 30
0.0
 11
141.09006860841711
 21
83.973039439256027
 31
0.0
  0
LINE
  5
1FFC
  8
0
 62
     0
 10
141.09006860841711
 20
86.751164439256016
 30
0.0
 11
141.09006860841711
 21
86.751164439256016
 31
0.0
  0
LINE
  5
1FFD
  8
0
 62
     0
 10
141.09006860841711
 20
89.529289439256047
 30
0.0
 11
141.09006860841711
 21
89.529289439256047
 31
0.0
  0
LINE
  5
1FFE
  8
0
 62
     0
 10
141.09006860841711
 20
70.082414439256013
 30
0.0
 11
141.09006860841711
 21
70.082414439256013
 31
0.0
  0
LINE
  5
1FFF
  8
0
 62
     0
 10
141.09006860841711
 20
72.860539439256016
 30
0.0
 11
141.09006860841711
 21
72.860539439256016
 31
0.0
  0
LINE
  5
2000
  8
0
 62
     0
 10
141.09006860841711
 20
75.638664439256019
 30
0.0
 11
141.09006860841711
 21
75.638664439256019
 31
0.0
  0
LINE
  5
2001
  8
0
 62
     0
 10
141.09006860841711
 20
78.416789439256021
 30
0.0
 11
141.09006860841711
 21
78.416789439256021
 31
0.0
  0
LINE
  5
2002
  8
0
 62
     0
 10
141.09006860841711
 20
92.307414439255993
 30
0.0
 11
141.09006860841711
 21
92.307414439255993
 31
0.0
  0
LINE
  5
2003
  8
0
 62
     0
 10
141.09006860841711
 20
95.08553943925601
 30
0.0
 11
141.09006860841711
 21
95.08553943925601
 31
0.0
  0
LINE
  5
2004
  8
0
 62
     0
 10
141.09006860841711
 20
97.863664439256013
 30
0.0
 11
141.09006860841711
 21
97.863664439256013
 31
0.0
  0
LINE
  5
2005
  8
0
 62
     0
 10
141.09006860841711
 20
100.641789439256
 30
0.0
 11
141.09006860841711
 21
100.641789439256
 31
0.0
  0
LINE
  5
2006
  8
0
 62
     0
 10
143.8681936084171
 20
79.805851939255973
 30
0.0
 11
143.8681936084171
 21
79.805851939255973
 31
0.0
  0
LINE
  5
2007
  8
0
 62
     0
 10
143.8681936084171
 20
82.583976939256004
 30
0.0
 11
143.8681936084171
 21
82.583976939256004
 31
0.0
  0
LINE
  5
2008
  8
0
 62
     0
 10
143.8681936084171
 20
85.362101939255993
 30
0.0
 11
143.8681936084171
 21
85.362101939255993
 31
0.0
  0
LINE
  5
2009
  8
0
 62
     0
 10
143.8681936084171
 20
88.140226939255996
 30
0.0
 11
143.8681936084171
 21
88.140226939255996
 31
0.0
  0
LINE
  5
200A
  8
0
 62
     0
 10
143.8681936084171
 20
90.918351939255999
 30
0.0
 11
143.8681936084171
 21
90.918351939255999
 31
0.0
  0
LINE
  5
200B
  8
0
 62
     0
 10
143.8681936084171
 20
68.69335193925599
 30
0.0
 11
143.8681936084171
 21
68.69335193925599
 31
0.0
  0
LINE
  5
200C
  8
0
 62
     0
 10
143.8681936084171
 20
71.471476939255993
 30
0.0
 11
143.8681936084171
 21
71.471476939255993
 31
0.0
  0
LINE
  5
200D
  8
0
 62
     0
 10
143.8681936084171
 20
74.249601939255996
 30
0.0
 11
143.8681936084171
 21
74.249601939255996
 31
0.0
  0
LINE
  5
200E
  8
0
 62
     0
 10
143.8681936084171
 20
77.027726939255999
 30
0.0
 11
143.8681936084171
 21
77.027726939255999
 31
0.0
  0
LINE
  5
200F
  8
0
 62
     0
 10
143.8681936084171
 20
93.696476939256002
 30
0.0
 11
143.8681936084171
 21
93.696476939256002
 31
0.0
  0
LINE
  5
2010
  8
0
 62
     0
 10
143.8681936084171
 20
96.474601939256004
 30
0.0
 11
143.8681936084171
 21
96.474601939256004
 31
0.0
  0
LINE
  5
2011
  8
0
 62
     0
 10
143.8681936084171
 20
99.252726939256007
 30
0.0
 11
143.8681936084171
 21
99.252726939256007
 31
0.0
  0
LINE
  5
2012
  8
0
 62
     0
 10
143.8681936084171
 20
102.030851939256
 30
0.0
 11
143.8681936084171
 21
102.030851939256
 31
0.0
  0
LINE
  5
2013
  8
0
 62
     0
 10
146.64631860841709
 20
81.194914439255953
 30
0.0
 11
146.64631860841709
 21
81.194914439255953
 31
0.0
  0
LINE
  5
2014
  8
0
 62
     0
 10
146.64631860841709
 20
83.973039439255984
 30
0.0
 11
146.64631860841709
 21
83.973039439255984
 31
0.0
  0
LINE
  5
2015
  8
0
 62
     0
 10
146.64631860841709
 20
86.751164439255973
 30
0.0
 11
146.64631860841709
 21
86.751164439255973
 31
0.0
  0
LINE
  5
2016
  8
0
 62
     0
 10
146.64631860841709
 20
89.529289439255976
 30
0.0
 11
146.64631860841709
 21
89.529289439255976
 31
0.0
  0
LINE
  5
2017
  8
0
 62
     0
 10
146.64631860841709
 20
70.082414439255984
 30
0.0
 11
146.64631860841709
 21
70.082414439255984
 31
0.0
  0
LINE
  5
2018
  8
0
 62
     0
 10
146.64631860841709
 20
72.860539439255973
 30
0.0
 11
146.64631860841709
 21
72.860539439255973
 31
0.0
  0
LINE
  5
2019
  8
0
 62
     0
 10
146.64631860841709
 20
75.63866443925599
 30
0.0
 11
146.64631860841709
 21
75.63866443925599
 31
0.0
  0
LINE
  5
201A
  8
0
 62
     0
 10
146.64631860841709
 20
78.416789439255993
 30
0.0
 11
146.64631860841709
 21
78.416789439255993
 31
0.0
  0
LINE
  5
201B
  8
0
 62
     0
 10
146.64631860841709
 20
92.307414439255979
 30
0.0
 11
146.64631860841709
 21
92.307414439255979
 31
0.0
  0
LINE
  5
201C
  8
0
 62
     0
 10
146.64631860841709
 20
95.085539439255982
 30
0.0
 11
146.64631860841709
 21
95.085539439255982
 31
0.0
  0
LINE
  5
201D
  8
0
 62
     0
 10
146.64631860841709
 20
97.863664439255984
 30
0.0
 11
146.64631860841709
 21
97.863664439255984
 31
0.0
  0
LINE
  5
201E
  8
0
 62
     0
 10
146.64631860841709
 20
100.641789439256
 30
0.0
 11
146.64631860841709
 21
100.641789439256
 31
0.0
  0
LINE
  5
201F
  8
0
 62
     0
 10
149.42444360841711
 20
79.805851939255959
 30
0.0
 11
149.42444360841711
 21
79.805851939255959
 31
0.0
  0
LINE
  5
2020
  8
0
 62
     0
 10
149.42444360841711
 20
82.583976939255962
 30
0.0
 11
149.42444360841711
 21
82.583976939255962
 31
0.0
  0
LINE
  5
2021
  8
0
 62
     0
 10
149.42444360841711
 20
85.362101939255965
 30
0.0
 11
149.42444360841711
 21
85.362101939255965
 31
0.0
  0
LINE
  5
2022
  8
0
 62
     0
 10
149.42444360841711
 20
88.140226939255967
 30
0.0
 11
149.42444360841711
 21
88.140226939255967
 31
0.0
  0
LINE
  5
2023
  8
0
 62
     0
 10
149.42444360841711
 20
90.91835193925597
 30
0.0
 11
149.42444360841711
 21
90.91835193925597
 31
0.0
  0
LINE
  5
2024
  8
0
 62
     0
 10
149.42444360841711
 20
68.693351939255962
 30
0.0
 11
149.42444360841711
 21
68.693351939255962
 31
0.0
  0
LINE
  5
2025
  8
0
 62
     0
 10
149.42444360841711
 20
71.471476939255965
 30
0.0
 11
149.42444360841711
 21
71.471476939255965
 31
0.0
  0
LINE
  5
2026
  8
0
 62
     0
 10
149.42444360841711
 20
74.249601939255953
 30
0.0
 11
149.42444360841711
 21
74.249601939255953
 31
0.0
  0
LINE
  5
2027
  8
0
 62
     0
 10
149.42444360841711
 20
77.02772693925597
 30
0.0
 11
149.42444360841711
 21
77.02772693925597
 31
0.0
  0
LINE
  5
2028
  8
0
 62
     0
 10
149.42444360841711
 20
93.696476939255945
 30
0.0
 11
149.42444360841711
 21
93.696476939255945
 31
0.0
  0
LINE
  5
2029
  8
0
 62
     0
 10
149.42444360841711
 20
96.474601939255962
 30
0.0
 11
149.42444360841711
 21
96.474601939255962
 31
0.0
  0
LINE
  5
202A
  8
0
 62
     0
 10
149.42444360841711
 20
99.25272693925595
 30
0.0
 11
149.42444360841711
 21
99.25272693925595
 31
0.0
  0
LINE
  5
202B
  8
0
 62
     0
 10
149.42444360841711
 20
102.0308519392559
 30
0.0
 11
149.42444360841711
 21
102.0308519392559
 31
0.0
  0
LINE
  5
202C
  8
0
 62
     0
 10
152.2025686084171
 20
81.194914439255996
 30
0.0
 11
152.2025686084171
 21
81.194914439255996
 31
0.0
  0
LINE
  5
202D
  8
0
 62
     0
 10
152.2025686084171
 20
83.973039439255984
 30
0.0
 11
152.2025686084171
 21
83.973039439255984
 31
0.0
  0
LINE
  5
202E
  8
0
 62
     0
 10
152.2025686084171
 20
86.751164439256016
 30
0.0
 11
152.2025686084171
 21
86.751164439256016
 31
0.0
  0
LINE
  5
202F
  8
0
 62
     0
 10
152.2025686084171
 20
89.529289439256004
 30
0.0
 11
152.2025686084171
 21
89.529289439256004
 31
0.0
  0
LINE
  5
2030
  8
0
 62
     0
 10
152.2025686084171
 20
70.082414439255984
 30
0.0
 11
152.2025686084171
 21
70.082414439255984
 31
0.0
  0
LINE
  5
2031
  8
0
 62
     0
 10
152.2025686084171
 20
72.860539439255973
 30
0.0
 11
152.2025686084171
 21
72.860539439255973
 31
0.0
  0
LINE
  5
2032
  8
0
 62
     0
 10
152.2025686084171
 20
75.63866443925599
 30
0.0
 11
152.2025686084171
 21
75.63866443925599
 31
0.0
  0
LINE
  5
2033
  8
0
 62
     0
 10
152.2025686084171
 20
78.416789439255993
 30
0.0
 11
152.2025686084171
 21
78.416789439255993
 31
0.0
  0
LINE
  5
2034
  8
0
 62
     0
 10
152.2025686084171
 20
92.307414439255979
 30
0.0
 11
152.2025686084171
 21
92.307414439255979
 31
0.0
  0
LINE
  5
2035
  8
0
 62
     0
 10
152.2025686084171
 20
95.085539439255982
 30
0.0
 11
152.2025686084171
 21
95.085539439255982
 31
0.0
  0
LINE
  5
2036
  8
0
 62
     0
 10
152.2025686084171
 20
97.863664439255984
 30
0.0
 11
152.2025686084171
 21
97.863664439255984
 31
0.0
  0
LINE
  5
2037
  8
0
 62
     0
 10
152.2025686084171
 20
100.641789439256
 30
0.0
 11
152.2025686084171
 21
100.641789439256
 31
0.0
  0
ENDBLK
  5
2039
  8
0
  0
BLOCK
  8
0
  2
*X65
 70
     1
 10
0.0
 20
0.0
 30
0.0
  3
*X65
  1

  0
LINE
  5
203B
  8
0
 62
     0
 10
88.305693608417158
 20
79.805851939256016
 30
0.0
 11
88.305693608417158
 21
79.805851939256016
 31
0.0
  0
LINE
  5
203C
  8
0
 62
     0
 10
88.305693608417158
 20
82.583976939256004
 30
0.0
 11
88.305693608417158
 21
82.583976939256004
 31
0.0
  0
LINE
  5
203D
  8
0
 62
     0
 10
88.305693608417158
 20
85.362101939256036
 30
0.0
 11
88.305693608417158
 21
85.362101939256036
 31
0.0
  0
LINE
  5
203E
  8
0
 62
     0
 10
88.305693608417158
 20
88.140226939256024
 30
0.0
 11
88.305693608417158
 21
88.140226939256024
 31
0.0
  0
LINE
  5
203F
  8
0
 62
     0
 10
88.305693608417158
 20
90.918351939256027
 30
0.0
 11
88.305693608417158
 21
90.918351939256027
 31
0.0
  0
LINE
  5
2040
  8
0
 62
     0
 10
88.305693608417158
 20
68.693351939256047
 30
0.0
 11
88.305693608417158
 21
68.693351939256047
 31
0.0
  0
LINE
  5
2041
  8
0
 62
     0
 10
88.305693608417158
 20
71.47147693925605
 30
0.0
 11
88.305693608417158
 21
71.47147693925605
 31
0.0
  0
LINE
  5
2042
  8
0
 62
     0
 10
88.305693608417158
 20
74.249601939256053
 30
0.0
 11
88.305693608417158
 21
74.249601939256053
 31
0.0
  0
LINE
  5
2043
  8
0
 62
     0
 10
88.305693608417158
 20
77.027726939256056
 30
0.0
 11
88.305693608417158
 21
77.027726939256056
 31
0.0
  0
LINE
  5
2044
  8
0
 62
     0
 10
88.305693608417158
 20
93.69647693925603
 30
0.0
 11
88.305693608417158
 21
93.69647693925603
 31
0.0
  0
LINE
  5
2045
  8
0
 62
     0
 10
88.305693608417158
 20
96.474601939256033
 30
0.0
 11
88.305693608417158
 21
96.474601939256033
 31
0.0
  0
LINE
  5
2046
  8
0
 62
     0
 10
88.305693608417158
 20
99.252726939256036
 30
0.0
 11
88.305693608417158
 21
99.252726939256036
 31
0.0
  0
LINE
  5
2047
  8
0
 62
     0
 10
88.305693608417158
 20
102.030851939256
 30
0.0
 11
88.305693608417158
 21
102.030851939256
 31
0.0
  0
LINE
  5
2048
  8
0
 62
     0
 10
91.083818608417147
 20
81.194914439255996
 30
0.0
 11
91.083818608417147
 21
81.194914439255996
 31
0.0
  0
LINE
  5
2049
  8
0
 62
     0
 10
91.083818608417147
 20
83.973039439255984
 30
0.0
 11
91.083818608417147
 21
83.973039439255984
 31
0.0
  0
LINE
  5
204A
  8
0
 62
     0
 10
91.083818608417147
 20
86.751164439256016
 30
0.0
 11
91.083818608417147
 21
86.751164439256016
 31
0.0
  0
LINE
  5
204B
  8
0
 62
     0
 10
91.083818608417147
 20
89.529289439256004
 30
0.0
 11
91.083818608417147
 21
89.529289439256004
 31
0.0
  0
LINE
  5
204C
  8
0
 62
     0
 10
91.083818608417147
 20
70.082414439256013
 30
0.0
 11
91.083818608417147
 21
70.082414439256013
 31
0.0
  0
LINE
  5
204D
  8
0
 62
     0
 10
91.083818608417147
 20
72.860539439256016
 30
0.0
 11
91.083818608417147
 21
72.860539439256016
 31
0.0
  0
LINE
  5
204E
  8
0
 62
     0
 10
91.083818608417147
 20
75.638664439256019
 30
0.0
 11
91.083818608417147
 21
75.638664439256019
 31
0.0
  0
LINE
  5
204F
  8
0
 62
     0
 10
91.083818608417147
 20
78.416789439256021
 30
0.0
 11
91.083818608417147
 21
78.416789439256021
 31
0.0
  0
LINE
  5
2050
  8
0
 62
     0
 10
91.083818608417147
 20
92.307414439255993
 30
0.0
 11
91.083818608417147
 21
92.307414439255993
 31
0.0
  0
LINE
  5
2051
  8
0
 62
     0
 10
91.083818608417147
 20
95.08553943925601
 30
0.0
 11
91.083818608417147
 21
95.08553943925601
 31
0.0
  0
LINE
  5
2052
  8
0
 62
     0
 10
91.083818608417147
 20
97.863664439256013
 30
0.0
 11
91.083818608417147
 21
97.863664439256013
 31
0.0
  0
LINE
  5
2053
  8
0
 62
     0
 10
91.083818608417147
 20
100.641789439256
 30
0.0
 11
91.083818608417147
 21
100.641789439256
 31
0.0
  0
LINE
  5
2054
  8
0
 62
     0
 10
93.861943608417135
 20
79.805851939256044
 30
0.0
 11
93.861943608417135
 21
79.805851939256044
 31
0.0
  0
LINE
  5
2055
  8
0
 62
     0
 10
93.861943608417135
 20
82.583976939256047
 30
0.0
 11
93.861943608417135
 21
82.583976939256047
 31
0.0
  0
LINE
  5
2056
  8
0
 62
     0
 10
93.861943608417135
 20
85.362101939256036
 30
0.0
 11
93.861943608417135
 21
85.362101939256036
 31
0.0
  0
LINE
  5
2057
  8
0
 62
     0
 10
93.861943608417135
 20
88.140226939256067
 30
0.0
 11
93.861943608417135
 21
88.140226939256067
 31
0.0
  0
LINE
  5
2058
  8
0
 62
     0
 10
93.861943608417135
 20
90.918351939256056
 30
0.0
 11
93.861943608417135
 21
90.918351939256056
 31
0.0
  0
LINE
  5
2059
  8
0
 62
     0
 10
93.861943608417135
 20
68.693351939256047
 30
0.0
 11
93.861943608417135
 21
68.693351939256047
 31
0.0
  0
LINE
  5
205A
  8
0
 62
     0
 10
93.861943608417135
 20
71.47147693925605
 30
0.0
 11
93.861943608417135
 21
71.47147693925605
 31
0.0
  0
LINE
  5
205B
  8
0
 62
     0
 10
93.861943608417135
 20
74.249601939256053
 30
0.0
 11
93.861943608417135
 21
74.249601939256053
 31
0.0
  0
LINE
  5
205C
  8
0
 62
     0
 10
93.861943608417135
 20
77.027726939256056
 30
0.0
 11
93.861943608417135
 21
77.027726939256056
 31
0.0
  0
LINE
  5
205D
  8
0
 62
     0
 10
93.861943608417135
 20
93.69647693925603
 30
0.0
 11
93.861943608417135
 21
93.69647693925603
 31
0.0
  0
LINE
  5
205E
  8
0
 62
     0
 10
93.861943608417135
 20
96.474601939256033
 30
0.0
 11
93.861943608417135
 21
96.474601939256033
 31
0.0
  0
LINE
  5
205F
  8
0
 62
     0
 10
93.861943608417135
 20
99.252726939256036
 30
0.0
 11
93.861943608417135
 21
99.252726939256036
 31
0.0
  0
LINE
  5
2060
  8
0
 62
     0
 10
93.861943608417135
 20
102.030851939256
 30
0.0
 11
93.861943608417135
 21
102.030851939256
 31
0.0
  0
LINE
  5
2061
  8
0
 62
     0
 10
96.640068608417124
 20
81.194914439256024
 30
0.0
 11
96.640068608417124
 21
81.194914439256024
 31
0.0
  0
LINE
  5
2062
  8
0
 62
     0
 10
96.640068608417124
 20
83.973039439256027
 30
0.0
 11
96.640068608417124
 21
83.973039439256027
 31
0.0
  0
LINE
  5
2063
  8
0
 62
     0
 10
96.640068608417124
 20
86.751164439256016
 30
0.0
 11
96.640068608417124
 21
86.751164439256016
 31
0.0
  0
LINE
  5
2064
  8
0
 62
     0
 10
96.640068608417124
 20
89.529289439256047
 30
0.0
 11
96.640068608417124
 21
89.529289439256047
 31
0.0
  0
LINE
  5
2065
  8
0
 62
     0
 10
96.640068608417124
 20
70.082414439256013
 30
0.0
 11
96.640068608417124
 21
70.082414439256013
 31
0.0
  0
LINE
  5
2066
  8
0
 62
     0
 10
96.640068608417124
 20
72.860539439256016
 30
0.0
 11
96.640068608417124
 21
72.860539439256016
 31
0.0
  0
LINE
  5
2067
  8
0
 62
     0
 10
96.640068608417124
 20
75.638664439256019
 30
0.0
 11
96.640068608417124
 21
75.638664439256019
 31
0.0
  0
LINE
  5
2068
  8
0
 62
     0
 10
96.640068608417124
 20
78.416789439256021
 30
0.0
 11
96.640068608417124
 21
78.416789439256021
 31
0.0
  0
LINE
  5
2069
  8
0
 62
     0
 10
96.640068608417124
 20
92.307414439255993
 30
0.0
 11
96.640068608417124
 21
92.307414439255993
 31
0.0
  0
LINE
  5
206A
  8
0
 62
     0
 10
96.640068608417124
 20
95.08553943925601
 30
0.0
 11
96.640068608417124
 21
95.08553943925601
 31
0.0
  0
LINE
  5
206B
  8
0
 62
     0
 10
96.640068608417124
 20
97.863664439256013
 30
0.0
 11
96.640068608417124
 21
97.863664439256013
 31
0.0
  0
LINE
  5
206C
  8
0
 62
     0
 10
96.640068608417124
 20
100.641789439256
 30
0.0
 11
96.640068608417124
 21
100.641789439256
 31
0.0
  0
LINE
  5
206D
  8
0
 62
     0
 10
99.418193608417127
 20
79.805851939256044
 30
0.0
 11
99.418193608417127
 21
79.805851939256044
 31
0.0
  0
LINE
  5
206E
  8
0
 62
     0
 10
99.418193608417127
 20
82.583976939256047
 30
0.0
 11
99.418193608417127
 21
82.583976939256047
 31
0.0
  0
LINE
  5
206F
  8
0
 62
     0
 10
99.418193608417127
 20
85.362101939256036
 30
0.0
 11
99.418193608417127
 21
85.362101939256036
 31
0.0
  0
LINE
  5
2070
  8
0
 62
     0
 10
99.418193608417127
 20
88.140226939256067
 30
0.0
 11
99.418193608417127
 21
88.140226939256067
 31
0.0
  0
LINE
  5
2071
  8
0
 62
     0
 10
99.418193608417127
 20
90.918351939256056
 30
0.0
 11
99.418193608417127
 21
90.918351939256056
 31
0.0
  0
LINE
  5
2072
  8
0
 62
     0
 10
99.418193608417127
 20
65.915226939256044
 30
0.0
 11
99.418193608417127
 21
65.915226939256044
 31
0.0
  0
LINE
  5
2073
  8
0
 62
     0
 10
99.418193608417127
 20
68.693351939256047
 30
0.0
 11
99.418193608417127
 21
68.693351939256047
 31
0.0
  0
LINE
  5
2074
  8
0
 62
     0
 10
99.418193608417127
 20
71.47147693925605
 30
0.0
 11
99.418193608417127
 21
71.47147693925605
 31
0.0
  0
LINE
  5
2075
  8
0
 62
     0
 10
99.418193608417127
 20
74.249601939256053
 30
0.0
 11
99.418193608417127
 21
74.249601939256053
 31
0.0
  0
LINE
  5
2076
  8
0
 62
     0
 10
99.418193608417127
 20
77.027726939256056
 30
0.0
 11
99.418193608417127
 21
77.027726939256056
 31
0.0
  0
LINE
  5
2077
  8
0
 62
     0
 10
99.418193608417127
 20
93.696476939256044
 30
0.0
 11
99.418193608417127
 21
93.696476939256044
 31
0.0
  0
LINE
  5
2078
  8
0
 62
     0
 10
99.418193608417127
 20
96.474601939256047
 30
0.0
 11
99.418193608417127
 21
96.474601939256047
 31
0.0
  0
LINE
  5
2079
  8
0
 62
     0
 10
99.418193608417127
 20
99.252726939256064
 30
0.0
 11
99.418193608417127
 21
99.252726939256064
 31
0.0
  0
LINE
  5
207A
  8
0
 62
     0
 10
99.418193608417127
 20
102.030851939256
 30
0.0
 11
99.418193608417127
 21
102.030851939256
 31
0.0
  0
LINE
  5
207B
  8
0
 62
     0
 10
99.418193608417127
 20
104.808976939256
 30
0.0
 11
99.418193608417127
 21
104.808976939256
 31
0.0
  0
LINE
  5
207C
  8
0
 62
     0
 10
102.1963186084171
 20
81.194914439256024
 30
0.0
 11
102.1963186084171
 21
81.194914439256024
 31
0.0
  0
LINE
  5
207D
  8
0
 62
     0
 10
102.1963186084171
 20
83.973039439256027
 30
0.0
 11
102.1963186084171
 21
83.973039439256027
 31
0.0
  0
LINE
  5
207E
  8
0
 62
     0
 10
102.1963186084171
 20
86.751164439256016
 30
0.0
 11
102.1963186084171
 21
86.751164439256016
 31
0.0
  0
LINE
  5
207F
  8
0
 62
     0
 10
102.1963186084171
 20
89.529289439256047
 30
0.0
 11
102.1963186084171
 21
89.529289439256047
 31
0.0
  0
LINE
  5
2080
  8
0
 62
     0
 10
102.1963186084171
 20
64.526164439256007
 30
0.0
 11
102.1963186084171
 21
64.526164439256007
 31
0.0
  0
LINE
  5
2081
  8
0
 62
     0
 10
102.1963186084171
 20
67.30428943925601
 30
0.0
 11
102.1963186084171
 21
67.30428943925601
 31
0.0
  0
LINE
  5
2082
  8
0
 62
     0
 10
102.1963186084171
 20
70.082414439256013
 30
0.0
 11
102.1963186084171
 21
70.082414439256013
 31
0.0
  0
LINE
  5
2083
  8
0
 62
     0
 10
102.1963186084171
 20
72.860539439256016
 30
0.0
 11
102.1963186084171
 21
72.860539439256016
 31
0.0
  0
LINE
  5
2084
  8
0
 62
     0
 10
102.1963186084171
 20
75.638664439256019
 30
0.0
 11
102.1963186084171
 21
75.638664439256019
 31
0.0
  0
LINE
  5
2085
  8
0
 62
     0
 10
102.1963186084171
 20
78.416789439256021
 30
0.0
 11
102.1963186084171
 21
78.416789439256021
 31
0.0
  0
LINE
  5
2086
  8
0
 62
     0
 10
102.1963186084171
 20
92.307414439255993
 30
0.0
 11
102.1963186084171
 21
92.307414439255993
 31
0.0
  0
LINE
  5
2087
  8
0
 62
     0
 10
102.1963186084171
 20
95.08553943925601
 30
0.0
 11
102.1963186084171
 21
95.08553943925601
 31
0.0
  0
LINE
  5
2088
  8
0
 62
     0
 10
102.1963186084171
 20
97.863664439256013
 30
0.0
 11
102.1963186084171
 21
97.863664439256013
 31
0.0
  0
LINE
  5
2089
  8
0
 62
     0
 10
102.1963186084171
 20
100.641789439256
 30
0.0
 11
102.1963186084171
 21
100.641789439256
 31
0.0
  0
LINE
  5
208A
  8
0
 62
     0
 10
102.1963186084171
 20
103.419914439256
 30
0.0
 11
102.1963186084171
 21
103.419914439256
 31
0.0
  0
LINE
  5
208B
  8
0
 62
     0
 10
102.1963186084171
 20
106.19803943925599
 30
0.0
 11
102.1963186084171
 21
106.19803943925599
 31
0.0
  0
LINE
  5
208C
  8
0
 62
     0
 10
104.9744436084171
 20
79.805851939255973
 30
0.0
 11
104.9744436084171
 21
79.805851939255973
 31
0.0
  0
LINE
  5
208D
  8
0
 62
     0
 10
104.9744436084171
 20
82.583976939256004
 30
0.0
 11
104.9744436084171
 21
82.583976939256004
 31
0.0
  0
LINE
  5
208E
  8
0
 62
     0
 10
104.9744436084171
 20
85.362101939255993
 30
0.0
 11
104.9744436084171
 21
85.362101939255993
 31
0.0
  0
LINE
  5
208F
  8
0
 62
     0
 10
104.9744436084171
 20
88.140226939255996
 30
0.0
 11
104.9744436084171
 21
88.140226939255996
 31
0.0
  0
LINE
  5
2090
  8
0
 62
     0
 10
104.9744436084171
 20
90.918351939255999
 30
0.0
 11
104.9744436084171
 21
90.918351939255999
 31
0.0
  0
LINE
  5
2091
  8
0
 62
     0
 10
104.9744436084171
 20
65.915226939255987
 30
0.0
 11
104.9744436084171
 21
65.915226939255987
 31
0.0
  0
LINE
  5
2092
  8
0
 62
     0
 10
104.9744436084171
 20
68.69335193925599
 30
0.0
 11
104.9744436084171
 21
68.69335193925599
 31
0.0
  0
LINE
  5
2093
  8
0
 62
     0
 10
104.9744436084171
 20
71.471476939255993
 30
0.0
 11
104.9744436084171
 21
71.471476939255993
 31
0.0
  0
LINE
  5
2094
  8
0
 62
     0
 10
104.9744436084171
 20
74.249601939255996
 30
0.0
 11
104.9744436084171
 21
74.249601939255996
 31
0.0
  0
LINE
  5
2095
  8
0
 62
     0
 10
104.9744436084171
 20
77.027726939255999
 30
0.0
 11
104.9744436084171
 21
77.027726939255999
 31
0.0
  0
LINE
  5
2096
  8
0
 62
     0
 10
104.9744436084171
 20
93.696476939255973
 30
0.0
 11
104.9744436084171
 21
93.696476939255973
 31
0.0
  0
LINE
  5
2097
  8
0
 62
     0
 10
104.9744436084171
 20
96.47460193925599
 30
0.0
 11
104.9744436084171
 21
96.47460193925599
 31
0.0
  0
LINE
  5
2098
  8
0
 62
     0
 10
104.9744436084171
 20
99.252726939255993
 30
0.0
 11
104.9744436084171
 21
99.252726939255993
 31
0.0
  0
LINE
  5
2099
  8
0
 62
     0
 10
104.9744436084171
 20
102.030851939256
 30
0.0
 11
104.9744436084171
 21
102.030851939256
 31
0.0
  0
LINE
  5
209A
  8
0
 62
     0
 10
104.9744436084171
 20
104.808976939256
 30
0.0
 11
104.9744436084171
 21
104.808976939256
 31
0.0
  0
LINE
  5
209B
  8
0
 62
     0
 10
107.75256860841711
 20
81.194914439256024
 30
0.0
 11
107.75256860841711
 21
81.194914439256024
 31
0.0
  0
LINE
  5
209C
  8
0
 62
     0
 10
107.75256860841711
 20
83.973039439256027
 30
0.0
 11
107.75256860841711
 21
83.973039439256027
 31
0.0
  0
LINE
  5
209D
  8
0
 62
     0
 10
107.75256860841711
 20
86.751164439256016
 30
0.0
 11
107.75256860841711
 21
86.751164439256016
 31
0.0
  0
LINE
  5
209E
  8
0
 62
     0
 10
107.75256860841711
 20
89.529289439256047
 30
0.0
 11
107.75256860841711
 21
89.529289439256047
 31
0.0
  0
LINE
  5
209F
  8
0
 62
     0
 10
107.75256860841711
 20
64.526164439256036
 30
0.0
 11
107.75256860841711
 21
64.526164439256036
 31
0.0
  0
LINE
  5
20A0
  8
0
 62
     0
 10
107.75256860841711
 20
67.304289439256038
 30
0.0
 11
107.75256860841711
 21
67.304289439256038
 31
0.0
  0
LINE
  5
20A1
  8
0
 62
     0
 10
107.75256860841711
 20
70.082414439256041
 30
0.0
 11
107.75256860841711
 21
70.082414439256041
 31
0.0
  0
LINE
  5
20A2
  8
0
 62
     0
 10
107.75256860841711
 20
72.860539439256044
 30
0.0
 11
107.75256860841711
 21
72.860539439256044
 31
0.0
  0
LINE
  5
20A3
  8
0
 62
     0
 10
107.75256860841711
 20
75.638664439256047
 30
0.0
 11
107.75256860841711
 21
75.638664439256047
 31
0.0
  0
LINE
  5
20A4
  8
0
 62
     0
 10
107.75256860841711
 20
78.41678943925605
 30
0.0
 11
107.75256860841711
 21
78.41678943925605
 31
0.0
  0
LINE
  5
20A5
  8
0
 62
     0
 10
107.75256860841711
 20
92.307414439256036
 30
0.0
 11
107.75256860841711
 21
92.307414439256036
 31
0.0
  0
LINE
  5
20A6
  8
0
 62
     0
 10
107.75256860841711
 20
95.085539439256024
 30
0.0
 11
107.75256860841711
 21
95.085539439256024
 31
0.0
  0
LINE
  5
20A7
  8
0
 62
     0
 10
107.75256860841711
 20
97.863664439256041
 30
0.0
 11
107.75256860841711
 21
97.863664439256041
 31
0.0
  0
LINE
  5
20A8
  8
0
 62
     0
 10
107.75256860841711
 20
100.641789439256
 30
0.0
 11
107.75256860841711
 21
100.641789439256
 31
0.0
  0
LINE
  5
20A9
  8
0
 62
     0
 10
107.75256860841711
 20
103.419914439256
 30
0.0
 11
107.75256860841711
 21
103.419914439256
 31
0.0
  0
LINE
  5
20AA
  8
0
 62
     0
 10
107.75256860841711
 20
106.19803943925599
 30
0.0
 11
107.75256860841711
 21
106.19803943925599
 31
0.0
  0
LINE
  5
20AB
  8
0
 62
     0
 10
110.5306936084171
 20
79.805851939256016
 30
0.0
 11
110.5306936084171
 21
79.805851939256016
 31
0.0
  0
LINE
  5
20AC
  8
0
 62
     0
 10
110.5306936084171
 20
82.583976939256004
 30
0.0
 11
110.5306936084171
 21
82.583976939256004
 31
0.0
  0
LINE
  5
20AD
  8
0
 62
     0
 10
110.5306936084171
 20
85.362101939256036
 30
0.0
 11
110.5306936084171
 21
85.362101939256036
 31
0.0
  0
LINE
  5
20AE
  8
0
 62
     0
 10
110.5306936084171
 20
88.140226939256024
 30
0.0
 11
110.5306936084171
 21
88.140226939256024
 31
0.0
  0
LINE
  5
20AF
  8
0
 62
     0
 10
110.5306936084171
 20
90.918351939256027
 30
0.0
 11
110.5306936084171
 21
90.918351939256027
 31
0.0
  0
LINE
  5
20B0
  8
0
 62
     0
 10
110.5306936084171
 20
65.915226939256016
 30
0.0
 11
110.5306936084171
 21
65.915226939256016
 31
0.0
  0
LINE
  5
20B1
  8
0
 62
     0
 10
110.5306936084171
 20
68.693351939256019
 30
0.0
 11
110.5306936084171
 21
68.693351939256019
 31
0.0
  0
LINE
  5
20B2
  8
0
 62
     0
 10
110.5306936084171
 20
71.471476939256021
 30
0.0
 11
110.5306936084171
 21
71.471476939256021
 31
0.0
  0
LINE
  5
20B3
  8
0
 62
     0
 10
110.5306936084171
 20
74.249601939256024
 30
0.0
 11
110.5306936084171
 21
74.249601939256024
 31
0.0
  0
LINE
  5
20B4
  8
0
 62
     0
 10
110.5306936084171
 20
77.027726939256027
 30
0.0
 11
110.5306936084171
 21
77.027726939256027
 31
0.0
  0
LINE
  5
20B5
  8
0
 62
     0
 10
110.5306936084171
 20
93.696476939256016
 30
0.0
 11
110.5306936084171
 21
93.696476939256016
 31
0.0
  0
LINE
  5
20B6
  8
0
 62
     0
 10
110.5306936084171
 20
96.474601939256033
 30
0.0
 11
110.5306936084171
 21
96.474601939256033
 31
0.0
  0
LINE
  5
20B7
  8
0
 62
     0
 10
110.5306936084171
 20
99.252726939256021
 30
0.0
 11
110.5306936084171
 21
99.252726939256021
 31
0.0
  0
LINE
  5
20B8
  8
0
 62
     0
 10
110.5306936084171
 20
102.030851939256
 30
0.0
 11
110.5306936084171
 21
102.030851939256
 31
0.0
  0
LINE
  5
20B9
  8
0
 62
     0
 10
110.5306936084171
 20
104.808976939256
 30
0.0
 11
110.5306936084171
 21
104.808976939256
 31
0.0
  0
LINE
  5
20BA
  8
0
 62
     0
 10
113.3088186084171
 20
81.194914439256053
 30
0.0
 11
113.3088186084171
 21
81.194914439256053
 31
0.0
  0
LINE
  5
20BB
  8
0
 62
     0
 10
113.3088186084171
 20
83.973039439256056
 30
0.0
 11
113.3088186084171
 21
83.973039439256056
 31
0.0
  0
LINE
  5
20BC
  8
0
 62
     0
 10
113.3088186084171
 20
86.751164439256058
 30
0.0
 11
113.3088186084171
 21
86.751164439256058
 31
0.0
  0
LINE
  5
20BD
  8
0
 62
     0
 10
113.3088186084171
 20
89.529289439256061
 30
0.0
 11
113.3088186084171
 21
89.529289439256061
 31
0.0
  0
LINE
  5
20BE
  8
0
 62
     0
 10
113.3088186084171
 20
64.526164439256036
 30
0.0
 11
113.3088186084171
 21
64.526164439256036
 31
0.0
  0
LINE
  5
20BF
  8
0
 62
     0
 10
113.3088186084171
 20
67.304289439256038
 30
0.0
 11
113.3088186084171
 21
67.304289439256038
 31
0.0
  0
LINE
  5
20C0
  8
0
 62
     0
 10
113.3088186084171
 20
70.082414439256041
 30
0.0
 11
113.3088186084171
 21
70.082414439256041
 31
0.0
  0
LINE
  5
20C1
  8
0
 62
     0
 10
113.3088186084171
 20
72.860539439256044
 30
0.0
 11
113.3088186084171
 21
72.860539439256044
 31
0.0
  0
LINE
  5
20C2
  8
0
 62
     0
 10
113.3088186084171
 20
75.638664439256047
 30
0.0
 11
113.3088186084171
 21
75.638664439256047
 31
0.0
  0
LINE
  5
20C3
  8
0
 62
     0
 10
113.3088186084171
 20
78.41678943925605
 30
0.0
 11
113.3088186084171
 21
78.41678943925605
 31
0.0
  0
LINE
  5
20C4
  8
0
 62
     0
 10
113.3088186084171
 20
92.307414439256036
 30
0.0
 11
113.3088186084171
 21
92.307414439256036
 31
0.0
  0
LINE
  5
20C5
  8
0
 62
     0
 10
113.3088186084171
 20
95.085539439256024
 30
0.0
 11
113.3088186084171
 21
95.085539439256024
 31
0.0
  0
LINE
  5
20C6
  8
0
 62
     0
 10
113.3088186084171
 20
97.863664439256041
 30
0.0
 11
113.3088186084171
 21
97.863664439256041
 31
0.0
  0
LINE
  5
20C7
  8
0
 62
     0
 10
113.3088186084171
 20
100.641789439256
 30
0.0
 11
113.3088186084171
 21
100.641789439256
 31
0.0
  0
LINE
  5
20C8
  8
0
 62
     0
 10
113.3088186084171
 20
103.419914439256
 30
0.0
 11
113.3088186084171
 21
103.419914439256
 31
0.0
  0
LINE
  5
20C9
  8
0
 62
     0
 10
113.3088186084171
 20
106.19803943925599
 30
0.0
 11
113.3088186084171
 21
106.19803943925599
 31
0.0
  0
LINE
  5
20CA
  8
0
 62
     0
 10
116.0869436084171
 20
79.805851939255973
 30
0.0
 11
116.0869436084171
 21
79.805851939255973
 31
0.0
  0
LINE
  5
20CB
  8
0
 62
     0
 10
116.0869436084171
 20
82.583976939256004
 30
0.0
 11
116.0869436084171
 21
82.583976939256004
 31
0.0
  0
LINE
  5
20CC
  8
0
 62
     0
 10
116.0869436084171
 20
85.362101939255993
 30
0.0
 11
116.0869436084171
 21
85.362101939255993
 31
0.0
  0
LINE
  5
20CD
  8
0
 62
     0
 10
116.0869436084171
 20
88.140226939255996
 30
0.0
 11
116.0869436084171
 21
88.140226939255996
 31
0.0
  0
LINE
  5
20CE
  8
0
 62
     0
 10
116.0869436084171
 20
90.918351939255999
 30
0.0
 11
116.0869436084171
 21
90.918351939255999
 31
0.0
  0
LINE
  5
20CF
  8
0
 62
     0
 10
116.0869436084171
 20
65.915226939255987
 30
0.0
 11
116.0869436084171
 21
65.915226939255987
 31
0.0
  0
LINE
  5
20D0
  8
0
 62
     0
 10
116.0869436084171
 20
68.69335193925599
 30
0.0
 11
116.0869436084171
 21
68.69335193925599
 31
0.0
  0
LINE
  5
20D1
  8
0
 62
     0
 10
116.0869436084171
 20
71.471476939255993
 30
0.0
 11
116.0869436084171
 21
71.471476939255993
 31
0.0
  0
LINE
  5
20D2
  8
0
 62
     0
 10
116.0869436084171
 20
74.249601939255996
 30
0.0
 11
116.0869436084171
 21
74.249601939255996
 31
0.0
  0
LINE
  5
20D3
  8
0
 62
     0
 10
116.0869436084171
 20
77.027726939255999
 30
0.0
 11
116.0869436084171
 21
77.027726939255999
 31
0.0
  0
LINE
  5
20D4
  8
0
 62
     0
 10
116.0869436084171
 20
93.696476939255973
 30
0.0
 11
116.0869436084171
 21
93.696476939255973
 31
0.0
  0
LINE
  5
20D5
  8
0
 62
     0
 10
116.0869436084171
 20
96.47460193925599
 30
0.0
 11
116.0869436084171
 21
96.47460193925599
 31
0.0
  0
LINE
  5
20D6
  8
0
 62
     0
 10
116.0869436084171
 20
99.252726939255993
 30
0.0
 11
116.0869436084171
 21
99.252726939255993
 31
0.0
  0
LINE
  5
20D7
  8
0
 62
     0
 10
116.0869436084171
 20
102.030851939256
 30
0.0
 11
116.0869436084171
 21
102.030851939256
 31
0.0
  0
LINE
  5
20D8
  8
0
 62
     0
 10
116.0869436084171
 20
104.808976939256
 30
0.0
 11
116.0869436084171
 21
104.808976939256
 31
0.0
  0
LINE
  5
20D9
  8
0
 62
     0
 10
118.8650686084171
 20
81.194914439255953
 30
0.0
 11
118.8650686084171
 21
81.194914439255953
 31
0.0
  0
LINE
  5
20DA
  8
0
 62
     0
 10
118.8650686084171
 20
83.973039439255984
 30
0.0
 11
118.8650686084171
 21
83.973039439255984
 31
0.0
  0
LINE
  5
20DB
  8
0
 62
     0
 10
118.8650686084171
 20
86.751164439255973
 30
0.0
 11
118.8650686084171
 21
86.751164439255973
 31
0.0
  0
LINE
  5
20DC
  8
0
 62
     0
 10
118.8650686084171
 20
89.529289439255976
 30
0.0
 11
118.8650686084171
 21
89.529289439255976
 31
0.0
  0
LINE
  5
20DD
  8
0
 62
     0
 10
118.8650686084171
 20
64.526164439255979
 30
0.0
 11
118.8650686084171
 21
64.526164439255979
 31
0.0
  0
LINE
  5
20DE
  8
0
 62
     0
 10
118.8650686084171
 20
67.304289439255982
 30
0.0
 11
118.8650686084171
 21
67.304289439255982
 31
0.0
  0
LINE
  5
20DF
  8
0
 62
     0
 10
118.8650686084171
 20
70.082414439255984
 30
0.0
 11
118.8650686084171
 21
70.082414439255984
 31
0.0
  0
LINE
  5
20E0
  8
0
 62
     0
 10
118.8650686084171
 20
72.860539439255973
 30
0.0
 11
118.8650686084171
 21
72.860539439255973
 31
0.0
  0
LINE
  5
20E1
  8
0
 62
     0
 10
118.8650686084171
 20
75.63866443925599
 30
0.0
 11
118.8650686084171
 21
75.63866443925599
 31
0.0
  0
LINE
  5
20E2
  8
0
 62
     0
 10
118.8650686084171
 20
78.416789439255993
 30
0.0
 11
118.8650686084171
 21
78.416789439255993
 31
0.0
  0
LINE
  5
20E3
  8
0
 62
     0
 10
118.8650686084171
 20
92.307414439255979
 30
0.0
 11
118.8650686084171
 21
92.307414439255979
 31
0.0
  0
LINE
  5
20E4
  8
0
 62
     0
 10
118.8650686084171
 20
95.085539439255982
 30
0.0
 11
118.8650686084171
 21
95.085539439255982
 31
0.0
  0
LINE
  5
20E5
  8
0
 62
     0
 10
118.8650686084171
 20
97.863664439255984
 30
0.0
 11
118.8650686084171
 21
97.863664439255984
 31
0.0
  0
LINE
  5
20E6
  8
0
 62
     0
 10
118.8650686084171
 20
100.641789439256
 30
0.0
 11
118.8650686084171
 21
100.641789439256
 31
0.0
  0
LINE
  5
20E7
  8
0
 62
     0
 10
118.8650686084171
 20
103.419914439256
 30
0.0
 11
118.8650686084171
 21
103.419914439256
 31
0.0
  0
LINE
  5
20E8
  8
0
 62
     0
 10
118.8650686084171
 20
106.19803943925599
 30
0.0
 11
118.8650686084171
 21
106.19803943925599
 31
0.0
  0
LINE
  5
20E9
  8
0
 62
     0
 10
121.64319360841711
 20
79.805851939255959
 30
0.0
 11
121.64319360841711
 21
79.805851939255959
 31
0.0
  0
LINE
  5
20EA
  8
0
 62
     0
 10
121.64319360841711
 20
82.583976939255962
 30
0.0
 11
121.64319360841711
 21
82.583976939255962
 31
0.0
  0
LINE
  5
20EB
  8
0
 62
     0
 10
121.64319360841711
 20
85.362101939255965
 30
0.0
 11
121.64319360841711
 21
85.362101939255965
 31
0.0
  0
LINE
  5
20EC
  8
0
 62
     0
 10
121.64319360841711
 20
88.140226939255967
 30
0.0
 11
121.64319360841711
 21
88.140226939255967
 31
0.0
  0
LINE
  5
20ED
  8
0
 62
     0
 10
121.64319360841711
 20
90.91835193925597
 30
0.0
 11
121.64319360841711
 21
90.91835193925597
 31
0.0
  0
LINE
  5
20EE
  8
0
 62
     0
 10
121.64319360841711
 20
65.915226939255959
 30
0.0
 11
121.64319360841711
 21
65.915226939255959
 31
0.0
  0
LINE
  5
20EF
  8
0
 62
     0
 10
121.64319360841711
 20
68.693351939255962
 30
0.0
 11
121.64319360841711
 21
68.693351939255962
 31
0.0
  0
LINE
  5
20F0
  8
0
 62
     0
 10
121.64319360841711
 20
71.471476939255965
 30
0.0
 11
121.64319360841711
 21
71.471476939255965
 31
0.0
  0
LINE
  5
20F1
  8
0
 62
     0
 10
121.64319360841711
 20
74.249601939255953
 30
0.0
 11
121.64319360841711
 21
74.249601939255953
 31
0.0
  0
LINE
  5
20F2
  8
0
 62
     0
 10
121.64319360841711
 20
77.02772693925597
 30
0.0
 11
121.64319360841711
 21
77.02772693925597
 31
0.0
  0
LINE
  5
20F3
  8
0
 62
     0
 10
121.64319360841711
 20
93.696476939255959
 30
0.0
 11
121.64319360841711
 21
93.696476939255959
 31
0.0
  0
LINE
  5
20F4
  8
0
 62
     0
 10
121.64319360841711
 20
96.474601939255962
 30
0.0
 11
121.64319360841711
 21
96.474601939255962
 31
0.0
  0
LINE
  5
20F5
  8
0
 62
     0
 10
121.64319360841711
 20
99.252726939255965
 30
0.0
 11
121.64319360841711
 21
99.252726939255965
 31
0.0
  0
LINE
  5
20F6
  8
0
 62
     0
 10
121.64319360841711
 20
102.0308519392559
 30
0.0
 11
121.64319360841711
 21
102.0308519392559
 31
0.0
  0
LINE
  5
20F7
  8
0
 62
     0
 10
121.64319360841711
 20
104.8089769392559
 30
0.0
 11
121.64319360841711
 21
104.8089769392559
 31
0.0
  0
LINE
  5
20F8
  8
0
 62
     0
 10
124.4213186084171
 20
81.194914439255996
 30
0.0
 11
124.4213186084171
 21
81.194914439255996
 31
0.0
  0
LINE
  5
20F9
  8
0
 62
     0
 10
124.4213186084171
 20
83.973039439255984
 30
0.0
 11
124.4213186084171
 21
83.973039439255984
 31
0.0
  0
LINE
  5
20FA
  8
0
 62
     0
 10
124.4213186084171
 20
86.751164439256016
 30
0.0
 11
124.4213186084171
 21
86.751164439256016
 31
0.0
  0
LINE
  5
20FB
  8
0
 62
     0
 10
124.4213186084171
 20
89.529289439256004
 30
0.0
 11
124.4213186084171
 21
89.529289439256004
 31
0.0
  0
LINE
  5
20FC
  8
0
 62
     0
 10
124.4213186084171
 20
64.526164439255979
 30
0.0
 11
124.4213186084171
 21
64.526164439255979
 31
0.0
  0
LINE
  5
20FD
  8
0
 62
     0
 10
124.4213186084171
 20
67.304289439255982
 30
0.0
 11
124.4213186084171
 21
67.304289439255982
 31
0.0
  0
LINE
  5
20FE
  8
0
 62
     0
 10
124.4213186084171
 20
70.082414439255984
 30
0.0
 11
124.4213186084171
 21
70.082414439255984
 31
0.0
  0
LINE
  5
20FF
  8
0
 62
     0
 10
124.4213186084171
 20
72.860539439255973
 30
0.0
 11
124.4213186084171
 21
72.860539439255973
 31
0.0
  0
LINE
  5
2100
  8
0
 62
     0
 10
124.4213186084171
 20
75.63866443925599
 30
0.0
 11
124.4213186084171
 21
75.63866443925599
 31
0.0
  0
LINE
  5
2101
  8
0
 62
     0
 10
124.4213186084171
 20
78.416789439255993
 30
0.0
 11
124.4213186084171
 21
78.416789439255993
 31
0.0
  0
LINE
  5
2102
  8
0
 62
     0
 10
124.4213186084171
 20
92.307414439255979
 30
0.0
 11
124.4213186084171
 21
92.307414439255979
 31
0.0
  0
LINE
  5
2103
  8
0
 62
     0
 10
124.4213186084171
 20
95.085539439255982
 30
0.0
 11
124.4213186084171
 21
95.085539439255982
 31
0.0
  0
LINE
  5
2104
  8
0
 62
     0
 10
124.4213186084171
 20
97.863664439255984
 30
0.0
 11
124.4213186084171
 21
97.863664439255984
 31
0.0
  0
LINE
  5
2105
  8
0
 62
     0
 10
124.4213186084171
 20
100.641789439256
 30
0.0
 11
124.4213186084171
 21
100.641789439256
 31
0.0
  0
LINE
  5
2106
  8
0
 62
     0
 10
124.4213186084171
 20
103.419914439256
 30
0.0
 11
124.4213186084171
 21
103.419914439256
 31
0.0
  0
LINE
  5
2107
  8
0
 62
     0
 10
124.4213186084171
 20
106.19803943925599
 30
0.0
 11
124.4213186084171
 21
106.19803943925599
 31
0.0
  0
LINE
  5
2108
  8
0
 62
     0
 10
127.1994436084171
 20
79.805851939256016
 30
0.0
 11
127.1994436084171
 21
79.805851939256016
 31
0.0
  0
LINE
  5
2109
  8
0
 62
     0
 10
127.1994436084171
 20
82.583976939256004
 30
0.0
 11
127.1994436084171
 21
82.583976939256004
 31
0.0
  0
LINE
  5
210A
  8
0
 62
     0
 10
127.1994436084171
 20
85.362101939256036
 30
0.0
 11
127.1994436084171
 21
85.362101939256036
 31
0.0
  0
LINE
  5
210B
  8
0
 62
     0
 10
127.1994436084171
 20
88.140226939256024
 30
0.0
 11
127.1994436084171
 21
88.140226939256024
 31
0.0
  0
LINE
  5
210C
  8
0
 62
     0
 10
127.1994436084171
 20
90.918351939256027
 30
0.0
 11
127.1994436084171
 21
90.918351939256027
 31
0.0
  0
LINE
  5
210D
  8
0
 62
     0
 10
127.1994436084171
 20
65.915226939256016
 30
0.0
 11
127.1994436084171
 21
65.915226939256016
 31
0.0
  0
LINE
  5
210E
  8
0
 62
     0
 10
127.1994436084171
 20
68.693351939256019
 30
0.0
 11
127.1994436084171
 21
68.693351939256019
 31
0.0
  0
LINE
  5
210F
  8
0
 62
     0
 10
127.1994436084171
 20
71.471476939256021
 30
0.0
 11
127.1994436084171
 21
71.471476939256021
 31
0.0
  0
LINE
  5
2110
  8
0
 62
     0
 10
127.1994436084171
 20
74.249601939256024
 30
0.0
 11
127.1994436084171
 21
74.249601939256024
 31
0.0
  0
LINE
  5
2111
  8
0
 62
     0
 10
127.1994436084171
 20
77.027726939256027
 30
0.0
 11
127.1994436084171
 21
77.027726939256027
 31
0.0
  0
LINE
  5
2112
  8
0
 62
     0
 10
127.1994436084171
 20
93.696476939256016
 30
0.0
 11
127.1994436084171
 21
93.696476939256016
 31
0.0
  0
LINE
  5
2113
  8
0
 62
     0
 10
127.1994436084171
 20
96.474601939256033
 30
0.0
 11
127.1994436084171
 21
96.474601939256033
 31
0.0
  0
LINE
  5
2114
  8
0
 62
     0
 10
127.1994436084171
 20
99.252726939256021
 30
0.0
 11
127.1994436084171
 21
99.252726939256021
 31
0.0
  0
LINE
  5
2115
  8
0
 62
     0
 10
127.1994436084171
 20
102.030851939256
 30
0.0
 11
127.1994436084171
 21
102.030851939256
 31
0.0
  0
LINE
  5
2116
  8
0
 62
     0
 10
127.1994436084171
 20
104.808976939256
 30
0.0
 11
127.1994436084171
 21
104.808976939256
 31
0.0
  0
LINE
  5
2117
  8
0
 62
     0
 10
129.9775686084171
 20
81.194914439255996
 30
0.0
 11
129.9775686084171
 21
81.194914439255996
 31
0.0
  0
LINE
  5
2118
  8
0
 62
     0
 10
129.9775686084171
 20
83.973039439255984
 30
0.0
 11
129.9775686084171
 21
83.973039439255984
 31
0.0
  0
LINE
  5
2119
  8
0
 62
     0
 10
129.9775686084171
 20
86.751164439256016
 30
0.0
 11
129.9775686084171
 21
86.751164439256016
 31
0.0
  0
LINE
  5
211A
  8
0
 62
     0
 10
129.9775686084171
 20
89.529289439256004
 30
0.0
 11
129.9775686084171
 21
89.529289439256004
 31
0.0
  0
LINE
  5
211B
  8
0
 62
     0
 10
129.9775686084171
 20
64.526164439255979
 30
0.0
 11
129.9775686084171
 21
64.526164439255979
 31
0.0
  0
LINE
  5
211C
  8
0
 62
     0
 10
129.9775686084171
 20
67.304289439255982
 30
0.0
 11
129.9775686084171
 21
67.304289439255982
 31
0.0
  0
LINE
  5
211D
  8
0
 62
     0
 10
129.9775686084171
 20
70.082414439255984
 30
0.0
 11
129.9775686084171
 21
70.082414439255984
 31
0.0
  0
LINE
  5
211E
  8
0
 62
     0
 10
129.9775686084171
 20
72.860539439255973
 30
0.0
 11
129.9775686084171
 21
72.860539439255973
 31
0.0
  0
LINE
  5
211F
  8
0
 62
     0
 10
129.9775686084171
 20
75.63866443925599
 30
0.0
 11
129.9775686084171
 21
75.63866443925599
 31
0.0
  0
LINE
  5
2120
  8
0
 62
     0
 10
129.9775686084171
 20
78.416789439255993
 30
0.0
 11
129.9775686084171
 21
78.416789439255993
 31
0.0
  0
LINE
  5
2121
  8
0
 62
     0
 10
129.9775686084171
 20
92.307414439255979
 30
0.0
 11
129.9775686084171
 21
92.307414439255979
 31
0.0
  0
LINE
  5
2122
  8
0
 62
     0
 10
129.9775686084171
 20
95.085539439255982
 30
0.0
 11
129.9775686084171
 21
95.085539439255982
 31
0.0
  0
LINE
  5
2123
  8
0
 62
     0
 10
129.9775686084171
 20
97.863664439255984
 30
0.0
 11
129.9775686084171
 21
97.863664439255984
 31
0.0
  0
LINE
  5
2124
  8
0
 62
     0
 10
129.9775686084171
 20
100.641789439256
 30
0.0
 11
129.9775686084171
 21
100.641789439256
 31
0.0
  0
LINE
  5
2125
  8
0
 62
     0
 10
129.9775686084171
 20
103.419914439256
 30
0.0
 11
129.9775686084171
 21
103.419914439256
 31
0.0
  0
LINE
  5
2126
  8
0
 62
     0
 10
129.9775686084171
 20
106.19803943925599
 30
0.0
 11
129.9775686084171
 21
106.19803943925599
 31
0.0
  0
LINE
  5
2127
  8
0
 62
     0
 10
132.75569360841709
 20
79.805851939255959
 30
0.0
 11
132.75569360841709
 21
79.805851939255959
 31
0.0
  0
LINE
  5
2128
  8
0
 62
     0
 10
132.75569360841709
 20
82.583976939255962
 30
0.0
 11
132.75569360841709
 21
82.583976939255962
 31
0.0
  0
LINE
  5
2129
  8
0
 62
     0
 10
132.75569360841709
 20
85.362101939255965
 30
0.0
 11
132.75569360841709
 21
85.362101939255965
 31
0.0
  0
LINE
  5
212A
  8
0
 62
     0
 10
132.75569360841709
 20
88.140226939255967
 30
0.0
 11
132.75569360841709
 21
88.140226939255967
 31
0.0
  0
LINE
  5
212B
  8
0
 62
     0
 10
132.75569360841709
 20
90.91835193925597
 30
0.0
 11
132.75569360841709
 21
90.91835193925597
 31
0.0
  0
LINE
  5
212C
  8
0
 62
     0
 10
132.75569360841709
 20
68.693351939255962
 30
0.0
 11
132.75569360841709
 21
68.693351939255962
 31
0.0
  0
LINE
  5
212D
  8
0
 62
     0
 10
132.75569360841709
 20
71.471476939255965
 30
0.0
 11
132.75569360841709
 21
71.471476939255965
 31
0.0
  0
LINE
  5
212E
  8
0
 62
     0
 10
132.75569360841709
 20
74.249601939255953
 30
0.0
 11
132.75569360841709
 21
74.249601939255953
 31
0.0
  0
LINE
  5
212F
  8
0
 62
     0
 10
132.75569360841709
 20
77.02772693925597
 30
0.0
 11
132.75569360841709
 21
77.02772693925597
 31
0.0
  0
LINE
  5
2130
  8
0
 62
     0
 10
132.75569360841709
 20
93.696476939255973
 30
0.0
 11
132.75569360841709
 21
93.696476939255973
 31
0.0
  0
LINE
  5
2131
  8
0
 62
     0
 10
132.75569360841709
 20
96.474601939255976
 30
0.0
 11
132.75569360841709
 21
96.474601939255976
 31
0.0
  0
LINE
  5
2132
  8
0
 62
     0
 10
132.75569360841709
 20
99.252726939255993
 30
0.0
 11
132.75569360841709
 21
99.252726939255993
 31
0.0
  0
LINE
  5
2133
  8
0
 62
     0
 10
132.75569360841709
 20
102.030851939256
 30
0.0
 11
132.75569360841709
 21
102.030851939256
 31
0.0
  0
LINE
  5
2134
  8
0
 62
     0
 10
135.53381860841711
 20
81.194914439255939
 30
0.0
 11
135.53381860841711
 21
81.194914439255939
 31
0.0
  0
LINE
  5
2135
  8
0
 62
     0
 10
135.53381860841711
 20
83.973039439255942
 30
0.0
 11
135.53381860841711
 21
83.973039439255942
 31
0.0
  0
LINE
  5
2136
  8
0
 62
     0
 10
135.53381860841711
 20
86.751164439255945
 30
0.0
 11
135.53381860841711
 21
86.751164439255945
 31
0.0
  0
LINE
  5
2137
  8
0
 62
     0
 10
135.53381860841711
 20
89.529289439255948
 30
0.0
 11
135.53381860841711
 21
89.529289439255948
 31
0.0
  0
LINE
  5
2138
  8
0
 62
     0
 10
135.53381860841711
 20
70.082414439255956
 30
0.0
 11
135.53381860841711
 21
70.082414439255956
 31
0.0
  0
LINE
  5
2139
  8
0
 62
     0
 10
135.53381860841711
 20
72.860539439255959
 30
0.0
 11
135.53381860841711
 21
72.860539439255959
 31
0.0
  0
LINE
  5
213A
  8
0
 62
     0
 10
135.53381860841711
 20
75.638664439255962
 30
0.0
 11
135.53381860841711
 21
75.638664439255962
 31
0.0
  0
LINE
  5
213B
  8
0
 62
     0
 10
135.53381860841711
 20
78.416789439255965
 30
0.0
 11
135.53381860841711
 21
78.416789439255965
 31
0.0
  0
LINE
  5
213C
  8
0
 62
     0
 10
135.53381860841711
 20
92.30741443925595
 30
0.0
 11
135.53381860841711
 21
92.30741443925595
 31
0.0
  0
LINE
  5
213D
  8
0
 62
     0
 10
135.53381860841711
 20
95.085539439255953
 30
0.0
 11
135.53381860841711
 21
95.085539439255953
 31
0.0
  0
LINE
  5
213E
  8
0
 62
     0
 10
135.53381860841711
 20
97.863664439255956
 30
0.0
 11
135.53381860841711
 21
97.863664439255956
 31
0.0
  0
LINE
  5
213F
  8
0
 62
     0
 10
135.53381860841711
 20
100.6417894392559
 30
0.0
 11
135.53381860841711
 21
100.6417894392559
 31
0.0
  0
LINE
  5
2140
  8
0
 62
     0
 10
138.3119436084171
 20
79.805851939255973
 30
0.0
 11
138.3119436084171
 21
79.805851939255973
 31
0.0
  0
LINE
  5
2141
  8
0
 62
     0
 10
138.3119436084171
 20
82.583976939256004
 30
0.0
 11
138.3119436084171
 21
82.583976939256004
 31
0.0
  0
LINE
  5
2142
  8
0
 62
     0
 10
138.3119436084171
 20
85.362101939255993
 30
0.0
 11
138.3119436084171
 21
85.362101939255993
 31
0.0
  0
LINE
  5
2143
  8
0
 62
     0
 10
138.3119436084171
 20
88.140226939255996
 30
0.0
 11
138.3119436084171
 21
88.140226939255996
 31
0.0
  0
LINE
  5
2144
  8
0
 62
     0
 10
138.3119436084171
 20
90.918351939255999
 30
0.0
 11
138.3119436084171
 21
90.918351939255999
 31
0.0
  0
LINE
  5
2145
  8
0
 62
     0
 10
138.3119436084171
 20
68.69335193925599
 30
0.0
 11
138.3119436084171
 21
68.69335193925599
 31
0.0
  0
LINE
  5
2146
  8
0
 62
     0
 10
138.3119436084171
 20
71.471476939255993
 30
0.0
 11
138.3119436084171
 21
71.471476939255993
 31
0.0
  0
LINE
  5
2147
  8
0
 62
     0
 10
138.3119436084171
 20
74.249601939255996
 30
0.0
 11
138.3119436084171
 21
74.249601939255996
 31
0.0
  0
LINE
  5
2148
  8
0
 62
     0
 10
138.3119436084171
 20
77.027726939255999
 30
0.0
 11
138.3119436084171
 21
77.027726939255999
 31
0.0
  0
LINE
  5
2149
  8
0
 62
     0
 10
138.3119436084171
 20
93.696476939255973
 30
0.0
 11
138.3119436084171
 21
93.696476939255973
 31
0.0
  0
LINE
  5
214A
  8
0
 62
     0
 10
138.3119436084171
 20
96.474601939255976
 30
0.0
 11
138.3119436084171
 21
96.474601939255976
 31
0.0
  0
LINE
  5
214B
  8
0
 62
     0
 10
138.3119436084171
 20
99.252726939255993
 30
0.0
 11
138.3119436084171
 21
99.252726939255993
 31
0.0
  0
LINE
  5
214C
  8
0
 62
     0
 10
138.3119436084171
 20
102.030851939256
 30
0.0
 11
138.3119436084171
 21
102.030851939256
 31
0.0
  0
LINE
  5
214D
  8
0
 62
     0
 10
141.09006860841711
 20
81.194914439256024
 30
0.0
 11
141.09006860841711
 21
81.194914439256024
 31
0.0
  0
LINE
  5
214E
  8
0
 62
     0
 10
141.09006860841711
 20
83.973039439256027
 30
0.0
 11
141.09006860841711
 21
83.973039439256027
 31
0.0
  0
LINE
  5
214F
  8
0
 62
     0
 10
141.09006860841711
 20
86.751164439256016
 30
0.0
 11
141.09006860841711
 21
86.751164439256016
 31
0.0
  0
LINE
  5
2150
  8
0
 62
     0
 10
141.09006860841711
 20
89.529289439256047
 30
0.0
 11
141.09006860841711
 21
89.529289439256047
 31
0.0
  0
LINE
  5
2151
  8
0
 62
     0
 10
141.09006860841711
 20
70.082414439256013
 30
0.0
 11
141.09006860841711
 21
70.082414439256013
 31
0.0
  0
LINE
  5
2152
  8
0
 62
     0
 10
141.09006860841711
 20
72.860539439256016
 30
0.0
 11
141.09006860841711
 21
72.860539439256016
 31
0.0
  0
LINE
  5
2153
  8
0
 62
     0
 10
141.09006860841711
 20
75.638664439256019
 30
0.0
 11
141.09006860841711
 21
75.638664439256019
 31
0.0
  0
LINE
  5
2154
  8
0
 62
     0
 10
141.09006860841711
 20
78.416789439256021
 30
0.0
 11
141.09006860841711
 21
78.416789439256021
 31
0.0
  0
LINE
  5
2155
  8
0
 62
     0
 10
141.09006860841711
 20
92.307414439255993
 30
0.0
 11
141.09006860841711
 21
92.307414439255993
 31
0.0
  0
LINE
  5
2156
  8
0
 62
     0
 10
141.09006860841711
 20
95.08553943925601
 30
0.0
 11
141.09006860841711
 21
95.08553943925601
 31
0.0
  0
LINE
  5
2157
  8
0
 62
     0
 10
141.09006860841711
 20
97.863664439256013
 30
0.0
 11
141.09006860841711
 21
97.863664439256013
 31
0.0
  0
LINE
  5
2158
  8
0
 62
     0
 10
141.09006860841711
 20
100.641789439256
 30
0.0
 11
141.09006860841711
 21
100.641789439256
 31
0.0
  0
LINE
  5
2159
  8
0
 62
     0
 10
143.8681936084171
 20
79.805851939255973
 30
0.0
 11
143.8681936084171
 21
79.805851939255973
 31
0.0
  0
LINE
  5
215A
  8
0
 62
     0
 10
143.8681936084171
 20
82.583976939256004
 30
0.0
 11
143.8681936084171
 21
82.583976939256004
 31
0.0
  0
LINE
  5
215B
  8
0
 62
     0
 10
143.8681936084171
 20
85.362101939255993
 30
0.0
 11
143.8681936084171
 21
85.362101939255993
 31
0.0
  0
LINE
  5
215C
  8
0
 62
     0
 10
143.8681936084171
 20
88.140226939255996
 30
0.0
 11
143.8681936084171
 21
88.140226939255996
 31
0.0
  0
LINE
  5
215D
  8
0
 62
     0
 10
143.8681936084171
 20
90.918351939255999
 30
0.0
 11
143.8681936084171
 21
90.918351939255999
 31
0.0
  0
LINE
  5
215E
  8
0
 62
     0
 10
143.8681936084171
 20
68.69335193925599
 30
0.0
 11
143.8681936084171
 21
68.69335193925599
 31
0.0
  0
LINE
  5
215F
  8
0
 62
     0
 10
143.8681936084171
 20
71.471476939255993
 30
0.0
 11
143.8681936084171
 21
71.471476939255993
 31
0.0
  0
LINE
  5
2160
  8
0
 62
     0
 10
143.8681936084171
 20
74.249601939255996
 30
0.0
 11
143.8681936084171
 21
74.249601939255996
 31
0.0
  0
LINE
  5
2161
  8
0
 62
     0
 10
143.8681936084171
 20
77.027726939255999
 30
0.0
 11
143.8681936084171
 21
77.027726939255999
 31
0.0
  0
LINE
  5
2162
  8
0
 62
     0
 10
143.8681936084171
 20
93.696476939256002
 30
0.0
 11
143.8681936084171
 21
93.696476939256002
 31
0.0
  0
LINE
  5
2163
  8
0
 62
     0
 10
143.8681936084171
 20
96.474601939256004
 30
0.0
 11
143.8681936084171
 21
96.474601939256004
 31
0.0
  0
LINE
  5
2164
  8
0
 62
     0
 10
143.8681936084171
 20
99.252726939256007
 30
0.0
 11
143.8681936084171
 21
99.252726939256007
 31
0.0
  0
LINE
  5
2165
  8
0
 62
     0
 10
143.8681936084171
 20
102.030851939256
 30
0.0
 11
143.8681936084171
 21
102.030851939256
 31
0.0
  0
LINE
  5
2166
  8
0
 62
     0
 10
146.64631860841709
 20
81.194914439255953
 30
0.0
 11
146.64631860841709
 21
81.194914439255953
 31
0.0
  0
LINE
  5
2167
  8
0
 62
     0
 10
146.64631860841709
 20
83.973039439255984
 30
0.0
 11
146.64631860841709
 21
83.973039439255984
 31
0.0
  0
LINE
  5
2168
  8
0
 62
     0
 10
146.64631860841709
 20
86.751164439255973
 30
0.0
 11
146.64631860841709
 21
86.751164439255973
 31
0.0
  0
LINE
  5
2169
  8
0
 62
     0
 10
146.64631860841709
 20
89.529289439255976
 30
0.0
 11
146.64631860841709
 21
89.529289439255976
 31
0.0
  0
LINE
  5
216A
  8
0
 62
     0
 10
146.64631860841709
 20
70.082414439255984
 30
0.0
 11
146.64631860841709
 21
70.082414439255984
 31
0.0
  0
LINE
  5
216B
  8
0
 62
     0
 10
146.64631860841709
 20
72.860539439255973
 30
0.0
 11
146.64631860841709
 21
72.860539439255973
 31
0.0
  0
LINE
  5
216C
  8
0
 62
     0
 10
146.64631860841709
 20
75.63866443925599
 30
0.0
 11
146.64631860841709
 21
75.63866443925599
 31
0.0
  0
LINE
  5
216D
  8
0
 62
     0
 10
146.64631860841709
 20
78.416789439255993
 30
0.0
 11
146.64631860841709
 21
78.416789439255993
 31
0.0
  0
LINE
  5
216E
  8
0
 62
     0
 10
146.64631860841709
 20
92.307414439255979
 30
0.0
 11
146.64631860841709
 21
92.307414439255979
 31
0.0
  0
LINE
  5
216F
  8
0
 62
     0
 10
146.64631860841709
 20
95.085539439255982
 30
0.0
 11
146.64631860841709
 21
95.085539439255982
 31
0.0
  0
LINE
  5
2170
  8
0
 62
     0
 10
146.64631860841709
 20
97.863664439255984
 30
0.0
 11
146.64631860841709
 21
97.863664439255984
 31
0.0
  0
LINE
  5
2171
  8
0
 62
     0
 10
146.64631860841709
 20
100.641789439256
 30
0.0
 11
146.64631860841709
 21
100.641789439256
 31
0.0
  0
LINE
  5
2172
  8
0
 62
     0
 10
149.42444360841711
 20
79.805851939255959
 30
0.0
 11
149.42444360841711
 21
79.805851939255959
 31
0.0
  0
LINE
  5
2173
  8
0
 62
     0
 10
149.42444360841711
 20
82.583976939255962
 30
0.0
 11
149.42444360841711
 21
82.583976939255962
 31
0.0
  0
LINE
  5
2174
  8
0
 62
     0
 10
149.42444360841711
 20
85.362101939255965
 30
0.0
 11
149.42444360841711
 21
85.362101939255965
 31
0.0
  0
LINE
  5
2175
  8
0
 62
     0
 10
149.42444360841711
 20
88.140226939255967
 30
0.0
 11
149.42444360841711
 21
88.140226939255967
 31
0.0
  0
LINE
  5
2176
  8
0
 62
     0
 10
149.42444360841711
 20
90.91835193925597
 30
0.0
 11
149.42444360841711
 21
90.91835193925597
 31
0.0
  0
LINE
  5
2177
  8
0
 62
     0
 10
149.42444360841711
 20
68.693351939255962
 30
0.0
 11
149.42444360841711
 21
68.693351939255962
 31
0.0
  0
LINE
  5
2178
  8
0
 62
     0
 10
149.42444360841711
 20
71.471476939255965
 30
0.0
 11
149.42444360841711
 21
71.471476939255965
 31
0.0
  0
LINE
  5
2179
  8
0
 62
     0
 10
149.42444360841711
 20
74.249601939255953
 30
0.0
 11
149.42444360841711
 21
74.249601939255953
 31
0.0
  0
LINE
  5
217A
  8
0
 62
     0
 10
149.42444360841711
 20
77.02772693925597
 30
0.0
 11
149.42444360841711
 21
77.02772693925597
 31
0.0
  0
LINE
  5
217B
  8
0
 62
     0
 10
149.42444360841711
 20
93.696476939255945
 30
0.0
 11
149.42444360841711
 21
93.696476939255945
 31
0.0
  0
LINE
  5
217C
  8
0
 62
     0
 10
149.42444360841711
 20
96.474601939255962
 30
0.0
 11
149.42444360841711
 21
96.474601939255962
 31
0.0
  0
LINE
  5
217D
  8
0
 62
     0
 10
149.42444360841711
 20
99.25272693925595
 30
0.0
 11
149.42444360841711
 21
99.25272693925595
 31
0.0
  0
LINE
  5
217E
  8
0
 62
     0
 10
149.42444360841711
 20
102.0308519392559
 30
0.0
 11
149.42444360841711
 21
102.0308519392559
 31
0.0
  0
LINE
  5
217F
  8
0
 62
     0
 10
152.2025686084171
 20
81.194914439255996
 30
0.0
 11
152.2025686084171
 21
81.194914439255996
 31
0.0
  0
LINE
  5
2180
  8
0
 62
     0
 10
152.2025686084171
 20
83.973039439255984
 30
0.0
 11
152.2025686084171
 21
83.973039439255984
 31
0.0
  0
LINE
  5
2181
  8
0
 62
     0
 10
152.2025686084171
 20
86.751164439256016
 30
0.0
 11
152.2025686084171
 21
86.751164439256016
 31
0.0
  0
LINE
  5
2182
  8
0
 62
     0
 10
152.2025686084171
 20
89.529289439256004
 30
0.0
 11
152.2025686084171
 21
89.529289439256004
 31
0.0
  0
LINE
  5
2183
  8
0
 62
     0
 10
152.2025686084171
 20
70.082414439255984
 30
0.0
 11
152.2025686084171
 21
70.082414439255984
 31
0.0
  0
LINE
  5
2184
  8
0
 62
     0
 10
152.2025686084171
 20
72.860539439255973
 30
0.0
 11
152.2025686084171
 21
72.860539439255973
 31
0.0
  0
LINE
  5
2185
  8
0
 62
     0
 10
152.2025686084171
 20
75.63866443925599
 30
0.0
 11
152.2025686084171
 21
75.63866443925599
 31
0.0
  0
LINE
  5
2186
  8
0
 62
     0
 10
152.2025686084171
 20
78.416789439255993
 30
0.0
 11
152.2025686084171
 21
78.416789439255993
 31
0.0
  0
LINE
  5
2187
  8
0
 62
     0
 10
152.2025686084171
 20
92.307414439255979
 30
0.0
 11
152.2025686084171
 21
92.307414439255979
 31
0.0
  0
LINE
  5
2188
  8
0
 62
     0
 10
152.2025686084171
 20
95.085539439255982
 30
0.0
 11
152.2025686084171
 21
95.085539439255982
 31
0.0
  0
LINE
  5
2189
  8
0
 62
     0
 10
152.2025686084171
 20
97.863664439255984
 30
0.0
 11
152.2025686084171
 21
97.863664439255984
 31
0.0
  0
LINE
  5
218A
  8
0
 62
     0
 10
152.2025686084171
 20
100.641789439256
 30
0.0
 11
152.2025686084171
 21
100.641789439256
 31
0.0
  0
ENDBLK
  5
218C
  8
0
  0
ENDSEC
  0
SECTION
  2
ENTITIES
  0
POLYLINE
  5
9C2
  8
SAPA_ANSLUTNING
 66
     1
 10
0.0
 20
0.0
 30
0.0
 70
     1
  0
VERTEX
  5
1451
  8
SAPA_ANSLUTNING
 10
26.79526100596059
 20
80.215648708431161
 30
0.0
  0
VERTEX
  5
1452
  8
SAPA_ANSLUTNING
 10
26.79526100596059
 20
60.215648708431161
 30
0.0
  0
VERTEX
  5
1453
  8
SAPA_ANSLUTNING
 10
77.773830988254645
 20
60.215648708431182
 30
0.0
  0
VERTEX
  5
1454
  8
SAPA_ANSLUTNING
 10
77.773830988254645
 20
80.215648708431175
 30
0.0
  0
SEQEND
  5
1455
  8
SAPA_ANSLUTNING
  0
POLYLINE
  5
9C3
  8
SAPA_ANSLUTNING
 66
     1
 10
0.0
 20
0.0
 30
0.0
  0
VERTEX
  5
1456
  8
SAPA_ANSLUTNING
 10
77.773830988254645
 20
80.215648708431175
 30
0.0
  0
VERTEX
  5
1457
  8
SAPA_ANSLUTNING
 10
64.887211910373821
 20
60.215648708431182
 30
0.0
  0
VERTEX
  5
1458
  8
SAPA_ANSLUTNING
 10
55.064311699144461
 20
80.215648708431175
 30
0.0
  0
VERTEX
  5
1459
  8
SAPA_ANSLUTNING
 10
42.672344337680777
 20
60.215648708431161
 30
0.0
  0
VERTEX
  5
145A
  8
SAPA_ANSLUTNING
 10
31.404738319225888
 20
80.215648708431161
 30
0.0
  0
SEQEND
  5
145B
  8
SAPA_ANSLUTNING
  0
INSERT
  5
9C5
  8
SAPA_ANSLUTNING
  6
CONTINUOUS
  2
*X37
 10
0.0
 20
0.0
 30
0.0
1001
ACAD
1000
HATCH
1002
{
1070
    19
1000
ANSI37
1040
0.5
1040
-0.0000000000000002
1000
R14_HATCH_DATA
1000
9C5
1011
1.0
1021
0.0
1031
0.0
1021
0.0
1031
0.0
1011
0.0
1021
0.0
1031
0.0
1021
1.0
1031
0.0
1011
0.0
1021
0.0
1031
0.0
1021
0.0
1031
1.0
1040
0.0
1010
0.0
1020
0.0
1030
1.0
1000
ANSI37
1070
     0
1070
     0
1071
        2
1071
        7
1070
     0
1070
     1
1071
        4
1040
66.73902493560729
1040
90.288389770895677
1040
55.096340002339829
1040
90.288389770895662
1040
55.096340002339829
1040
92.288389770895662
1040
66.73902493560729
1040
92.288389770895677
1071
        0
1071
        7
1070
     0
1070
     1
1071
        4
1040
55.096340002339829
1040
90.288389770895662
1040
46.739024935607283
1040
90.288389770895662
1040
46.739024935607283
1040
92.288389770895662
1040
55.096340002339829
1040
92.288389770895662
1071
        0
1070
     0
1070
     1
1040
-0.0000000000000002
1040
0.5
1070
     0
1070
     2
1040
5.4977871437821371
1040
-644.74139073486674
1040
-118.28108203677149
1040
-1.1225320151336431
1040
-1.122532015133644
1070
     0
1040
3.926990816987241
1040
-644.74139073486674
1040
-118.28108203677149
1040
-1.122532015133644
1040
1.1225320151336431
1070
     0
1040
0.1575343371151407
1071
        2
1040
57.398531324783669
1040
91.757620604052519
1040
0.0
1040
51.881716845905082
1040
91.600084722816916
1040
0.0
1002
}
  0
POLYLINE
  5
F5A
  8
SAPA_ANSLUTNING
 62
     3
 66
     1
 10
0.0
 20
0.0
 30
0.0
  0
VERTEX
  5
1475
  8
SAPA_ANSLUTNING
 62
     3
 10
-12.17737513270211
 20
37.223937971541922
 30
0.0
  0
VERTEX
  5
1476
  8
SAPA_ANSLUTNING
 62
     3
 10
-2.2884864750044711
 20
39.163471162650808
 30
0.0
  0
VERTEX
  5
1477
  8
SAPA_ANSLUTNING
 62
     3
 10
7.2874484112831652
 20
31.70367716714081
 30
0.0
  0
VERTEX
  5
1478
  8
SAPA_ANSLUTNING
 62
     3
 10
23.174540509617351
 20
34.874235310856619
 30
0.0
  0
SEQEND
  5
1479
  8
SAPA_ANSLUTNING
 62
     3
  0
INSERT
  5
FDF
  8
SAPA_ANSLUTNING
  6
CONTINUOUS
  2
*X38
 10
0.0
 20
0.0
 30
0.0
1001
ACAD
1000
HATCH
1002
{
1070
    19
1000
ANSI37
1040
0.25
1040
0.0
1000
R14_HATCH_DATA
1000
FDF
1011
1.0
1021
0.0
1031
0.0
1021
0.0
1031
0.0
1011
0.0
1021
0.0
1031
0.0
1021
1.0
1031
0.0
1011
0.0
1021
0.0
1031
0.0
1021
0.0
1031
1.0
1040
0.0
1010
0.0
1020
0.0
1030
1.0
1000
ANSI37
1070
     0
1070
     0
1071
        1
1071
        7
1070
     1
1070
     1
1071
        6
1040
177.98494493940811
1040
60.28838902382185
1040
0.0
1040
158.7946284834288
1040
60.28838902382185
1040
-0.4106900922479825
1040
168.67418291767839
1040
50.289114406846323
1040
-0.4142526731220444
1040
158.67284761165209
1040
40.289114495998433
1040
0.0
1040
158.67284761165209
1040
40.288389397359722
1040
0.0
1040
177.48494493940811
1040
40.28838939735973
1040
-0.1949441560822363
1071
        0
1070
     0
1070
     1
1040
0.0
1040
0.25
1070
     0
1070
     2
1040
0.7853981633974483
1040
3.8853090076011929
1040
-15.27854654147327
1040
-0.5612660075668221
1040
0.5612660075668221
1070
     0
1040
2.3561944901923439
1040
3.8853090076011929
1040
-15.27854654147327
1040
-0.5612660075668221
1040
-0.5612660075668221
1070
     0
1040
0.2539267194203041
1071
        1
1040
172.4808241288211
1040
51.65552335922527
1040
0.0
1002
}
  0
INSERT
  5
FE0
  8
SAPA_ANSLUTNING
  6
CONTINUOUS
  2
*X39
 10
0.0
 20
0.0
 30
0.0
1001
ACAD
1000
HATCH
1002
{
1070
    19
1000
HEX
1040
0.25
1040
0.0
1000
ASC_BOUNDS
1070
     1
1070
     1
1070
     2
1005
FE4
1005
FE1
1000
ASC_SEEDPOINT
1011
158.76247207316769
1021
0.0
1031
0.0
1021
51.147669638423132
1031
0.0
1000
R14_HATCH_DATA
1000
FE0
1011
1.0
1021
0.0
1031
0.0
1021
0.0
1031
0.0
1011
0.0
1021
0.0
1031
0.0
1021
1.0
1031
0.0
1011
0.0
1021
0.0
1031
0.0
1021
0.0
1031
1.0
1040
0.0
1010
0.0
1020
0.0
1030
1.0
1000
HEX
1070
     0
1070
     1
1071
        1
1071
        7
1070
     1
1070
     1
1071
        3
1040
148.8065828428237
1040
51.910986400169982
1040
0.0
1040
148.8065828428237
1040
48.667242413522658
1040
0.9216925068997175
1040
168.67418291767839
1040
50.289114406846323
1040
0.9216925068997175
1071
        2
1005
FE1
1005
FE4
1070
     0
1070
     1
1040
0.0
1040
0.25
1070
     0
1070
     3
1040
0.0
1040
3.8853090076011929
1040
-15.27854654147327
1040
0.0
1040
1.374814999999999
1070
     2
1040
0.79375
1040
-1.587499999999999
1040
2.0943951023931948
1040
3.8853090076011929
1040
-15.27854654147327
1040
-1.190624715503902
1040
-0.6874074999999996
1070
     2
1040
0.7937499999999992
1040
-1.5874999999999979
1040
1.047197551196597
1040
4.6790590076011931
1040
-15.27854654147327
1040
-1.190624715503902
1040
0.6874075000000001
1070
     2
1040
0.79375
1040
-1.587499999999999
1040
0.2539267194203041
1071
        1
1040
158.76247207316769
1040
51.147669638423132
1040
0.0
1002
}
  0
CIRCLE
  5
FE1
  8
SAPA_ANSLUTNING
 10
158.67418291767839
 20
50.289114406846323
 30
0.0
 40
10.0
1001
ACAD
1000
ASC_BOUNDS
1002
{
1070
    19
1005
FE0
1002
}
  0
ARC
  5
FE2
  8
SAPA_ANSLUTNING
 10
202.4085944956548
 20
49.671547960163927
 30
0.0
 40
26.631409497383419
 50
156.50565067142639
 51
200.6301569067719
  0
POLYLINE
  5
FE4
  8
SAPA_ANSLUTNING
 66
     1
 10
0.0
 20
0.0
 30
0.0
1001
ACAD
1000
ASC_BOUNDS
1002
{
1070
    19
1005
FE0
1002
}
  0
VERTEX
  5
15FD
  8
SAPA_ANSLUTNING
 10
150.80658494952939
 20
40.236861073852161
 30
0.0
 42
-0.4142132538525825
  0
VERTEX
  5
15FE
  8
SAPA_ANSLUTNING
 10
148.8065828428237
 20
42.23685686043094
 30
0.0
  0
VERTEX
  5
15FF
  8
SAPA_ANSLUTNING
 10
148.8065828428237
 20
57.389662398575041
 30
0.0
  0
VERTEX
  5
1600
  8
SAPA_ANSLUTNING
 10
148.8065828428237
 20
58.288389023821793
 30
0.0
 42
1.0
  0
VERTEX
  5
1601
  8
SAPA_ANSLUTNING
 10
144.8065828428237
 20
58.288389023821729
 30
0.0
  0
VERTEX
  5
1602
  8
SAPA_ANSLUTNING
 10
144.8065828428239
 20
42.236861073851138
 30
0.0
 42
-0.9999989466455055
  0
VERTEX
  5
1603
  8
SAPA_ANSLUTNING
 10
140.80658284282819
 20
42.23685686043094
 30
0.0
  0
VERTEX
  5
1604
  8
SAPA_ANSLUTNING
 10
140.80658284282819
 20
57.389662398574927
 30
0.0
  0
VERTEX
  5
1605
  8
SAPA_ANSLUTNING
 10
140.80658284282819
 20
58.288389023821679
 30
0.0
 42
0.9999999999999998
  0
VERTEX
  5
1606
  8
SAPA_ANSLUTNING
 10
136.80658284282819
 20
58.288389023821679
 30
0.0
  0
VERTEX
  5
1607
  8
SAPA_ANSLUTNING
 10
136.80658284282819
 20
57.389662398574927
 30
0.0
  0
VERTEX
  5
1608
  8
SAPA_ANSLUTNING
 10
136.80658284282831
 20
42.236854228652732
 30
0.0
 42
-0.9999974985601646
  0
VERTEX
  5
1609
  8
SAPA_ANSLUTNING
 10
132.8065828428409
 20
42.236854228652732
 30
0.0
  0
VERTEX
  5
160A
  8
SAPA_ANSLUTNING
 10
132.8065828428409
 20
57.389662398574927
 30
0.0
  0
VERTEX
  5
160B
  8
SAPA_ANSLUTNING
 10
132.8065828428409
 20
58.38966239857487
 30
0.0
 42
0.9999999999999998
  0
VERTEX
  5
160C
  8
SAPA_ANSLUTNING
 10
128.8065828428409
 20
58.38966239857487
 30
0.0
  0
VERTEX
  5
160D
  8
SAPA_ANSLUTNING
 10
128.8065828428409
 20
57.389662398574927
 30
0.0
  0
VERTEX
  5
160E
  8
SAPA_ANSLUTNING
 10
128.80658284284101
 20
42.23685686043094
 30
0.0
 42
-0.9999989466455052
  0
VERTEX
  5
160F
  8
SAPA_ANSLUTNING
 10
124.8065828428453
 20
42.236861073851138
 30
0.0
  0
VERTEX
  5
1610
  8
SAPA_ANSLUTNING
 10
124.8065828428455
 20
58.571631826164172
 30
0.0
 42
0.9999999999999998
  0
VERTEX
  5
1611
  8
SAPA_ANSLUTNING
 10
120.8065828428455
 20
58.571631826164172
 30
0.0
  0
VERTEX
  5
1612
  8
SAPA_ANSLUTNING
 10
120.8065828428457
 20
42.236861073851138
 30
0.0
 42
-0.4142132538525737
  0
VERTEX
  5
1613
  8
SAPA_ANSLUTNING
 10
118.8065849495558
 20
40.236861073852232
 30
0.0
 42
-0.4142132538525811
  0
VERTEX
  5
1614
  8
SAPA_ANSLUTNING
 10
116.8065828428501
 20
42.236856860430997
 30
0.0
  0
VERTEX
  5
1615
  8
SAPA_ANSLUTNING
 10
116.8065828428501
 20
57.389662398575098
 30
0.0
  0
VERTEX
  5
1616
  8
SAPA_ANSLUTNING
 10
116.8065828428501
 20
58.28838902382185
 30
0.0
 42
1.0
  0
VERTEX
  5
1617
  8
SAPA_ANSLUTNING
 10
112.8065828428501
 20
58.288389023821793
 30
0.0
  0
VERTEX
  5
1618
  8
SAPA_ANSLUTNING
 10
112.8065828428503
 20
42.236861073851202
 30
0.0
 42
-0.9999989466455055
  0
VERTEX
  5
1619
  8
SAPA_ANSLUTNING
 10
108.8065828428546
 20
42.236856860430997
 30
0.0
  0
VERTEX
  5
161A
  8
SAPA_ANSLUTNING
 10
108.8065828428546
 20
57.389662398574977
 30
0.0
  0
VERTEX
  5
161B
  8
SAPA_ANSLUTNING
 10
108.8065828428546
 20
58.288389023821729
 30
0.0
 42
0.9999999999999998
  0
VERTEX
  5
161C
  8
SAPA_ANSLUTNING
 10
104.8065828428546
 20
58.288389023821729
 30
0.0
  0
VERTEX
  5
161D
  8
SAPA_ANSLUTNING
 10
104.8065828428546
 20
57.389662398574977
 30
0.0
  0
VERTEX
  5
161E
  8
SAPA_ANSLUTNING
 10
104.8065828428547
 20
42.236854228652788
 30
0.0
 42
-0.9999974985601646
  0
VERTEX
  5
161F
  8
SAPA_ANSLUTNING
 10
100.8065828428672
 20
42.236854228652788
 30
0.0
  0
VERTEX
  5
1620
  8
SAPA_ANSLUTNING
 10
100.8065828428673
 20
57.389662398574977
 30
0.0
  0
VERTEX
  5
1621
  8
SAPA_ANSLUTNING
 10
100.8065828428673
 20
58.389662398574927
 30
0.0
 42
0.9999999999999998
  0
VERTEX
  5
1622
  8
SAPA_ANSLUTNING
 10
96.806582842867243
 20
58.389662398574927
 30
0.0
  0
VERTEX
  5
1623
  8
SAPA_ANSLUTNING
 10
96.8065828428673
 20
57.389662398574977
 30
0.0
  0
VERTEX
  5
1624
  8
SAPA_ANSLUTNING
 10
96.806582842867357
 20
42.236856860430997
 30
0.0
 42
-0.9999989466455052
  0
VERTEX
  5
1625
  8
SAPA_ANSLUTNING
 10
92.806582842871677
 20
42.236861073851202
 30
0.0
  0
VERTEX
  5
1626
  8
SAPA_ANSLUTNING
 10
92.806582842871904
 20
58.571631826164243
 30
0.0
 42
0.9999999999999998
  0
VERTEX
  5
1627
  8
SAPA_ANSLUTNING
 10
88.806582842871904
 20
58.571631826164243
 30
0.0
  0
VERTEX
  5
1628
  8
SAPA_ANSLUTNING
 10
88.806582842872118
 20
42.236861073851202
 30
0.0
 42
-0.4142132538525737
  0
VERTEX
  5
1629
  8
SAPA_ANSLUTNING
 10
86.806584949582174
 20
40.236861073852282
 30
0.0
 42
-0.4142132538525745
  0
VERTEX
  5
162A
  8
SAPA_ANSLUTNING
 10
84.806582842876452
 20
42.236856860430997
 30
0.0
  0
VERTEX
  5
162B
  8
SAPA_ANSLUTNING
 10
84.806582842876452
 20
57.389662398575098
 30
0.0
  0
VERTEX
  5
162C
  8
SAPA_ANSLUTNING
 10
84.806582842876452
 20
58.28838902382185
 30
0.0
 42
1.0
  0
VERTEX
  5
162D
  8
SAPA_ANSLUTNING
 10
80.806582842876452
 20
58.288389023821793
 30
0.0
  0
VERTEX
  5
162E
  8
SAPA_ANSLUTNING
 10
80.806582842876637
 20
42.236861073851202
 30
0.0
 42
-0.3041673395455494
  0
VERTEX
  5
162F
  8
SAPA_ANSLUTNING
 10
79.56639313909433
 20
40.38681017894001
 30
0.0
 42
-0.3041673395455494
  0
SEQEND
  5
1630
  8
SAPA_ANSLUTNING
  0
POLYLINE
  5
FFC
  8
SAPA_ANSLUTNING
 66
     1
 10
0.0
 20
0.0
 30
0.0
  0
VERTEX
  5
1631
  8
SAPA_ANSLUTNING
 10
77.437224827748082
 20
58.132317918391209
 30
0.0
 42
0.9999999999999998
  0
VERTEX
  5
1632
  8
SAPA_ANSLUTNING
 10
73.43722482774831
 20
58.132317918391209
 30
0.0
  0
VERTEX
  5
1633
  8
SAPA_ANSLUTNING
 10
73.437224827750924
 20
46.627070059693487
 30
0.0
 42
-0.9999999999999998
  0
VERTEX
  5
1634
  8
SAPA_ANSLUTNING
 10
69.437224827752857
 20
46.627070059692592
 30
0.0
  0
VERTEX
  5
1635
  8
SAPA_ANSLUTNING
 10
69.437224827752516
 20
58.132317918391209
 30
0.0
 42
0.9999999999999998
  0
VERTEX
  5
1636
  8
SAPA_ANSLUTNING
 10
65.437224827752857
 20
58.132317918391209
 30
0.0
  0
VERTEX
  5
1637
  8
SAPA_ANSLUTNING
 10
65.437224827755344
 20
45.452311738704587
 30
0.0
 42
-0.9999999999999998
  0
VERTEX
  5
1638
  8
SAPA_ANSLUTNING
 10
61.437224827757177
 20
45.45231173870377
 30
0.0
  0
VERTEX
  5
1639
  8
SAPA_ANSLUTNING
 10
61.437224827756829
 20
58.132317918385411
 30
0.0
 42
0.9999999999999998
  0
VERTEX
  5
163A
  8
SAPA_ANSLUTNING
 10
57.437224827757177
 20
58.132317918385411
 30
0.0
  0
VERTEX
  5
163B
  8
SAPA_ANSLUTNING
 10
57.43722482776127
 20
43.123343851811327
 30
0.0
 42
-0.803823864589529
  0
VERTEX
  5
163C
  8
SAPA_ANSLUTNING
 10
53.437224827761611
 20
43.123343851811327
 30
0.0
  0
VERTEX
  5
163D
  8
SAPA_ANSLUTNING
 10
53.43722482776127
 20
58.132317918385461
 30
0.0
 42
0.9999999999999998
  0
VERTEX
  5
163E
  8
SAPA_ANSLUTNING
 10
49.437224827761611
 20
58.132317918385411
 30
0.0
  0
VERTEX
  5
163F
  8
SAPA_ANSLUTNING
 10
49.43722482776559
 20
41.92083658780745
 30
0.0
 42
-0.9999999999999998
  0
VERTEX
  5
1640
  8
SAPA_ANSLUTNING
 10
45.437224827765931
 20
41.92083658780745
 30
0.0
  0
VERTEX
  5
1641
  8
SAPA_ANSLUTNING
 10
45.437224827765867
 20
58.132317918385461
 30
0.0
 42
0.9999999999999998
  0
VERTEX
  5
1642
  8
SAPA_ANSLUTNING
 10
41.437224827766158
 20
58.132317918385411
 30
0.0
  0
VERTEX
  5
1643
  8
SAPA_ANSLUTNING
 10
41.437224827770358
 20
40.382936835389827
 30
0.0
 42
-0.9510849110499885
  0
VERTEX
  5
1644
  8
SAPA_ANSLUTNING
 10
37.437224827770713
 20
40.186806653057602
 30
0.0
  0
VERTEX
  5
1645
  8
SAPA_ANSLUTNING
 10
37.437224827770422
 20
58.132317918385411
 30
0.0
 42
0.9999999999999998
  0
VERTEX
  5
1646
  8
SAPA_ANSLUTNING
 10
33.437224827770592
 20
58.132317918385361
 30
0.0
  0
VERTEX
  5
1647
  8
SAPA_ANSLUTNING
 10
33.437224827774799
 20
37.534972540390363
 30
0.0
  0
SEQEND
  5
1648
  8
SAPA_ANSLUTNING
  0
LINE
  5
1023
  8
SAPA_ANSLUTNING
 10
28.043703915395671
 20
35.042195063831073
 30
0.0
 11
28.303885538121559
 21
33.555120827013774
 31
0.0
  0
LINE
  5
1024
  8
SAPA_ANSLUTNING
 62
     7
 10
28.173794726758501
 20
34.29865794542242
 30
0.0
 11
11.827143425172149
 21
31.036386405361231
 31
0.0
  0
LINE
  5
1025
  8
SAPA_ANSLUTNING
 10
11.697899386351541
 20
31.775083775217059
 30
0.0
 11
11.95800388502653
 21
30.28845034274137
 31
0.0
  0
LINE
  5
1026
  8
SAPA_ANSLUTNING
 62
     7
 10
-2.4063654482100669
 20
16.715036963476692
 30
0.0
 11
-2.4063654482100669
 21
27.397798416159439
 31
0.0
  0
LINE
  5
1027
  8
SAPA_ANSLUTNING
 10
-3.154982246218764
 20
16.711806608281751
 30
0.0
 11
-1.6577486502009151
 21
16.718267318671689
 31
0.0
  0
LINE
  5
1028
  8
SAPA_ANSLUTNING
 62
     7
 10
57.154741719263818
 20
40.082332952211019
 30
0.0
 11
43.308120625754889
 21
37.318987904593669
 31
0.0
  0
LINE
  5
1029
  8
SAPA_ANSLUTNING
 10
57.024581011022633
 20
40.82626956788534
 30
0.0
 11
57.284902427505017
 21
39.33839633653669
 31
0.0
  0
LINE
  5
102A
  8
SAPA_ANSLUTNING
 62
     7
 10
70.190793274763678
 20
42.683904024627132
 30
0.0
 11
78.031853056114528
 21
44.246604356977038
 31
0.0
  0
LINE
  5
102B
  8
SAPA_ANSLUTNING
 10
70.060599421230677
 20
43.428030083002582
 30
0.0
 11
70.320987128296451
 21
41.939777966251668
 31
0.0
  0
LINE
  5
1034
  8
SAPA_ANSLUTNING
 10
71.377867291423968
 20
42.606970494776888
 30
0.0
 11
71.37786729142374
 21
42.511320382243653
 31
0.0
  0
LINE
  5
1038
  8
SAPA_ANSLUTNING
 10
80.988697671069886
 20
60.233689232169482
 30
0.0
 11
80.988697671069929
 21
59.04679048408304
 31
0.0
  0
LINE
  5
1039
  8
SAPA_ANSLUTNING
 62
     7
 10
90.812202937071902
 20
59.494730709987053
 30
0.0
 11
80.988697671069886
 21
59.494730709987053
 31
0.0
  0
LINE
  5
103B
  8
SAPA_ANSLUTNING
 62
     7
 10
78.031853056114585
 20
57.977463838685097
 30
0.0
 11
78.031853056114585
 21
44.246604356977102
 31
0.0
  0
LINE
  5
103C
  8
SAPA_ANSLUTNING
 10
77.292894533932156
 20
57.977463838685097
 30
0.0
 11
78.770811578297014
 21
57.977463838685097
 31
0.0
  0
LINE
  5
1042
  8
SAPA_ANSLUTNING
 62
     7
 10
90.812202937071902
 20
59.470187984064708
 30
0.0
 11
84.143451048831537
 21
59.470187984064708
 31
0.0
  0
LINE
  5
1044
  8
SAPA_ANSLUTNING
 10
26.742313211178612
 20
31.680958790266249
 30
0.0
 11
10.753558897799509
 21
28.49011210275502
 31
0.0
  0
LINE
  5
1045
  8
SAPA_ANSLUTNING
 10
10.753558897799509
 20
28.49011210275502
 30
0.0
 11
12.360594040149749
 21
29.997087050921309
 31
0.0
  0
LINE
  5
1046
  8
SAPA_ANSLUTNING
 10
10.753558897799509
 20
28.49011210275502
 30
0.0
 11
12.82236268999281
 21
27.712302649179019
 31
0.0
  0
LINE
  5
1047
  8
SAPA_ANSLUTNING
 10
74.64684869349378
 20
41.185050437312739
 30
0.0
 11
58.658094380114669
 21
37.994203749801507
 31
0.0
  0
LINE
  5
1048
  8
SAPA_ANSLUTNING
 10
58.658094380114669
 20
37.994203749801507
 30
0.0
 11
60.26512952246491
 21
39.501178697967802
 31
0.0
  0
LINE
  5
1049
  8
SAPA_ANSLUTNING
 10
58.658094380114669
 20
37.994203749801507
 30
0.0
 11
60.72689817230799
 21
37.216394296225523
 31
0.0
  0
LINE
  5
104A
  8
SAPA_ANSLUTNING
 10
-0.0516389717360539
 20
13.17677879039449
 30
0.0
 11
-0.0516389717360539
 21
24.36912593719801
 31
0.0
  0
LINE
  5
104B
  8
SAPA_ANSLUTNING
 10
-0.0516389717360539
 20
13.17677879039449
 30
0.0
 11
-0.0516389717360539
 21
13.17677879039449
 31
0.0
  0
LINE
  5
104C
  8
SAPA_ANSLUTNING
 10
-0.0516389717360539
 20
13.17677879039449
 30
0.0
 11
-0.8203783632837939
 21
14.410280703674809
 31
0.0
  0
LINE
  5
104D
  8
SAPA_ANSLUTNING
 10
-0.0516389717360539
 20
13.17677879039449
 30
0.0
 11
0.6865268856203102
 21
14.40964465512498
 31
0.0
  0
LINE
  5
104F
  8
SAPA_ANSLUTNING
 10
-3.154982246218764
 20
27.39456806096446
 30
0.0
 11
-1.6577486502009151
 21
27.401028771354401
 31
0.0
  0
LINE
  5
1050
  8
SAPA_ANSLUTNING
 10
43.177959917513697
 20
38.062924520267998
 30
0.0
 11
43.43828133399608
 21
36.57505128891934
 31
0.0
  0
POLYLINE
  5
1053
  8
SAPA_ANSLUTNING
 66
     1
 10
0.0
 20
0.0
 30
0.0
  0
VERTEX
  5
1649
  8
SAPA_ANSLUTNING
 10
90.812202937071902
 20
60.233689232169482
 30
0.0
  0
VERTEX
  5
164A
  8
SAPA_ANSLUTNING
 10
90.812202937071874
 20
59.046790484087069
 30
0.0
  0
VERTEX
  5
164B
  8
SAPA_ANSLUTNING
 10
78.896395396365108
 20
59.046790484082187
 30
0.0
  0
VERTEX
  5
164C
  8
SAPA_ANSLUTNING
 10
78.896395396368803
 20
43.651277161215162
 30
0.0
  0
VERTEX
  5
164D
  8
SAPA_ANSLUTNING
 10
-1.2837078512762901
 20
27.62030492073082
 30
0.0
 42
0.3672933340974458
  0
VERTEX
  5
164E
  8
SAPA_ANSLUTNING
 10
-1.702662998049959
 20
27.126916907332109
 30
0.0
  0
VERTEX
  5
164F
  8
SAPA_ANSLUTNING
 10
-1.607301494387797
 20
5.02742034548909
 30
0.0
  0
VERTEX
  5
1650
  8
SAPA_ANSLUTNING
 10
-3.107301494387797
 20
5.02742034548909
 30
0.0
  0
VERTEX
  5
1651
  8
SAPA_ANSLUTNING
 10
-3.2026629980499588
 20
28.396192871074408
 30
0.0
 42
-0.3672319495043537
  0
VERTEX
  5
1652
  8
SAPA_ANSLUTNING
 10
-2.7838145967810979
 20
28.889563338394179
 30
0.0
  0
VERTEX
  5
1653
  8
SAPA_ANSLUTNING
 10
77.255696684734687
 20
44.864045235294249
 30
0.0
  0
VERTEX
  5
1654
  8
SAPA_ANSLUTNING
 10
77.255696684734744
 20
60.215648708431182
 30
0.0
  0
VERTEX
  5
1655
  8
SAPA_ANSLUTNING
 10
90.812202937071902
 20
60.210313008959133
 30
0.0
  0
SEQEND
  5
1656
  8
SAPA_ANSLUTNING
  0
POLYLINE
  5
105C
  8
SAPA_ANSLUTNING
 62
     7
 66
     1
 10
0.0
 20
0.0
 30
0.0
  0
VERTEX
  5
1657
  8
SAPA_ANSLUTNING
 62
     7
 10
1.4269709516752329
 20
26.039601295635361
 30
0.0
  0
VERTEX
  5
1658
  8
SAPA_ANSLUTNING
 62
     7
 10
77.039957872553714
 20
40.288389397359822
 30
0.0
  0
VERTEX
  5
1659
  8
SAPA_ANSLUTNING
 62
     7
 10
193.80357877807941
 20
40.288389397359822
 30
0.0
  0
VERTEX
  5
165A
  8
SAPA_ANSLUTNING
 62
     7
 10
193.80357877807941
 20
39.69012149274058
 30
0.0
  0
SEQEND
  5
165B
  8
SAPA_ANSLUTNING
 62
     7
  0
LINE
  5
105D
  8
SAPA_ANSLUTNING
 62
     7
 10
1.4269709516752329
 20
26.039601295635361
 30
0.0
 11
1.4269709516752329
 21
3.22671285785691
 31
0.0
  0
POLYLINE
  5
1078
  8
SAPA_ANSLUTNING
 62
     1
 66
     1
 10
0.0
 20
0.0
 30
0.0
 70
     1
  0
VERTEX
  5
165C
  8
SAPA_ANSLUTNING
 62
     1
 10
-12.94296215105396
 20
11.91517707476569
 30
0.0
  0
VERTEX
  5
165D
  8
SAPA_ANSLUTNING
 62
     1
 10
-12.94296215105396
 20
-0.3072876931157396
 30
0.0
 42
-0.9999999999999998
  0
VERTEX
  5
165E
  8
SAPA_ANSLUTNING
 62
     1
 10
-13.94296215105396
 20
-0.3072876931157396
 30
0.0
  0
VERTEX
  5
165F
  8
SAPA_ANSLUTNING
 62
     1
 10
-13.94296215105396
 20
37.325576390458963
 30
0.0
  0
VERTEX
  5
1660
  8
SAPA_ANSLUTNING
 62
     1
 10
27.80181881242763
 20
46.101768346831342
 30
0.0
 42
0.3549979267869209
  0
VERTEX
  5
1661
  8
SAPA_ANSLUTNING
 62
     1
 10
28.19939164008019
 20
46.591164581353951
 30
0.0
  0
VERTEX
  5
1662
  8
SAPA_ANSLUTNING
 62
     1
 10
28.19939164008019
 20
72.316943669490229
 30
0.0
  0
VERTEX
  5
1663
  8
SAPA_ANSLUTNING
 62
     1
 10
27.19939164008014
 20
72.316943669490229
 30
0.0
  0
VERTEX
  5
1664
  8
SAPA_ANSLUTNING
 62
     1
 10
27.19939164008025
 20
47.406537227416152
 30
0.0
 42
-0.3550789480701003
  0
VERTEX
  5
1665
  8
SAPA_ANSLUTNING
 62
     1
 10
26.801677956785909
 20
46.917111533960252
 30
0.0
  0
VERTEX
  5
1666
  8
SAPA_ANSLUTNING
 62
     1
 10
-14.94296215105396
 20
38.164676021636161
 30
0.0
  0
VERTEX
  5
1667
  8
SAPA_ANSLUTNING
 62
     1
 10
-14.94296215105396
 20
-0.3072876931157396
 30
0.0
 42
0.9999999999999998
  0
VERTEX
  5
1668
  8
SAPA_ANSLUTNING
 62
     1
 10
-11.94296215105396
 20
-0.3072876931157396
 30
0.0
  0
VERTEX
  5
1669
  8
SAPA_ANSLUTNING
 62
     1
 10
-11.94296215105396
 20
11.91517707476569
 30
0.0
  0
SEQEND
  5
166A
  8
SAPA_ANSLUTNING
 62
     1
  0
INSERT
  5
112D
  8
SAPA_ANSLUTNING
  6
CONTINUOUS
 62
     7
  2
*X40
 10
0.0
 20
0.0
 30
0.0
1001
ACAD
1000
HATCH
1002
{
1070
    19
1000
ANSI31
1040
1.0
1040
0.0
1000
R14_HATCH_DATA
1000
112D
1011
1.0
1021
0.0
1031
0.0
1021
0.0
1031
0.0
1011
0.0
1021
0.0
1031
0.0
1021
1.0
1031
0.0
1011
0.0
1021
0.0
1031
0.0
1021
0.0
1031
1.0
1040
0.0
1010
0.0
1020
0.0
1030
1.0
1000
ANSI31
1070
     0
1070
     0
1071
        1
1071
        7
1070
     1
1070
     1
1071
       23
1040
193.00736801079529
1040
3.22671285785691
1040
0.0
1040
193.00736801079529
1040
40.288389397359822
1040
0.0
1040
143.25764617087361
1040
40.288389397359822
1040
-0.1142374480575192
1040
142.3555195147741
1040
40.288389397359822
1040
0.0
1040
135.25765412910221
1040
40.288389397359822
1040
-0.1142395168789265
1040
134.355511556567
1040
40.288389397359822
1040
0.0
1040
127.2576461708951
1040
40.288389397359822
1040
-0.1142374480575137
1040
126.3555195147956
1040
40.288389397359822
1040
0.0
1040
119.2576461708953
1040
40.288389397359822
1040
-0.0569333133620629
1040
118.8065849495558
1040
40.236861073852232
1040
-0.0569338417467769
1040
118.3555195147961
1040
40.288389397359822
1040
0.0
1040
111.2576461708997
1040
40.288389397359822
1040
-0.1142374480574527
1040
110.3555195148007
1040
40.288389397359822
1040
0.0
1040
103.2576541291283
1040
40.288389397359822
1040
-0.1142395168788637
1040
102.3555115565936
1040
40.288389397359822
1040
0.0
1040
95.257646170921248
1040
40.288389397359822
1040
-0.1142374480574527
1040
94.355519514822234
1040
40.288389397359822
1040
0.0
1040
87.257646170921461
1040
40.288389397359822
1040
-0.0569333133620318
1040
86.806584949582174
1040
40.236861073852282
1040
-0.056933841746746
1040
86.355519514822674
1040
40.288389397359822
1040
0.0
1040
77.0399578725537
1040
40.288389397359822
1040
0.0
1040
1.426970951675232
1040
26.039601295635372
1040
0.0
1040
1.4269709516752329
1040
3.22671285785691
1040
0.0
1071
        0
1070
     0
1070
     1
1040
0.0
1040
1.0
1070
     0
1070
     1
1040
0.7853981633974483
1040
0.0
1040
0.0
1040
-2.2450640302672871
1040
2.245064030267288
1070
     0
1040
0.3327356606475471
1071
        1
1040
98.134075588188026
1040
20.423553895307808
1040
0.0
1002
}
  0
POLYLINE
  5
1188
  8
SAPA_LIGHT
 66
     1
 10
0.0
 20
0.0
 30
0.0
  0
VERTEX
  5
169E
  8
SAPA_LIGHT
 10
31.148367837722141
 20
110.28838977089769
 30
0.0
  0
VERTEX
  5
169F
  8
SAPA_LIGHT
 10
6.7738309892452833
 20
110.28838977089769
 30
0.0
  0
VERTEX
  5
16A0
  8
SAPA_LIGHT
 10
6.7738309892452833
 20
60.288389770897709
 30
0.0
  0
VERTEX
  5
16A1
  8
SAPA_LIGHT
 10
177.7738309882547
 20
60.28838977089773
 30
0.0
  0
VERTEX
  5
16A2
  8
SAPA_LIGHT
 10
177.7738309882547
 20
110.28838977089769
 30
0.0
  0
VERTEX
  5
16A3
  8
SAPA_LIGHT
 10
67.133828646532038
 20
110.28838977089769
 30
0.0
  0
VERTEX
  5
16A4
  8
SAPA_LIGHT
 10
67.133828646531811
 20
96.742892082442438
 30
0.0
  0
VERTEX
  5
16A5
  8
SAPA_LIGHT
 10
31.148367837722141
 20
96.722546226819929
 30
0.0
  0
VERTEX
  5
16A6
  8
SAPA_LIGHT
 10
31.148367837722141
 20
110.28838977089769
 30
0.0
  0
SEQEND
  5
16A7
  8
SAPA_LIGHT
  0
POLYLINE
  5
1189
  8
SAPA_LIGHT
 66
     1
 10
0.0
 20
0.0
 30
0.0
  0
VERTEX
  5
16A8
  8
SAPA_LIGHT
 10
31.148367837722141
 20
126.65825597365679
 30
0.0
  0
VERTEX
  5
16A9
  8
SAPA_LIGHT
 10
31.148367837722141
 20
96.678601829278875
 30
0.0
  0
VERTEX
  5
16AA
  8
SAPA_LIGHT
 10
67.133828646532038
 20
96.678601829278875
 30
0.0
  0
VERTEX
  5
16AB
  8
SAPA_LIGHT
 10
67.13382864653201
 20
126.65825597365679
 30
0.0
  0
SEQEND
  5
16AC
  8
SAPA_LIGHT
  0
LINE
  5
12D7
  8
SAPA_PROFIL
 10
66.73902493560729
 20
90.28838939735779
 30
0.0
 11
46.739024935607283
 21
90.288389397357776
 31
0.0
  0
LINE
  5
12D8
  8
SAPA_PROFIL
 10
46.739024935607283
 20
90.288389397357776
 30
0.0
 11
46.739024935607283
 21
92.288389397357776
 31
0.0
  0
LINE
  5
12D9
  8
SAPA_PROFIL
 10
46.739024935607283
 20
92.288389397357776
 30
0.0
 11
66.73902493560729
 21
92.288389397357776
 31
0.0
  0
LINE
  5
12DA
  8
SAPA_PROFIL
 10
66.73902493560729
 20
92.288389397357776
 30
0.0
 11
66.73902493560729
 21
90.28838939735779
 31
0.0
  0
POLYLINE
  5
140A
  8
SAPA_PROFIL
 66
     1
 10
0.0
 20
0.0
 30
0.0
 70
     1
  0
VERTEX
  5
1CE2
  8
SAPA_PROFIL
 10
80.223830988254704
 20
87.988389397360379
 30
0.0
  0
VERTEX
  5
1CE3
  8
SAPA_PROFIL
 10
81.600065581831018
 20
87.365109094058425
 30
0.0
 42
0.5450207798987328
  0
VERTEX
  5
1CE4
  8
SAPA_PROFIL
 10
82.023830988254645
 20
87.638389397360228
 30
0.0
  0
VERTEX
  5
1CE5
  8
SAPA_PROFIL
 10
82.023830988254645
 20
87.988389397360379
 30
0.0
  0
VERTEX
  5
1CE6
  8
SAPA_PROFIL
 10
82.273830988254645
 20
87.988389397360379
 30
0.0
 42
-0.4142135623730951
  0
VERTEX
  5
1CE7
  8
SAPA_PROFIL
 10
83.273830988254645
 20
86.988389397360379
 30
0.0
  0
VERTEX
  5
1CE8
  8
SAPA_PROFIL
 10
83.273830988254645
 20
83.588389397360288
 30
0.0
 42
-0.4142135623730951
  0
VERTEX
  5
1CE9
  8
SAPA_PROFIL
 10
82.273830988254645
 20
82.588389397360274
 30
0.0
  0
VERTEX
  5
1CEA
  8
SAPA_PROFIL
 10
81.123830988254781
 20
82.588389397360274
 30
0.0
  0
VERTEX
  5
1CEB
  8
SAPA_PROFIL
 10
81.123830988254781
 20
82.938389397360424
 30
0.0
 42
0.5450200690651551
  0
VERTEX
  5
1CEC
  8
SAPA_PROFIL
 10
80.700065988254764
 20
83.211670397360194
 30
0.0
  0
VERTEX
  5
1CED
  8
SAPA_PROFIL
 10
79.323830988254826
 20
82.588389397360274
 30
0.0
  0
VERTEX
  5
1CEE
  8
SAPA_PROFIL
 10
79.323830988254826
 20
82.938389397360424
 30
0.0
 42
0.5450200690651692
  0
VERTEX
  5
1CEF
  8
SAPA_PROFIL
 10
78.900065988254823
 20
83.211670397360194
 30
0.0
  0
VERTEX
  5
1CF0
  8
SAPA_PROFIL
 10
77.523830988254645
 20
82.588389397360274
 30
0.0
  0
VERTEX
  5
1CF1
  8
SAPA_PROFIL
 10
77.523830988254645
 20
82.938389397360424
 30
0.0
 42
0.5450200690651619
  0
VERTEX
  5
1CF2
  8
SAPA_PROFIL
 10
77.100065988254642
 20
83.211670397360194
 30
0.0
  0
VERTEX
  5
1CF3
  8
SAPA_PROFIL
 10
75.72383098825469
 20
82.588389397360274
 30
0.0
  0
VERTEX
  5
1CF4
  8
SAPA_PROFIL
 10
75.72383098825469
 20
82.938389397360424
 30
0.0
 42
0.5450200690651619
  0
VERTEX
  5
1CF5
  8
SAPA_PROFIL
 10
75.300065988254687
 20
83.211670397360194
 30
0.0
  0
VERTEX
  5
1CF6
  8
SAPA_PROFIL
 10
73.923830988254736
 20
82.588389397360274
 30
0.0
  0
VERTEX
  5
1CF7
  8
SAPA_PROFIL
 10
73.923830988254736
 20
82.938389397360424
 30
0.0
 42
0.5450200690651692
  0
VERTEX
  5
1CF8
  8
SAPA_PROFIL
 10
73.500065988254732
 20
83.211670397360194
 30
0.0
  0
VERTEX
  5
1CF9
  8
SAPA_PROFIL
 10
72.123830988254781
 20
82.588389397360274
 30
0.0
  0
VERTEX
  5
1CFA
  8
SAPA_PROFIL
 10
71.823830988254826
 20
82.588389397360274
 30
0.0
  0
VERTEX
  5
1CFB
  8
SAPA_PROFIL
 10
71.823830988254826
 20
87.716657030871147
 30
0.0
  0
VERTEX
  5
1CFC
  8
SAPA_PROFIL
 10
72.600065581831018
 20
87.365109094058425
 30
0.0
 42
0.5450207798987328
  0
VERTEX
  5
1CFD
  8
SAPA_PROFIL
 10
73.023830988254645
 20
87.638389397360228
 30
0.0
  0
VERTEX
  5
1CFE
  8
SAPA_PROFIL
 10
73.023830988254645
 20
87.988389397360379
 30
0.0
  0
VERTEX
  5
1CFF
  8
SAPA_PROFIL
 10
74.400065988254823
 20
87.365109397360357
 30
0.0
 42
0.5450205149791638
  0
VERTEX
  5
1D00
  8
SAPA_PROFIL
 10
74.823830988254826
 20
87.638389397360228
 30
0.0
  0
VERTEX
  5
1D01
  8
SAPA_PROFIL
 10
74.823830988254826
 20
87.988389397360379
 30
0.0
  0
VERTEX
  5
1D02
  8
SAPA_PROFIL
 10
76.200065581831154
 20
87.365109094058425
 30
0.0
 42
0.545020779898768
  0
VERTEX
  5
1D03
  8
SAPA_PROFIL
 10
76.623830988254781
 20
87.638389397360228
 30
0.0
  0
VERTEX
  5
1D04
  8
SAPA_PROFIL
 10
76.623830988254781
 20
87.988389397360379
 30
0.0
  0
VERTEX
  5
1D05
  8
SAPA_PROFIL
 10
78.000065581831109
 20
87.365109094058425
 30
0.0
 42
0.54502077989874
  0
VERTEX
  5
1D06
  8
SAPA_PROFIL
 10
78.423830988254736
 20
87.638389397360228
 30
0.0
  0
VERTEX
  5
1D07
  8
SAPA_PROFIL
 10
78.423830988254736
 20
87.988389397360379
 30
0.0
  0
VERTEX
  5
1D08
  8
SAPA_PROFIL
 10
79.800065581831063
 20
87.365109094058425
 30
0.0
 42
0.545020779898761
  0
VERTEX
  5
1D09
  8
SAPA_PROFIL
 10
80.223830988254704
 20
87.638389397360228
 30
0.0
  0
SEQEND
  5
1D0A
  8
SAPA_PROFIL
  0
POLYLINE
  5
140B
  8
SAPA_PROFIL
 66
     1
 10
0.0
 20
0.0
 30
0.0
 70
     1
  0
VERTEX
  5
1D0B
  8
SAPA_PROFIL
 10
171.29809505696659
 20
108.28838939736031
 30
0.0
 42
0.1989123673796753
  0
VERTEX
  5
1D0C
  8
SAPA_PROFIL
 10
171.0859630226108
 20
108.2005214317162
 30
0.0
  0
VERTEX
  5
1D0D
  8
SAPA_PROFIL
 10
169.36169895389881
 20
106.47625736300439
 30
0.0
 42
-0.1989123673796753
  0
VERTEX
  5
1D0E
  8
SAPA_PROFIL
 10
169.14956691954271
 20
106.3883893973602
 30
0.0
  0
VERTEX
  5
1D0F
  8
SAPA_PROFIL
 10
168.5738309882548
 20
106.3883893973602
 30
0.0
 42
-0.4142135623730951
  0
VERTEX
  5
1D10
  8
SAPA_PROFIL
 10
168.27383098825459
 20
106.6883893973604
 30
0.0
  0
VERTEX
  5
1D11
  8
SAPA_PROFIL
 10
168.27383098825459
 20
107.98838939736029
 30
0.0
 42
0.4142135623730951
  0
VERTEX
  5
1D12
  8
SAPA_PROFIL
 10
167.97383098825469
 20
108.28838939736031
 30
0.0
  0
VERTEX
  5
1D13
  8
SAPA_PROFIL
 10
143.27383098825459
 20
108.28838939736031
 30
0.0
 42
0.4142135623730951
  0
VERTEX
  5
1D14
  8
SAPA_PROFIL
 10
142.27383098825459
 20
107.28838939736031
 30
0.0
  0
VERTEX
  5
1D15
  8
SAPA_PROFIL
 10
142.27383098825459
 20
102.8883893973602
 30
0.0
 42
-0.4142135623730951
  0
VERTEX
  5
1D16
  8
SAPA_PROFIL
 10
141.97383098825469
 20
102.5883893973603
 30
0.0
  0
VERTEX
  5
1D17
  8
SAPA_PROFIL
 10
139.67383098825471
 20
102.5883893973603
 30
0.0
 42
-0.4142135623730951
  0
VERTEX
  5
1D18
  8
SAPA_PROFIL
 10
139.3738309882547
 20
102.8883893973602
 30
0.0
  0
VERTEX
  5
1D19
  8
SAPA_PROFIL
 10
139.3738309882547
 20
103.3883893973602
 30
0.0
 42
-0.4142135623730951
  0
VERTEX
  5
1D1A
  8
SAPA_PROFIL
 10
139.67383098825471
 20
103.6883893973604
 30
0.0
  0
VERTEX
  5
1D1B
  8
SAPA_PROFIL
 10
140.01045791288911
 20
103.6883893973604
 30
0.0
 42
0.5535245743249297
  0
VERTEX
  5
1D1C
  8
SAPA_PROFIL
 10
138.2379385903792
 20
107.99894360889169
 30
0.0
  0
VERTEX
  5
1D1D
  8
SAPA_PROFIL
 10
137.95060768355131
 20
107.7116127020635
 30
0.0
 42
-0.4142135623729421
  0
VERTEX
  5
1D1E
  8
SAPA_PROFIL
 10
137.59705429295821
 20
107.7116127020635
 30
0.0
  0
VERTEX
  5
1D1F
  8
SAPA_PROFIL
 10
137.3097233861302
 20
107.99894360889169
 30
0.0
 42
0.5535245743249292
  0
VERTEX
  5
1D20
  8
SAPA_PROFIL
 10
135.53720406362009
 20
103.6883893973604
 30
0.0
  0
VERTEX
  5
1D21
  8
SAPA_PROFIL
 10
135.87383098825481
 20
103.6883893973604
 30
0.0
 42
-0.4142135623730951
  0
VERTEX
  5
1D22
  8
SAPA_PROFIL
 10
136.17383098825471
 20
103.3883893973602
 30
0.0
  0
VERTEX
  5
1D23
  8
SAPA_PROFIL
 10
136.17383098825471
 20
102.8883893973602
 30
0.0
 42
-0.4142135623730951
  0
VERTEX
  5
1D24
  8
SAPA_PROFIL
 10
135.87383098825481
 20
102.5883893973603
 30
0.0
  0
VERTEX
  5
1D25
  8
SAPA_PROFIL
 10
134.77383098825459
 20
102.5883893973603
 30
0.0
 42
-0.4142135623730951
  0
VERTEX
  5
1D26
  8
SAPA_PROFIL
 10
133.27383098825459
 20
104.0883893973603
 30
0.0
  0
VERTEX
  5
1D27
  8
SAPA_PROFIL
 10
133.27383098825459
 20
106.9223639935758
 30
0.0
 42
-0.267949192431143
  0
VERTEX
  5
1D28
  8
SAPA_PROFIL
 10
133.52383098825459
 20
107.355376695468
 30
0.0
 42
0.767326987978956
  0
VERTEX
  5
1D29
  8
SAPA_PROFIL
 10
133.27383098825459
 20
108.28838939736031
 30
0.0
  0
VERTEX
  5
1D2A
  8
SAPA_PROFIL
 10
98.273830988254645
 20
108.28838939736031
 30
0.0
 42
0.4142135623730951
  0
VERTEX
  5
1D2B
  8
SAPA_PROFIL
 10
97.273830988254645
 20
107.28838939736031
 30
0.0
  0
VERTEX
  5
1D2C
  8
SAPA_PROFIL
 10
97.273830988254645
 20
102.8883893973602
 30
0.0
 42
-0.4142135623730951
  0
VERTEX
  5
1D2D
  8
SAPA_PROFIL
 10
96.97383098825469
 20
102.5883893973603
 30
0.0
  0
VERTEX
  5
1D2E
  8
SAPA_PROFIL
 10
94.673830988254736
 20
102.5883893973603
 30
0.0
 42
-0.4142135623730951
  0
VERTEX
  5
1D2F
  8
SAPA_PROFIL
 10
94.373830988254781
 20
102.8883893973602
 30
0.0
  0
VERTEX
  5
1D30
  8
SAPA_PROFIL
 10
94.373830988254781
 20
103.3883893973602
 30
0.0
 42
-0.4142135623730951
  0
VERTEX
  5
1D31
  8
SAPA_PROFIL
 10
94.673830988254736
 20
103.6883893973604
 30
0.0
  0
VERTEX
  5
1D32
  8
SAPA_PROFIL
 10
95.010457912889137
 20
103.6883893973604
 30
0.0
 42
0.5535245743249297
  0
VERTEX
  5
1D33
  8
SAPA_PROFIL
 10
93.237938590379244
 20
107.99894360889169
 30
0.0
  0
VERTEX
  5
1D34
  8
SAPA_PROFIL
 10
92.950607683551311
 20
107.7116127020635
 30
0.0
 42
-0.4142135623730243
  0
VERTEX
  5
1D35
  8
SAPA_PROFIL
 10
92.597054292958205
 20
107.7116127020638
 30
0.0
  0
VERTEX
  5
1D36
  8
SAPA_PROFIL
 10
92.309723386130258
 20
107.99894360889169
 30
0.0
 42
0.5535245743249292
  0
VERTEX
  5
1D37
  8
SAPA_PROFIL
 10
90.537204063620166
 20
103.6883893973604
 30
0.0
  0
VERTEX
  5
1D38
  8
SAPA_PROFIL
 10
90.873830988254781
 20
103.6883893973604
 30
0.0
 42
-0.4142135623730951
  0
VERTEX
  5
1D39
  8
SAPA_PROFIL
 10
91.173830988254736
 20
103.3883893973602
 30
0.0
  0
VERTEX
  5
1D3A
  8
SAPA_PROFIL
 10
91.173830988254736
 20
102.8883893973602
 30
0.0
 42
-0.4142135623730951
  0
VERTEX
  5
1D3B
  8
SAPA_PROFIL
 10
90.873830988254781
 20
102.5883893973603
 30
0.0
  0
VERTEX
  5
1D3C
  8
SAPA_PROFIL
 10
89.773830988254645
 20
102.5883893973603
 30
0.0
 42
-0.4142135623730951
  0
VERTEX
  5
1D3D
  8
SAPA_PROFIL
 10
88.273830988254645
 20
104.0883893973603
 30
0.0
  0
VERTEX
  5
1D3E
  8
SAPA_PROFIL
 10
88.273830988254645
 20
107.0687741550896
 30
0.0
 42
-0.2679491924311188
  0
VERTEX
  5
1D3F
  8
SAPA_PROFIL
 10
88.423830988254736
 20
107.32858177622499
 30
0.0
 42
0.7673269879789557
  0
VERTEX
  5
1D40
  8
SAPA_PROFIL
 10
88.273830988254645
 20
107.8883893973602
 30
0.0
  0
VERTEX
  5
1D41
  8
SAPA_PROFIL
 10
86.273830988254645
 20
107.88838939736
 30
0.0
 42
0.4142137811865366
  0
VERTEX
  5
1D42
  8
SAPA_PROFIL
 10
85.273830988254645
 20
106.8883901444355
 30
0.0
  0
VERTEX
  5
1D43
  8
SAPA_PROFIL
 10
85.273830988254645
 20
63.688389397360417
 30
0.0
 42
0.4142140000000124
  0
VERTEX
  5
1D44
  8
SAPA_PROFIL
 10
86.273830988254645
 20
62.688389397360417
 30
0.0
  0
VERTEX
  5
1D45
  8
SAPA_PROFIL
 10
88.273830988254645
 20
62.688389397360417
 30
0.0
 42
0.7673269879789457
  0
VERTEX
  5
1D46
  8
SAPA_PROFIL
 10
88.423830988254736
 20
63.248197018495603
 30
0.0
 42
-0.2679491924311191
  0
VERTEX
  5
1D47
  8
SAPA_PROFIL
 10
88.273830988254645
 20
63.508004639631046
 30
0.0
  0
VERTEX
  5
1D48
  8
SAPA_PROFIL
 10
88.273830988254645
 20
66.488389397360365
 30
0.0
 42
-0.4142135623730951
  0
VERTEX
  5
1D49
  8
SAPA_PROFIL
 10
89.773830988254645
 20
67.988389397360379
 30
0.0
  0
VERTEX
  5
1D4A
  8
SAPA_PROFIL
 10
90.873830988254781
 20
67.988389397360379
 30
0.0
 42
-0.4142135623730951
  0
VERTEX
  5
1D4B
  8
SAPA_PROFIL
 10
91.173830988254736
 20
67.688389397360424
 30
0.0
  0
VERTEX
  5
1D4C
  8
SAPA_PROFIL
 10
91.173830988254736
 20
67.188389397360424
 30
0.0
 42
-0.4142135623730951
  0
VERTEX
  5
1D4D
  8
SAPA_PROFIL
 10
90.873830988254781
 20
66.888389397360243
 30
0.0
  0
VERTEX
  5
1D4E
  8
SAPA_PROFIL
 10
90.537204063620166
 20
66.888389397360243
 30
0.0
 42
0.5535245743249307
  0
VERTEX
  5
1D4F
  8
SAPA_PROFIL
 10
92.309723386130258
 20
62.577835185828917
 30
0.0
  0
VERTEX
  5
1D50
  8
SAPA_PROFIL
 10
92.597054292958205
 20
62.865166092656857
 30
0.0
 42
-0.4142135623730951
  0
VERTEX
  5
1D51
  8
SAPA_PROFIL
 10
92.950607683551311
 20
62.865166092656857
 30
0.0
  0
VERTEX
  5
1D52
  8
SAPA_PROFIL
 10
93.237938590379244
 20
62.577835185828917
 30
0.0
 42
0.553524574324932
  0
VERTEX
  5
1D53
  8
SAPA_PROFIL
 10
95.010457912889137
 20
66.888389397360243
 30
0.0
  0
VERTEX
  5
1D54
  8
SAPA_PROFIL
 10
94.673830988254736
 20
66.888389397360243
 30
0.0
 42
-0.4142135623730951
  0
VERTEX
  5
1D55
  8
SAPA_PROFIL
 10
94.373830988254781
 20
67.188389397360424
 30
0.0
  0
VERTEX
  5
1D56
  8
SAPA_PROFIL
 10
94.373830988254781
 20
67.688389397360424
 30
0.0
 42
-0.4142135623730951
  0
VERTEX
  5
1D57
  8
SAPA_PROFIL
 10
94.673830988254736
 20
67.988389397360379
 30
0.0
  0
VERTEX
  5
1D58
  8
SAPA_PROFIL
 10
96.97383098825469
 20
67.988389397360379
 30
0.0
 42
-0.4142135623730951
  0
VERTEX
  5
1D59
  8
SAPA_PROFIL
 10
97.273830988254645
 20
67.688389397360424
 30
0.0
  0
VERTEX
  5
1D5A
  8
SAPA_PROFIL
 10
97.273830988254645
 20
63.288389397360341
 30
0.0
 42
0.4142135623730951
  0
VERTEX
  5
1D5B
  8
SAPA_PROFIL
 10
98.273830988254645
 20
62.288389397360334
 30
0.0
  0
VERTEX
  5
1D5C
  8
SAPA_PROFIL
 10
133.27383098825459
 20
62.288389397360334
 30
0.0
 42
0.7673269879789569
  0
VERTEX
  5
1D5D
  8
SAPA_PROFIL
 10
133.52383098825459
 20
63.2214020992526
 30
0.0
 42
-0.2679491924311163
  0
VERTEX
  5
1D5E
  8
SAPA_PROFIL
 10
133.27383098825459
 20
63.654414801144867
 30
0.0
  0
VERTEX
  5
1D5F
  8
SAPA_PROFIL
 10
133.27383098825459
 20
66.488389397360365
 30
0.0
 42
-0.4142135623730951
  0
VERTEX
  5
1D60
  8
SAPA_PROFIL
 10
134.77383098825459
 20
67.988389397360379
 30
0.0
  0
VERTEX
  5
1D61
  8
SAPA_PROFIL
 10
135.87383098825481
 20
67.988389397360379
 30
0.0
 42
-0.4142135623730951
  0
VERTEX
  5
1D62
  8
SAPA_PROFIL
 10
136.17383098825471
 20
67.688389397360424
 30
0.0
  0
VERTEX
  5
1D63
  8
SAPA_PROFIL
 10
136.17383098825471
 20
67.188389397360424
 30
0.0
 42
-0.4142135623730951
  0
VERTEX
  5
1D64
  8
SAPA_PROFIL
 10
135.87383098825481
 20
66.888389397360243
 30
0.0
  0
VERTEX
  5
1D65
  8
SAPA_PROFIL
 10
135.53720406362009
 20
66.888389397360243
 30
0.0
 42
0.5535245743249307
  0
VERTEX
  5
1D66
  8
SAPA_PROFIL
 10
137.3097233861302
 20
62.577835185828917
 30
0.0
  0
VERTEX
  5
1D67
  8
SAPA_PROFIL
 10
137.59705429295821
 20
62.865166092656857
 30
0.0
 42
-0.4142135623731068
  0
VERTEX
  5
1D68
  8
SAPA_PROFIL
 10
137.95060768355131
 20
62.865166092657091
 30
0.0
  0
VERTEX
  5
1D69
  8
SAPA_PROFIL
 10
138.2379385903792
 20
62.577835185828917
 30
0.0
 42
0.553524574324932
  0
VERTEX
  5
1D6A
  8
SAPA_PROFIL
 10
140.01045791288911
 20
66.888389397360243
 30
0.0
  0
VERTEX
  5
1D6B
  8
SAPA_PROFIL
 10
139.67383098825471
 20
66.888389397360243
 30
0.0
 42
-0.4142135623730951
  0
VERTEX
  5
1D6C
  8
SAPA_PROFIL
 10
139.3738309882547
 20
67.188389397360424
 30
0.0
  0
VERTEX
  5
1D6D
  8
SAPA_PROFIL
 10
139.3738309882547
 20
67.688389397360424
 30
0.0
 42
-0.4142135623730951
  0
VERTEX
  5
1D6E
  8
SAPA_PROFIL
 10
139.67383098825471
 20
67.988389397360379
 30
0.0
  0
VERTEX
  5
1D6F
  8
SAPA_PROFIL
 10
141.97383098825469
 20
67.988389397360379
 30
0.0
 42
-0.4142135623730951
  0
VERTEX
  5
1D70
  8
SAPA_PROFIL
 10
142.27383098825459
 20
67.688389397360424
 30
0.0
  0
VERTEX
  5
1D71
  8
SAPA_PROFIL
 10
142.27383098825459
 20
63.288389397360341
 30
0.0
 42
0.4142135623730951
  0
VERTEX
  5
1D72
  8
SAPA_PROFIL
 10
143.27383098825459
 20
62.288389397360334
 30
0.0
  0
VERTEX
  5
1D73
  8
SAPA_PROFIL
 10
167.97383098825469
 20
62.288389397360334
 30
0.0
 42
0.4142135623730951
  0
VERTEX
  5
1D74
  8
SAPA_PROFIL
 10
168.27383098825459
 20
62.588389397360288
 30
0.0
  0
VERTEX
  5
1D75
  8
SAPA_PROFIL
 10
168.27383098825459
 20
63.888389397360243
 30
0.0
 42
-0.4142135623730951
  0
VERTEX
  5
1D76
  8
SAPA_PROFIL
 10
168.5738309882548
 20
64.188389397360424
 30
0.0
  0
VERTEX
  5
1D77
  8
SAPA_PROFIL
 10
169.14956691954271
 20
64.188389397360424
 30
0.0
 42
-0.1989123673796752
  0
VERTEX
  5
1D78
  8
SAPA_PROFIL
 10
169.36169895389881
 20
64.100521431716288
 30
0.0
  0
VERTEX
  5
1D79
  8
SAPA_PROFIL
 10
171.0859630226108
 20
62.376257363004243
 30
0.0
 42
0.1989123673796057
  0
VERTEX
  5
1D7A
  8
SAPA_PROFIL
 10
171.29809505696659
 20
62.288389397360334
 30
0.0
  0
VERTEX
  5
1D7B
  8
SAPA_PROFIL
 10
174.77383098825459
 20
62.288389397360334
 30
0.0
 42
0.4142135623730951
  0
VERTEX
  5
1D7C
  8
SAPA_PROFIL
 10
175.77383098825459
 20
63.288389397360341
 30
0.0
  0
VERTEX
  5
1D7D
  8
SAPA_PROFIL
 10
175.77383098825459
 20
107.28838939736031
 30
0.0
 42
0.4142135623730951
  0
VERTEX
  5
1D7E
  8
SAPA_PROFIL
 10
174.77383098825459
 20
108.28838939736031
 30
0.0
  0
SEQEND
  5
1D7F
  8
SAPA_PROFIL
  0
POLYLINE
  5
140C
  8
SAPA_PROFIL
 66
     1
 10
0.0
 20
0.0
 30
0.0
 70
     1
  0
VERTEX
  5
1D80
  8
SAPA_PROFIL
 10
83.273830988254645
 20
91.288389397360319
 30
0.0
 42
-0.4142135623730951
  0
VERTEX
  5
1D81
  8
SAPA_PROFIL
 10
82.273830988254645
 20
90.288389397360334
 30
0.0
  0
VERTEX
  5
1D82
  8
SAPA_PROFIL
 10
61.073830988254826
 20
90.288389397360334
 30
0.0
 42
0.4142135623730951
  0
VERTEX
  5
1D83
  8
SAPA_PROFIL
 10
60.773830988254637
 20
89.988389397360365
 30
0.0
  0
VERTEX
  5
1D84
  8
SAPA_PROFIL
 10
60.773830988254637
 20
88.36412539736034
 30
0.0
  0
VERTEX
  5
1D85
  8
SAPA_PROFIL
 10
61.71169895389891
 20
87.526257363004333
 30
0.0
 42
0.668178637919305
  0
VERTEX
  5
1D86
  8
SAPA_PROFIL
 10
62.22383098825469
 20
87.738389397360365
 30
0.0
  0
VERTEX
  5
1D87
  8
SAPA_PROFIL
 10
62.22383098825469
 20
87.988389397360379
 30
0.0
  0
VERTEX
  5
1D88
  8
SAPA_PROFIL
 10
63.600065581831011
 20
87.465109094058334
 30
0.0
 42
0.5450207798987201
  0
VERTEX
  5
1D89
  8
SAPA_PROFIL
 10
64.023830988254645
 20
87.738389397360365
 30
0.0
  0
VERTEX
  5
1D8A
  8
SAPA_PROFIL
 10
64.023830988254645
 20
87.988389397360379
 30
0.0
  0
VERTEX
  5
1D8B
  8
SAPA_PROFIL
 10
65.4000655818312
 20
87.465109094058334
 30
0.0
 42
0.5450207798987201
  0
VERTEX
  5
1D8C
  8
SAPA_PROFIL
 10
65.823830988254826
 20
87.738389397360365
 30
0.0
  0
VERTEX
  5
1D8D
  8
SAPA_PROFIL
 10
65.823830988254826
 20
87.988389397360379
 30
0.0
  0
VERTEX
  5
1D8E
  8
SAPA_PROFIL
 10
67.200065581831154
 20
87.465109094058334
 30
0.0
 42
0.5450207798987342
  0
VERTEX
  5
1D8F
  8
SAPA_PROFIL
 10
67.623830988254781
 20
87.738389397360365
 30
0.0
  0
VERTEX
  5
1D90
  8
SAPA_PROFIL
 10
67.623830988254781
 20
87.988389397360379
 30
0.0
  0
VERTEX
  5
1D91
  8
SAPA_PROFIL
 10
69.000065581831109
 20
87.465109094058334
 30
0.0
 42
0.5450207798987201
  0
VERTEX
  5
1D92
  8
SAPA_PROFIL
 10
69.423830988254736
 20
87.738389397360365
 30
0.0
  0
VERTEX
  5
1D93
  8
SAPA_PROFIL
 10
69.423830988254736
 20
87.988389397360379
 30
0.0
  0
VERTEX
  5
1D94
  8
SAPA_PROFIL
 10
70.147548283060914
 20
87.760626679976212
 30
0.0
 42
-0.2945484962563026
  0
VERTEX
  5
1D95
  8
SAPA_PROFIL
 10
70.323782948009125
 20
87.487271866297974
 30
0.0
  0
VERTEX
  5
1D96
  8
SAPA_PROFIL
 10
70.323575766042609
 20
86.552689335108425
 30
0.0
 42
0.3475954753796591
  0
VERTEX
  5
1D97
  8
SAPA_PROFIL
 10
70.554329810211684
 20
86.260715908038492
 30
0.0
 42
-0.790522909611319
  0
VERTEX
  5
1D98
  8
SAPA_PROFIL
 10
70.554340014652212
 20
84.314725307494882
 30
0.0
 42
0.3476065658631364
  0
VERTEX
  5
1D99
  8
SAPA_PROFIL
 10
70.323589035920008
 20
84.02273758647334
 30
0.0
  0
VERTEX
  5
1D9A
  8
SAPA_PROFIL
 10
70.323735756628935
 20
83.438396735266906
 30
0.0
 42
-0.4102317530969976
  0
VERTEX
  5
1D9B
  8
SAPA_PROFIL
 10
70.027884108475405
 20
83.138361098774567
 30
0.0
 42
0.0712587206050384
  0
VERTEX
  5
1D9C
  8
SAPA_PROFIL
 10
69.943840183547195
 20
83.125133784905074
 30
0.0
  0
VERTEX
  5
1D9D
  8
SAPA_PROFIL
 10
68.523830988254645
 20
82.588389397360274
 30
0.0
  0
VERTEX
  5
1D9E
  8
SAPA_PROFIL
 10
68.523830988254645
 20
82.838389397360274
 30
0.0
 42
0.5450200690651619
  0
VERTEX
  5
1D9F
  8
SAPA_PROFIL
 10
68.100065988254642
 20
83.111670397360285
 30
0.0
  0
VERTEX
  5
1DA0
  8
SAPA_PROFIL
 10
66.72383098825469
 20
82.588389397360274
 30
0.0
  0
VERTEX
  5
1DA1
  8
SAPA_PROFIL
 10
66.723830988254903
 20
82.838389397360274
 30
0.0
 42
0.545020069065176
  0
VERTEX
  5
1DA2
  8
SAPA_PROFIL
 10
66.300065988254687
 20
83.111670397360285
 30
0.0
  0
VERTEX
  5
1DA3
  8
SAPA_PROFIL
 10
64.923830988254736
 20
82.588389397360274
 30
0.0
  0
VERTEX
  5
1DA4
  8
SAPA_PROFIL
 10
64.923830988254736
 20
82.838389397360274
 30
0.0
 42
0.5450200690651692
  0
VERTEX
  5
1DA5
  8
SAPA_PROFIL
 10
64.500065988254732
 20
83.111670397360285
 30
0.0
  0
VERTEX
  5
1DA6
  8
SAPA_PROFIL
 10
63.123830988254781
 20
82.588389397360274
 30
0.0
  0
VERTEX
  5
1DA7
  8
SAPA_PROFIL
 10
63.123830988254781
 20
83.138389397360243
 30
0.0
  0
VERTEX
  5
1DA8
  8
SAPA_PROFIL
 10
61.923830988254728
 20
83.138389397360243
 30
0.0
 42
0.1989123673797004
  0
VERTEX
  5
1DA9
  8
SAPA_PROFIL
 10
61.711698988254618
 20
83.050521397360384
 30
0.0
  0
VERTEX
  5
1DAA
  8
SAPA_PROFIL
 10
60.773830988254637
 20
82.212653397360327
 30
0.0
  0
VERTEX
  5
1DAB
  8
SAPA_PROFIL
 10
60.773830988254637
 20
80.588389397360288
 30
0.0
 42
0.4142135623730951
  0
VERTEX
  5
1DAC
  8
SAPA_PROFIL
 10
61.073830988254826
 20
80.288389397360334
 30
0.0
  0
VERTEX
  5
1DAD
  8
SAPA_PROFIL
 10
82.273830988254645
 20
80.288389397360334
 30
0.0
 42
-0.4142135623730951
  0
VERTEX
  5
1DAE
  8
SAPA_PROFIL
 10
83.273830988254645
 20
79.288389397360334
 30
0.0
  0
VERTEX
  5
1DAF
  8
SAPA_PROFIL
 10
83.273830988254645
 20
71.088389397360274
 30
0.0
 42
-0.4142135623730951
  0
VERTEX
  5
1DB0
  8
SAPA_PROFIL
 10
82.773830988254645
 20
70.588389397360288
 30
0.0
  0
VERTEX
  5
1DB1
  8
SAPA_PROFIL
 10
79.573830988254826
 20
70.588389397360288
 30
0.0
 42
-0.4142135623730951
  0
VERTEX
  5
1DB2
  8
SAPA_PROFIL
 10
79.073830988254826
 20
71.088389397360274
 30
0.0
  0
VERTEX
  5
1DB3
  8
SAPA_PROFIL
 10
79.073830988254826
 20
73.988389397360365
 30
0.0
 42
0.4142135623730951
  0
VERTEX
  5
1DB4
  8
SAPA_PROFIL
 10
78.773830988254645
 20
74.288389397360334
 30
0.0
  0
VERTEX
  5
1DB5
  8
SAPA_PROFIL
 10
78.073830988254826
 20
74.288389397360334
 30
0.0
 42
0.4142135623730951
  0
VERTEX
  5
1DB6
  8
SAPA_PROFIL
 10
77.773830988254645
 20
73.988389397360365
 30
0.0
  0
VERTEX
  5
1DB7
  8
SAPA_PROFIL
 10
77.773830988254645
 20
67.288389397360334
 30
0.0
  0
VERTEX
  5
1DB8
  8
SAPA_PROFIL
 10
78.238754407613783
 20
66.702005381859635
 30
0.0
 42
0.7105995019814511
  0
VERTEX
  5
1DB9
  8
SAPA_PROFIL
 10
78.773830988254645
 20
66.888389397360243
 30
0.0
  0
VERTEX
  5
1DBA
  8
SAPA_PROFIL
 10
78.773830988254645
 20
68.788389397360334
 30
0.0
 42
-0.4142135623730951
  0
VERTEX
  5
1DBB
  8
SAPA_PROFIL
 10
79.073830988254826
 20
69.088389397360274
 30
0.0
  0
VERTEX
  5
1DBC
  8
SAPA_PROFIL
 10
82.973830988254676
 20
69.088389397360274
 30
0.0
 42
-0.4142135623730951
  0
VERTEX
  5
1DBD
  8
SAPA_PROFIL
 10
83.273830988254645
 20
68.788389397360334
 30
0.0
  0
VERTEX
  5
1DBE
  8
SAPA_PROFIL
 10
83.273830988254645
 20
62.088389397360288
 30
0.0
 42
-0.4142135623730951
  0
VERTEX
  5
1DBF
  8
SAPA_PROFIL
 10
82.973830988254676
 20
61.788389397360334
 30
0.0
  0
VERTEX
  5
1DC0
  8
SAPA_PROFIL
 10
79.073830988254826
 20
61.788389397360334
 30
0.0
 42
-0.4142135623730951
  0
VERTEX
  5
1DC1
  8
SAPA_PROFIL
 10
78.773830988254645
 20
62.088389397360288
 30
0.0
  0
VERTEX
  5
1DC2
  8
SAPA_PROFIL
 10
78.773830988254645
 20
63.288389397360341
 30
0.0
 42
0.7105990647993611
  0
VERTEX
  5
1DC3
  8
SAPA_PROFIL
 10
78.238754988254755
 20
63.474773397360423
 30
0.0
  0
VERTEX
  5
1DC4
  8
SAPA_PROFIL
 10
77.773830988254645
 20
62.888389397360243
 30
0.0
  0
VERTEX
  5
1DC5
  8
SAPA_PROFIL
 10
77.773830988254645
 20
60.588389397360288
 30
0.0
 42
0.4142135623730951
  0
VERTEX
  5
1DC6
  8
SAPA_PROFIL
 10
78.073830988254826
 20
60.288389397360334
 30
0.0
  0
VERTEX
  5
1DC7
  8
SAPA_PROFIL
 10
177.27383098825459
 20
60.288389397360334
 30
0.0
 42
0.4142135623730951
  0
VERTEX
  5
1DC8
  8
SAPA_PROFIL
 10
177.77383098825459
 20
60.788389397360341
 30
0.0
  0
VERTEX
  5
1DC9
  8
SAPA_PROFIL
 10
177.77383098825459
 20
109.78838939736031
 30
0.0
 42
0.4142135623730951
  0
VERTEX
  5
1DCA
  8
SAPA_PROFIL
 10
177.27383098825459
 20
110.28838939736031
 30
0.0
  0
VERTEX
  5
1DCB
  8
SAPA_PROFIL
 10
78.073830988254826
 20
110.28838939736031
 30
0.0
 42
0.4142135623730951
  0
VERTEX
  5
1DCC
  8
SAPA_PROFIL
 10
77.773830988254645
 20
109.98838939736029
 30
0.0
  0
VERTEX
  5
1DCD
  8
SAPA_PROFIL
 10
77.773830988254645
 20
107.6883893973604
 30
0.0
  0
VERTEX
  5
1DCE
  8
SAPA_PROFIL
 10
78.238754407613783
 20
107.1020053818597
 30
0.0
 42
0.7105995019814511
  0
VERTEX
  5
1DCF
  8
SAPA_PROFIL
 10
78.773830988254645
 20
107.28838939736031
 30
0.0
  0
VERTEX
  5
1DD0
  8
SAPA_PROFIL
 10
78.773830988254645
 20
108.48838939736039
 30
0.0
 42
-0.4142135623730951
  0
VERTEX
  5
1DD1
  8
SAPA_PROFIL
 10
79.073830988254826
 20
108.78838939736031
 30
0.0
  0
VERTEX
  5
1DD2
  8
SAPA_PROFIL
 10
82.973830988254676
 20
108.78838939736031
 30
0.0
 42
-0.4142135623730951
  0
VERTEX
  5
1DD3
  8
SAPA_PROFIL
 10
83.273830988254645
 20
108.48838939736039
 30
0.0
  0
VERTEX
  5
1DD4
  8
SAPA_PROFIL
 10
83.273830988254645
 20
101.78838939736031
 30
0.0
 42
-0.4142135623730951
  0
VERTEX
  5
1DD5
  8
SAPA_PROFIL
 10
82.973830988254676
 20
101.48838939736039
 30
0.0
  0
VERTEX
  5
1DD6
  8
SAPA_PROFIL
 10
79.073830988254826
 20
101.48838939736039
 30
0.0
 42
-0.4142135623730951
  0
VERTEX
  5
1DD7
  8
SAPA_PROFIL
 10
78.773830988254645
 20
101.78838939736031
 30
0.0
  0
VERTEX
  5
1DD8
  8
SAPA_PROFIL
 10
78.773830988254645
 20
103.6883893973604
 30
0.0
 42
0.7105995019814511
  0
VERTEX
  5
1DD9
  8
SAPA_PROFIL
 10
78.238754407613783
 20
103.874773412861
 30
0.0
  0
VERTEX
  5
1DDA
  8
SAPA_PROFIL
 10
77.773830988254645
 20
103.28838939736031
 30
0.0
  0
VERTEX
  5
1DDB
  8
SAPA_PROFIL
 10
77.773830988254645
 20
96.588389397360274
 30
0.0
 42
0.4142135623730951
  0
VERTEX
  5
1DDC
  8
SAPA_PROFIL
 10
78.073830988254826
 20
96.288389397360334
 30
0.0
  0
VERTEX
  5
1DDD
  8
SAPA_PROFIL
 10
78.773830988254645
 20
96.288389397360334
 30
0.0
 42
0.4142135623730951
  0
VERTEX
  5
1DDE
  8
SAPA_PROFIL
 10
79.073830988254826
 20
96.588389397360274
 30
0.0
  0
VERTEX
  5
1DDF
  8
SAPA_PROFIL
 10
79.073830988254826
 20
99.488389397360379
 30
0.0
 42
-0.4142135623730951
  0
VERTEX
  5
1DE0
  8
SAPA_PROFIL
 10
79.573830988254826
 20
99.988389397360393
 30
0.0
  0
VERTEX
  5
1DE1
  8
SAPA_PROFIL
 10
82.773830988254645
 20
99.988389397360393
 30
0.0
 42
-0.4142135623730951
  0
VERTEX
  5
1DE2
  8
SAPA_PROFIL
 10
83.273830988254645
 20
99.488389397360379
 30
0.0
  0
SEQEND
  5
1DE3
  8
SAPA_PROFIL
  0
LINE
  5
140D
  8
SAPA_PROFIL
 62
     4
 10
85.55929081741499
 20
79.103326988333066
 30
0.0
 11
153.55929081741411
 21
79.103326988333109
 31
0.0
  0
LINE
  5
140E
  8
SAPA_PROFIL
 62
     4
 10
153.55929081741451
 20
91.60332698833345
 30
0.0
 11
85.559290817414535
 21
91.603326988332483
 31
0.0
  0
POLYLINE
  5
140F
  8
SAPA_PROFIL
 62
     4
 66
     1
 10
0.0
 20
0.0
 30
0.0
 70
     1
  0
VERTEX
  5
1DE4
  8
SAPA_PROFIL
 62
     4
 10
86.059290817414976
 20
68.803326988332543
 30
0.0
  0
VERTEX
  5
1DE5
  8
SAPA_PROFIL
 62
     4
 10
98.559290817413626
 20
68.803326988332543
 30
0.0
 42
-0.4142135623729619
  0
VERTEX
  5
1DE6
  8
SAPA_PROFIL
 62
     4
 10
99.059290817413626
 20
68.303326988332984
 30
0.0
  0
VERTEX
  5
1DE7
  8
SAPA_PROFIL
 62
     4
 10
99.05929081741408
 20
64.703326988332719
 30
0.0
 42
0.4142135623731617
  0
VERTEX
  5
1DE8
  8
SAPA_PROFIL
 62
     4
 10
100.05929081741409
 20
63.703326988333401
 30
0.0
  0
VERTEX
  5
1DE9
  8
SAPA_PROFIL
 62
     4
 10
131.059290817414
 20
63.703326988333167
 30
0.0
 42
0.4142135623730951
  0
VERTEX
  5
1DEA
  8
SAPA_PROFIL
 62
     4
 10
132.059290817414
 20
64.703326988333174
 30
0.0
  0
VERTEX
  5
1DEB
  8
SAPA_PROFIL
 62
     4
 10
132.059290817414
 20
68.303326988332543
 30
0.0
 42
-0.4142135623730951
  0
VERTEX
  5
1DEC
  8
SAPA_PROFIL
 62
     4
 10
132.55929081741411
 20
68.803326988332543
 30
0.0
  0
VERTEX
  5
1DED
  8
SAPA_PROFIL
 62
     4
 10
152.55929081741411
 20
68.803326988332472
 30
0.0
 42
0.4142135623730951
  0
VERTEX
  5
1DEE
  8
SAPA_PROFIL
 62
     4
 10
153.55929081741411
 20
69.803326988332472
 30
0.0
  0
VERTEX
  5
1DEF
  8
SAPA_PROFIL
 62
     4
 10
153.55929081741411
 20
100.90332698833279
 30
0.0
 42
0.4142135623730951
  0
VERTEX
  5
1DF0
  8
SAPA_PROFIL
 62
     4
 10
152.55929081741411
 20
101.90332698833279
 30
0.0
  0
VERTEX
  5
1DF1
  8
SAPA_PROFIL
 62
     4
 10
132.55929081741411
 20
101.9033269883333
 30
0.0
 42
-0.4142135623732283
  0
VERTEX
  5
1DF2
  8
SAPA_PROFIL
 62
     4
 10
132.0592908174136
 20
102.4033269883333
 30
0.0
  0
VERTEX
  5
1DF3
  8
SAPA_PROFIL
 62
     4
 10
132.059290817414
 20
106.0033269883331
 30
0.0
 42
0.4142135623730951
  0
VERTEX
  5
1DF4
  8
SAPA_PROFIL
 62
     4
 10
131.059290817414
 20
107.0033269883331
 30
0.0
  0
VERTEX
  5
1DF5
  8
SAPA_PROFIL
 62
     4
 10
100.0592908174136
 20
107.0033269883327
 30
0.0
 42
0.4142135623730951
  0
VERTEX
  5
1DF6
  8
SAPA_PROFIL
 62
     4
 10
99.059290817413626
 20
106.0033269883327
 30
0.0
  0
VERTEX
  5
1DF7
  8
SAPA_PROFIL
 62
     4
 10
99.05929081741408
 20
102.40332698833291
 30
0.0
 42
-0.4142135623730951
  0
VERTEX
  5
1DF8
  8
SAPA_PROFIL
 62
     4
 10
98.55929081741408
 20
101.90332698833291
 30
0.0
  0
VERTEX
  5
1DF9
  8
SAPA_PROFIL
 62
     4
 10
86.05929081741408
 20
101.90332698833301
 30
0.0
 42
0.4142135623730951
  0
VERTEX
  5
1DFA
  8
SAPA_PROFIL
 62
     4
 10
85.559290817414094
 20
101.40332698833301
 30
0.0
  0
VERTEX
  5
1DFB
  8
SAPA_PROFIL
 62
     4
 10
85.55929081741499
 20
69.303326988332543
 30
0.0
 42
0.4142135623730951
  0
SEQEND
  5
1DFC
  8
SAPA_PROFIL
 62
     4
  0
POLYLINE
  5
1410
  8
SAPA_PROFIL
 66
     1
 10
0.0
 20
0.0
 30
0.0
 70
     1
  0
VERTEX
  5
1DFD
  8
SAPA_PROFIL
 10
22.17535591704846
 20
108.0883893973603
 30
0.0
  0
VERTEX
  5
1DFE
  8
SAPA_PROFIL
 10
22.17535591704846
 20
109.0883893973603
 30
0.0
  0
VERTEX
  5
1DFF
  8
SAPA_PROFIL
 10
24.775355917048628
 20
109.0883893973603
 30
0.0
 42
0.4142135623730951
  0
VERTEX
  5
1E00
  8
SAPA_PROFIL
 10
25.275355917048628
 20
109.5883893973603
 30
0.0
  0
VERTEX
  5
1E01
  8
SAPA_PROFIL
 10
25.275355917048628
 20
109.98838939736029
 30
0.0
 42
0.4142135623730951
  0
VERTEX
  5
1E02
  8
SAPA_PROFIL
 10
24.97535591704867
 20
110.28838939736031
 30
0.0
  0
VERTEX
  5
1E03
  8
SAPA_PROFIL
 10
7.2738309892459787
 20
110.28838939736031
 30
0.0
 42
0.4142135623730951
  0
VERTEX
  5
1E04
  8
SAPA_PROFIL
 10
6.7738309892459787
 20
109.78838939736031
 30
0.0
  0
VERTEX
  5
1E05
  8
SAPA_PROFIL
 10
6.7738309892459903
 20
60.788389397360341
 30
0.0
 42
0.4142135623730951
  0
VERTEX
  5
1E06
  8
SAPA_PROFIL
 10
7.273830989245992
 20
60.288389397360334
 30
0.0
  0
VERTEX
  5
1E07
  8
SAPA_PROFIL
 10
24.975355917048692
 20
60.288389397360341
 30
0.0
 42
0.4142135623730951
  0
VERTEX
  5
1E08
  8
SAPA_PROFIL
 10
25.275355917048639
 20
60.588389397360302
 30
0.0
  0
VERTEX
  5
1E09
  8
SAPA_PROFIL
 10
25.275355917048639
 20
60.988389397360379
 30
0.0
 42
0.4142135623730951
  0
VERTEX
  5
1E0A
  8
SAPA_PROFIL
 10
24.775355917048639
 20
61.488389397360379
 30
0.0
  0
VERTEX
  5
1E0B
  8
SAPA_PROFIL
 10
22.175355917048481
 20
61.488389397360379
 30
0.0
  0
VERTEX
  5
1E0C
  8
SAPA_PROFIL
 10
22.175355917048481
 20
62.488389397360393
 30
0.0
  0
VERTEX
  5
1E0D
  8
SAPA_PROFIL
 10
21.171323157415479
 20
63.068050175781543
 30
0.0
 42
0.4155392929676362
  0
VERTEX
  5
1E0E
  8
SAPA_PROFIL
 10
20.076704185623498
 20
62.77207674947568
 30
0.0
  0
VERTEX
  5
1E0F
  8
SAPA_PROFIL
 10
19.33556694732453
 20
61.488389397360379
 30
0.0
  0
VERTEX
  5
1E10
  8
SAPA_PROFIL
 10
9.1738309892458538
 20
61.488389397360372
 30
0.0
 42
-0.4142135623730951
  0
VERTEX
  5
1E11
  8
SAPA_PROFIL
 10
8.1738309892458538
 20
62.488389397360379
 30
0.0
  0
VERTEX
  5
1E12
  8
SAPA_PROFIL
 10
8.1738309892458432
 20
108.0883893973603
 30
0.0
 42
-0.4142135623730951
  0
VERTEX
  5
1E13
  8
SAPA_PROFIL
 10
9.1738309892458432
 20
109.0883893973603
 30
0.0
  0
VERTEX
  5
1E14
  8
SAPA_PROFIL
 10
19.335566947324519
 20
109.0883893973603
 30
0.0
  0
VERTEX
  5
1E15
  8
SAPA_PROFIL
 10
20.07670418562348
 20
107.80470204524499
 30
0.0
 42
0.4155392929676362
  0
VERTEX
  5
1E16
  8
SAPA_PROFIL
 10
21.171323157415468
 20
107.5087286189391
 30
0.0
  0
SEQEND
  5
1E17
  8
SAPA_PROFIL
  0
POLYLINE
  5
1411
  8
SAPA_PROFIL
 66
     1
 10
0.0
 20
0.0
 30
0.0
 70
     1
  0
VERTEX
  5
1E18
  8
SAPA_PROFIL
 10
26.773830989245031
 20
64.438389397359956
 30
0.0
 42
0.1989123673797145
  0
VERTEX
  5
1E19
  8
SAPA_PROFIL
 10
26.685963023601118
 20
64.650521431716243
 30
0.0
  0
VERTEX
  5
1E1A
  8
SAPA_PROFIL
 10
26.285963023601031
 20
65.050521431715879
 30
0.0
 42
0.668178637919182
  0
VERTEX
  5
1E1B
  8
SAPA_PROFIL
 10
25.773830989245031
 20
64.838389397360061
 30
0.0
  0
VERTEX
  5
1E1C
  8
SAPA_PROFIL
 10
25.773830989245031
 20
63.988389397360152
 30
0.0
 42
-0.4142135623730284
  0
VERTEX
  5
1E1D
  8
SAPA_PROFIL
 10
25.273830989245031
 20
63.488389397360152
 30
0.0
  0
VERTEX
  5
1E1E
  8
SAPA_PROFIL
 10
24.88302205952488
 20
63.488389397360152
 30
0.0
 42
-0.17632698070845
  0
VERTEX
  5
1E1F
  8
SAPA_PROFIL
 10
24.690185776619099
 20
63.558576064424408
 30
0.0
  0
VERTEX
  5
1E20
  8
SAPA_PROFIL
 10
22.88099470633944
 20
65.076667624225124
 30
0.0
 42
-0.2216946626429421
  0
VERTEX
  5
1E21
  8
SAPA_PROFIL
 10
22.773830989245479
 20
65.306480957161057
 30
0.0
  0
VERTEX
  5
1E22
  8
SAPA_PROFIL
 10
22.773830989245031
 20
68.838389397360061
 30
0.0
 42
-0.4142135623730951
  0
VERTEX
  5
1E23
  8
SAPA_PROFIL
 10
23.073830989245209
 20
69.138389397360243
 30
0.0
  0
VERTEX
  5
1E24
  8
SAPA_PROFIL
 10
25.4738309892453
 20
69.138389397359774
 30
0.0
 42
-0.4142135623730951
  0
VERTEX
  5
1E25
  8
SAPA_PROFIL
 10
25.773830989245031
 20
68.838389397360061
 30
0.0
  0
VERTEX
  5
1E26
  8
SAPA_PROFIL
 10
25.773830989245031
 20
68.43838939735997
 30
0.0
 42
0.6681786379193188
  0
VERTEX
  5
1E27
  8
SAPA_PROFIL
 10
26.285963023601031
 20
68.226257363004152
 30
0.0
  0
VERTEX
  5
1E28
  8
SAPA_PROFIL
 10
26.685963023601118
 20
68.626257363004243
 30
0.0
 42
0.198912367379658
  0
VERTEX
  5
1E29
  8
SAPA_PROFIL
 10
26.773830989245031
 20
68.838389397360061
 30
0.0
  0
VERTEX
  5
1E2A
  8
SAPA_PROFIL
 10
26.773830989245479
 20
70.638389397359788
 30
0.0
 42
0.4142135623731284
  0
VERTEX
  5
1E2B
  8
SAPA_PROFIL
 10
26.273830989245489
 20
71.138389397359788
 30
0.0
  0
VERTEX
  5
1E2C
  8
SAPA_PROFIL
 10
21.773830989244569
 20
71.138389397360243
 30
0.0
 42
0.4142135623730951
  0
VERTEX
  5
1E2D
  8
SAPA_PROFIL
 10
21.273830989244569
 20
70.638389397360243
 30
0.0
  0
VERTEX
  5
1E2E
  8
SAPA_PROFIL
 10
21.273830989245479
 20
66.638389397360243
 30
0.0
 42
-0.4142135623729619
  0
VERTEX
  5
1E2F
  8
SAPA_PROFIL
 10
20.773830989245479
 20
66.138389397360243
 30
0.0
  0
VERTEX
  5
1E30
  8
SAPA_PROFIL
 10
18.75687434204184
 20
66.138389397360243
 30
0.0
 42
-0.1763269807084973
  0
VERTEX
  5
1E31
  8
SAPA_PROFIL
 10
18.43548053719843
 20
66.255367175800984
 30
0.0
  0
VERTEX
  5
1E32
  8
SAPA_PROFIL
 10
15.95243718440207
 20
68.338887937330128
 30
0.0
 42
-0.2216946626428772
  0
VERTEX
  5
1E33
  8
SAPA_PROFIL
 10
15.77383098924548
 20
68.721910158889386
 30
0.0
  0
VERTEX
  5
1E34
  8
SAPA_PROFIL
 10
15.773830989245029
 20
74.719855668969103
 30
0.0
 42
-0.315298788878991
  0
VERTEX
  5
1E35
  8
SAPA_PROFIL
 10
16.102820917582282
 20
75.189701979361871
 30
0.0
  0
VERTEX
  5
1E36
  8
SAPA_PROFIL
 10
20.115851132570981
 20
76.65032552682851
 30
0.0
 42
0.3152987888789731
  0
VERTEX
  5
1E37
  8
SAPA_PROFIL
 10
20.773830989245479
 20
77.590018147614501
 30
0.0
  0
VERTEX
  5
1E38
  8
SAPA_PROFIL
 10
20.773830989245479
 20
78.638389397360243
 30
0.0
 42
-0.4142135623732616
  0
VERTEX
  5
1E39
  8
SAPA_PROFIL
 10
21.073830989245209
 20
78.938389397360424
 30
0.0
  0
VERTEX
  5
1E3A
  8
SAPA_PROFIL
 10
21.4738309892453
 20
78.938389397360424
 30
0.0
 42
0.4142135623731506
  0
VERTEX
  5
1E3B
  8
SAPA_PROFIL
 10
21.773830989245479
 20
79.238389397360152
 30
0.0
  0
VERTEX
  5
1E3C
  8
SAPA_PROFIL
 10
21.773830989245479
 20
79.638389397360243
 30
0.0
 42
0.4142135623731505
  0
VERTEX
  5
1E3D
  8
SAPA_PROFIL
 10
21.4738309892453
 20
79.938389397360424
 30
0.0
  0
VERTEX
  5
1E3E
  8
SAPA_PROFIL
 10
21.073830989245209
 20
79.938389397360424
 30
0.0
 42
-0.4142135623732061
  0
VERTEX
  5
1E3F
  8
SAPA_PROFIL
 10
20.773830989245479
 20
80.238389397360137
 30
0.0
  0
VERTEX
  5
1E40
  8
SAPA_PROFIL
 10
20.773830989245418
 20
84.664125328648424
 30
0.0
 42
0.198912367379577
  0
VERTEX
  5
1E41
  8
SAPA_PROFIL
 10
20.685963023601062
 20
84.876257363004243
 30
0.0
  0
VERTEX
  5
1E42
  8
SAPA_PROFIL
 10
20.273830989245429
 20
85.288389397360334
 30
0.0
  0
VERTEX
  5
1E43
  8
SAPA_PROFIL
 10
20.685963023601062
 20
85.700521431716425
 30
0.0
 42
0.1989123673795771
  0
VERTEX
  5
1E44
  8
SAPA_PROFIL
 10
20.773830989245418
 20
85.912653466072243
 30
0.0
  0
VERTEX
  5
1E45
  8
SAPA_PROFIL
 10
20.773830989245418
 20
90.338389397360046
 30
0.0
 42
-0.4142135623732059
  0
VERTEX
  5
1E46
  8
SAPA_PROFIL
 10
21.073830989245149
 20
90.638389397360243
 30
0.0
  0
VERTEX
  5
1E47
  8
SAPA_PROFIL
 10
21.473830989245251
 20
90.638389397360243
 30
0.0
 42
0.4142135623731506
  0
VERTEX
  5
1E48
  8
SAPA_PROFIL
 10
21.773830989245429
 20
90.938389397360424
 30
0.0
  0
VERTEX
  5
1E49
  8
SAPA_PROFIL
 10
21.773830989245429
 20
91.338389397360075
 30
0.0
 42
0.4142135623731505
  0
VERTEX
  5
1E4A
  8
SAPA_PROFIL
 10
21.473830989245251
 20
91.638389397360243
 30
0.0
  0
VERTEX
  5
1E4B
  8
SAPA_PROFIL
 10
21.073830989245149
 20
91.638389397360243
 30
0.0
 42
-0.4142135623732615
  0
VERTEX
  5
1E4C
  8
SAPA_PROFIL
 10
20.773830989245418
 20
91.938389397360424
 30
0.0
  0
VERTEX
  5
1E4D
  8
SAPA_PROFIL
 10
20.773830989245418
 20
92.986760647105712
 30
0.0
 42
0.3152987888789731
  0
VERTEX
  5
1E4E
  8
SAPA_PROFIL
 10
20.115851132570921
 20
93.926453267891688
 30
0.0
  0
VERTEX
  5
1E4F
  8
SAPA_PROFIL
 10
16.102820917582221
 20
95.387076815358341
 30
0.0
 42
-0.315298788878991
  0
VERTEX
  5
1E50
  8
SAPA_PROFIL
 10
15.773830989244971
 20
95.856923125751564
 30
0.0
  0
VERTEX
  5
1E51
  8
SAPA_PROFIL
 10
15.77383098924542
 20
101.8548686358308
 30
0.0
 42
-0.2216946626428772
  0
VERTEX
  5
1E52
  8
SAPA_PROFIL
 10
15.95243718440201
 20
102.2378908573901
 30
0.0
  0
VERTEX
  5
1E53
  8
SAPA_PROFIL
 10
18.435480537198369
 20
104.3214116189197
 30
0.0
 42
-0.1763269807084973
  0
VERTEX
  5
1E54
  8
SAPA_PROFIL
 10
18.75687434204178
 20
104.4383893973604
 30
0.0
  0
VERTEX
  5
1E55
  8
SAPA_PROFIL
 10
20.773830989245418
 20
104.4383893973604
 30
0.0
 42
-0.4142135623729619
  0
VERTEX
  5
1E56
  8
SAPA_PROFIL
 10
21.273830989245429
 20
103.9383893973604
 30
0.0
  0
VERTEX
  5
1E57
  8
SAPA_PROFIL
 10
21.273830989244519
 20
99.938389397360424
 30
0.0
 42
0.4142135623730951
  0
VERTEX
  5
1E58
  8
SAPA_PROFIL
 10
21.773830989244519
 20
99.438389397360424
 30
0.0
  0
VERTEX
  5
1E59
  8
SAPA_PROFIL
 10
26.273830989245429
 20
99.438389397360424
 30
0.0
 42
0.4142135623731285
  0
VERTEX
  5
1E5A
  8
SAPA_PROFIL
 10
26.773830989245429
 20
99.938389397360424
 30
0.0
  0
VERTEX
  5
1E5B
  8
SAPA_PROFIL
 10
26.773830989244971
 20
101.73838939736061
 30
0.0
 42
0.198912367379658
  0
VERTEX
  5
1E5C
  8
SAPA_PROFIL
 10
26.685963023601062
 20
101.9505214317164
 30
0.0
  0
VERTEX
  5
1E5D
  8
SAPA_PROFIL
 10
26.285963023600971
 20
102.3505214317165
 30
0.0
 42
0.6681786379193188
  0
VERTEX
  5
1E5E
  8
SAPA_PROFIL
 10
25.773830989244971
 20
102.1383893973602
 30
0.0
  0
VERTEX
  5
1E5F
  8
SAPA_PROFIL
 10
25.773830989244971
 20
101.73838939736061
 30
0.0
 42
-0.4142135623730951
  0
VERTEX
  5
1E60
  8
SAPA_PROFIL
 10
25.47383098924524
 20
101.4383893973604
 30
0.0
  0
VERTEX
  5
1E61
  8
SAPA_PROFIL
 10
23.073830989245149
 20
101.4383893973604
 30
0.0
 42
-0.4142135623730951
  0
VERTEX
  5
1E62
  8
SAPA_PROFIL
 10
22.773830989244971
 20
101.73838939736061
 30
0.0
  0
VERTEX
  5
1E63
  8
SAPA_PROFIL
 10
22.773830989245429
 20
105.2702978375596
 30
0.0
 42
-0.221694662642942
  0
VERTEX
  5
1E64
  8
SAPA_PROFIL
 10
22.880994706339379
 20
105.500111170495
 30
0.0
  0
VERTEX
  5
1E65
  8
SAPA_PROFIL
 10
24.69018577661905
 20
107.0182027302958
 30
0.0
 42
-0.1763269807084499
  0
VERTEX
  5
1E66
  8
SAPA_PROFIL
 10
24.883022059524819
 20
107.08838939736
 30
0.0
  0
VERTEX
  5
1E67
  8
SAPA_PROFIL
 10
25.273830989244971
 20
107.0883893973605
 30
0.0
 42
-0.4142135623730284
  0
VERTEX
  5
1E68
  8
SAPA_PROFIL
 10
25.773830989244971
 20
106.5883893973605
 30
0.0
  0
VERTEX
  5
1E69
  8
SAPA_PROFIL
 10
25.773830989244971
 20
105.73838939736061
 30
0.0
 42
0.668178637919182
  0
VERTEX
  5
1E6A
  8
SAPA_PROFIL
 10
26.285963023600971
 20
105.52625736300431
 30
0.0
  0
VERTEX
  5
1E6B
  8
SAPA_PROFIL
 10
26.685963023601062
 20
105.9262573630044
 30
0.0
 42
0.1989123673797144
  0
VERTEX
  5
1E6C
  8
SAPA_PROFIL
 10
26.773830989244971
 20
106.1383893973602
 30
0.0
  0
VERTEX
  5
1E6D
  8
SAPA_PROFIL
 10
26.773830989244971
 20
108.5883893973605
 30
0.0
 42
0.4142135623730951
  0
VERTEX
  5
1E6E
  8
SAPA_PROFIL
 10
26.273830989244971
 20
109.0883893973605
 30
0.0
  0
VERTEX
  5
1E6F
  8
SAPA_PROFIL
 10
22.573830989245149
 20
109.0883893973605
 30
0.0
 42
0.4142135623730951
  0
VERTEX
  5
1E70
  8
SAPA_PROFIL
 10
22.273830989244971
 20
108.7883893973608
 30
0.0
  0
VERTEX
  5
1E71
  8
SAPA_PROFIL
 10
22.273830989244971
 20
107.7615944781173
 30
0.0
 42
-0.2679491924311428
  0
VERTEX
  5
1E72
  8
SAPA_PROFIL
 10
22.12383098924488
 20
107.50178685698209
 30
0.0
  0
VERTEX
  5
1E73
  8
SAPA_PROFIL
 10
20.586747501704622
 20
106.6143512916837
 30
0.0
 42
-0.4142135623731709
  0
VERTEX
  5
1E74
  8
SAPA_PROFIL
 10
20.176939880569311
 20
106.72415891281931
 30
0.0
  0
VERTEX
  5
1E75
  8
SAPA_PROFIL
 10
19.869707785542001
 20
107.2563005111224
 30
0.0
 42
0.4663076581551056
  0
VERTEX
  5
1E76
  8
SAPA_PROFIL
 10
18.360894772071099
 20
107.52234495424131
 30
0.0
  0
VERTEX
  5
1E77
  8
SAPA_PROFIL
 10
13.45243718440201
 20
103.4036600027775
 30
0.0
 42
0.2216946626428921
  0
VERTEX
  5
1E78
  8
SAPA_PROFIL
 10
13.273830989244971
 20
103.0206377812178
 30
0.0
  0
VERTEX
  5
1E79
  8
SAPA_PROFIL
 10
13.273830989244971
 20
94.988596935570058
 30
0.0
 42
0.3152987888789878
  0
VERTEX
  5
1E7A
  8
SAPA_PROFIL
 10
13.93181084591947
 20
94.048904314784053
 30
0.0
  0
VERTEX
  5
1E7B
  8
SAPA_PROFIL
 10
17.615851132570921
 20
92.708023308605334
 30
0.0
 42
-0.3152987888789804
  0
VERTEX
  5
1E7C
  8
SAPA_PROFIL
 10
18.273830989245418
 20
91.768330687819343
 30
0.0
  0
VERTEX
  5
1E7D
  8
SAPA_PROFIL
 10
18.273830989245479
 20
78.808448106900869
 30
0.0
 42
-0.3152987888789804
  0
VERTEX
  5
1E7E
  8
SAPA_PROFIL
 10
17.615851132570981
 20
77.868755486114878
 30
0.0
  0
VERTEX
  5
1E7F
  8
SAPA_PROFIL
 10
13.93181084591953
 20
76.527874479936585
 30
0.0
 42
0.3152987888789877
  0
VERTEX
  5
1E80
  8
SAPA_PROFIL
 10
13.273830989245029
 20
75.588181859150609
 30
0.0
  0
VERTEX
  5
1E81
  8
SAPA_PROFIL
 10
13.273830989245029
 20
67.556141013502383
 30
0.0
 42
0.2216946626428921
  0
VERTEX
  5
1E82
  8
SAPA_PROFIL
 10
13.45243718440207
 20
67.173118791943125
 30
0.0
  0
VERTEX
  5
1E83
  8
SAPA_PROFIL
 10
18.360894772071159
 20
63.054433840479298
 30
0.0
 42
0.4663076581551056
  0
VERTEX
  5
1E84
  8
SAPA_PROFIL
 10
19.869707785542062
 20
63.320478283597822
 30
0.0
  0
VERTEX
  5
1E85
  8
SAPA_PROFIL
 10
20.176939880569371
 20
63.852619881901319
 30
0.0
 42
-0.414213562373157
  0
VERTEX
  5
1E86
  8
SAPA_PROFIL
 10
20.586747501704679
 20
63.962427503036452
 30
0.0
  0
VERTEX
  5
1E87
  8
SAPA_PROFIL
 10
22.12383098924494
 20
63.074991937738112
 30
0.0
 42
-0.2679491924311554
  0
VERTEX
  5
1E88
  8
SAPA_PROFIL
 10
22.273830989245031
 20
62.815184316602881
 30
0.0
  0
VERTEX
  5
1E89
  8
SAPA_PROFIL
 10
22.273830989245031
 20
61.788389397359879
 30
0.0
 42
0.4142135623730951
  0
VERTEX
  5
1E8A
  8
SAPA_PROFIL
 10
22.573830989245209
 20
61.488389397359697
 30
0.0
  0
VERTEX
  5
1E8B
  8
SAPA_PROFIL
 10
26.273830989245031
 20
61.488389397360152
 30
0.0
 42
0.4142135623730951
  0
VERTEX
  5
1E8C
  8
SAPA_PROFIL
 10
26.773830989245031
 20
61.988389397360152
 30
0.0
  0
SEQEND
  5
1E8D
  8
SAPA_PROFIL
  0
POLYLINE
  5
1412
  8
SAPA_PROFIL
 62
     4
 66
     1
 10
0.0
 20
0.0
 30
0.0
 70
     1
  0
VERTEX
  5
1E8E
  8
SAPA_PROFIL
 62
     4
 10
24.77383098998996
 20
86.202602952058271
 30
0.0
 42
-0.1989123671061432
  0
VERTEX
  5
1E8F
  8
SAPA_PROFIL
 62
     4
 10
25.06672420805933
 20
85.495496171616026
 30
0.0
  0
VERTEX
  5
1E90
  8
SAPA_PROFIL
 62
     4
 10
25.06672420805933
 20
85.081282623104755
 30
0.0
 42
-0.1989123671061405
  0
VERTEX
  5
1E91
  8
SAPA_PROFIL
 62
     4
 10
24.77383098998996
 20
84.37417584266251
 30
0.0
  0
VERTEX
  5
1E92
  8
SAPA_PROFIL
 62
     4
 10
22.541597939607421
 20
82.141942787581513
 30
0.0
 42
0.6681786375387241
  0
VERTEX
  5
1E93
  8
SAPA_PROFIL
 62
     4
 10
22.89515133057273
 20
81.288389397360163
 30
0.0
  0
VERTEX
  5
1E94
  8
SAPA_PROFIL
 62
     4
 10
39.273830989245539
 20
81.288389397360163
 30
0.0
 42
0.4142135623730951
  0
VERTEX
  5
1E95
  8
SAPA_PROFIL
 62
     4
 10
39.773830989245539
 20
81.788389397360149
 30
0.0
  0
VERTEX
  5
1E96
  8
SAPA_PROFIL
 62
     4
 10
39.773830989245539
 20
88.788389397360163
 30
0.0
 42
0.4142135623730951
  0
VERTEX
  5
1E97
  8
SAPA_PROFIL
 62
     4
 10
39.273830989245539
 20
89.288389397360149
 30
0.0
  0
VERTEX
  5
1E98
  8
SAPA_PROFIL
 62
     4
 10
22.89515133057273
 20
89.288389397360149
 30
0.0
 42
0.6681786375387241
  0
VERTEX
  5
1E99
  8
SAPA_PROFIL
 62
     4
 10
22.541597939607421
 20
88.434836007138813
 30
0.0
  0
SEQEND
  5
1E9A
  8
SAPA_PROFIL
 62
     4
  0
POLYLINE
  5
1413
  8
SAPA_PROFIL
 62
     4
 66
     1
 10
0.0
 20
0.0
 30
0.0
 70
     1
  0
VERTEX
  5
1E9B
  8
SAPA_PROFIL
 62
     4
 10
66.504018962958639
 20
86.538389397360163
 30
0.0
  0
VERTEX
  5
1E9C
  8
SAPA_PROFIL
 62
     4
 10
61.209617426872562
 20
86.538389397360163
 30
0.0
  0
VERTEX
  5
1E9D
  8
SAPA_PROFIL
 62
     4
 10
59.773830989245539
 20
87.974175834987179
 30
0.0
  0
VERTEX
  5
1E9E
  8
SAPA_PROFIL
 62
     4
 10
59.773830989245539
 20
88.788389397360163
 30
0.0
 42
0.4142135623730951
  0
VERTEX
  5
1E9F
  8
SAPA_PROFIL
 62
     4
 10
59.273830989245539
 20
89.288389397360149
 30
0.0
  0
VERTEX
  5
1EA0
  8
SAPA_PROFIL
 62
     4
 10
41.273830989245532
 20
89.288389397360149
 30
0.0
 42
0.4142135623730951
  0
VERTEX
  5
1EA1
  8
SAPA_PROFIL
 62
     4
 10
40.773830989245539
 20
88.788389397360163
 30
0.0
  0
VERTEX
  5
1EA2
  8
SAPA_PROFIL
 62
     4
 10
40.773830989245539
 20
81.788389397360149
 30
0.0
 42
0.4142135623730951
  0
VERTEX
  5
1EA3
  8
SAPA_PROFIL
 62
     4
 10
41.273830989245532
 20
81.288389397360163
 30
0.0
  0
VERTEX
  5
1EA4
  8
SAPA_PROFIL
 62
     4
 10
59.273830989245539
 20
81.288389397360163
 30
0.0
 42
0.4142135623730951
  0
VERTEX
  5
1EA5
  8
SAPA_PROFIL
 62
     4
 10
59.773830989245539
 20
81.788389397360149
 30
0.0
  0
VERTEX
  5
1EA6
  8
SAPA_PROFIL
 62
     4
 10
59.773830989245539
 20
82.602602959733574
 30
0.0
  0
VERTEX
  5
1EA7
  8
SAPA_PROFIL
 62
     4
 10
61.209617426872562
 20
84.038389397360163
 30
0.0
  0
VERTEX
  5
1EA8
  8
SAPA_PROFIL
 62
     4
 10
66.504018962958639
 20
84.038389397360163
 30
0.0
 42
0.065831318015991
  0
VERTEX
  5
1EA9
  8
SAPA_PROFIL
 62
     4
 10
67.81022539842445
 20
84.892151107757215
 30
0.0
 42
0.3293016377614416
  0
VERTEX
  5
1EAA
  8
SAPA_PROFIL
 62
     4
 10
67.893068928253683
 20
85.612020638913521
 30
0.0
 42
0.0704800454100707
  0
SEQEND
  5
1EAB
  8
SAPA_PROFIL
 62
     4
  0
POLYLINE
  5
1414
  8
SAPA_PROFIL
 62
     4
 66
     1
 10
0.0
 20
0.0
 30
0.0
 70
     1
  0
VERTEX
  5
1EAC
  8
SAPA_PROFIL
 62
     4
 10
66.178863947460854
 20
87.538389397360163
 30
0.0
  0
VERTEX
  5
1EAD
  8
SAPA_PROFIL
 62
     4
 10
61.623830989245448
 20
87.538389397360163
 30
0.0
  0
VERTEX
  5
1EAE
  8
SAPA_PROFIL
 62
     4
 10
60.773830989245539
 20
88.388389397360072
 30
0.0
  0
VERTEX
  5
1EAF
  8
SAPA_PROFIL
 62
     4
 10
60.773830989245539
 20
89.788389397360163
 30
0.0
 42
0.4142135623730951
  0
VERTEX
  5
1EB0
  8
SAPA_PROFIL
 62
     4
 10
60.273830989245539
 20
90.288389397360163
 30
0.0
  0
VERTEX
  5
1EB1
  8
SAPA_PROFIL
 62
     4
 10
20.773830989245539
 20
90.288389397360163
 30
0.0
  0
VERTEX
  5
1EB2
  8
SAPA_PROFIL
 62
     4
 10
20.773830989245539
 20
88.788389397360163
 30
0.0
  0
VERTEX
  5
1EB3
  8
SAPA_PROFIL
 62
     4
 10
23.920277598652209
 20
85.641942781331011
 30
0.0
 42
-0.4142135623730951
  0
VERTEX
  5
1EB4
  8
SAPA_PROFIL
 62
     4
 10
23.920277598652209
 20
84.934836000144344
 30
0.0
  0
VERTEX
  5
1EB5
  8
SAPA_PROFIL
 62
     4
 10
20.773830989245539
 20
81.788389397360149
 30
0.0
  0
VERTEX
  5
1EB6
  8
SAPA_PROFIL
 62
     4
 10
20.773830989245539
 20
80.288389397360163
 30
0.0
  0
VERTEX
  5
1EB7
  8
SAPA_PROFIL
 62
     4
 10
60.273830989245539
 20
80.288389397360163
 30
0.0
 42
0.4142135623730951
  0
VERTEX
  5
1EB8
  8
SAPA_PROFIL
 62
     4
 10
60.773830989245539
 20
80.788389397360163
 30
0.0
  0
VERTEX
  5
1EB9
  8
SAPA_PROFIL
 62
     4
 10
60.773830989245539
 20
82.188389397360254
 30
0.0
  0
VERTEX
  5
1EBA
  8
SAPA_PROFIL
 62
     4
 10
61.623830989245448
 20
83.038389397360149
 30
0.0
  0
VERTEX
  5
1EBB
  8
SAPA_PROFIL
 62
     4
 10
66.178863947460854
 20
83.038389397360149
 30
0.0
 42
0.0912836897734228
  0
VERTEX
  5
1EBC
  8
SAPA_PROFIL
 62
     4
 10
68.298420981062804
 20
84.257031065170224
 30
0.0
 42
0.4609552212306322
  0
VERTEX
  5
1EBD
  8
SAPA_PROFIL
 62
     4
 10
68.298420981062804
 20
86.319747729550556
 30
0.0
 42
0.0912836897734229
  0
SEQEND
  5
1EBE
  8
SAPA_PROFIL
 62
     4
  0
LINE
  5
1415
  8
SAPA_PROFIL
 10
6.773830989245254
 20
85.288389397360277
 30
0.0
 11
6.773830989245254
 21
60.78838939736027
 31
0.0
  0
LINE
  5
1416
  8
SAPA_PROFIL
 10
177.77383098825459
 20
64.355740754076095
 30
0.0
 11
177.77383098825459
 21
60.78838939735985
 31
0.0
  0
POLYLINE
  5
141F
  8
SAPA_GLAS
 66
     1
 10
0.0
 20
0.0
 30
0.0
 70
     1
  0
VERTEX
  5
1ED3
  8
SAPA_GLAS
 10
49.14836783772386
 20
96.722545853281929
 30
0.0
  0
VERTEX
  5
1ED4
  8
SAPA_GLAS
 10
49.148367837723917
 20
107.03723589316149
 30
0.0
  0
VERTEX
  5
1ED5
  8
SAPA_GLAS
 10
37.148367837722112
 20
107.03723589316149
 30
0.0
  0
VERTEX
  5
1ED6
  8
SAPA_GLAS
 10
37.148367837722049
 20
96.722545853281929
 30
0.0
  0
SEQEND
  5
1ED7
  8
SAPA_GLAS
  0
POLYLINE
  5
1420
  8
SAPA_GLAS
 66
     1
 10
0.0
 20
0.0
 30
0.0
  0
VERTEX
  5
1ED8
  8
SAPA_GLAS
 10
37.148367837722112
 20
126.7225458532823
 30
0.0
  0
VERTEX
  5
1ED9
  8
SAPA_GLAS
 10
37.148367837722049
 20
96.722545853281929
 30
0.0
  0
VERTEX
  5
1EDA
  8
SAPA_GLAS
 10
31.148367837722049
 20
96.722545853281929
 30
0.0
  0
VERTEX
  5
1EDB
  8
SAPA_GLAS
 10
31.148367837722329
 20
126.7225458532823
 30
0.0
  0
SEQEND
  5
1EDC
  8
SAPA_GLAS
  0
POLYLINE
  5
1421
  8
SAPA_GLAS
 66
     1
 10
0.0
 20
0.0
 30
0.0
  0
VERTEX
  5
1EDD
  8
SAPA_GLAS
 10
49.148367837723917
 20
126.7225458532823
 30
0.0
  0
VERTEX
  5
1EDE
  8
SAPA_GLAS
 10
49.14836783772386
 20
96.722545853281929
 30
0.0
  0
VERTEX
  5
1EDF
  8
SAPA_GLAS
 10
67.148367837723868
 20
96.722545853281929
 30
0.0
  0
VERTEX
  5
1EE0
  8
SAPA_GLAS
 10
67.148367837723924
 20
126.7225458532823
 30
0.0
  0
SEQEND
  5
1EE1
  8
SAPA_GLAS
  0
POLYLINE
  5
1422
  8
SAPA_GLAS
 66
     1
 10
0.0
 20
0.0
 30
0.0
  0
VERTEX
  5
1EE2
  8
SAPA_GLAS
 10
55.148367837723917
 20
126.7225458532823
 30
0.0
  0
VERTEX
  5
1EE3
  8
SAPA_GLAS
 10
55.148367837723868
 20
96.722545853281929
 30
0.0
  0
VERTEX
  5
1EE4
  8
SAPA_GLAS
 10
61.14836783772386
 20
96.722545853281929
 30
0.0
  0
VERTEX
  5
1EE5
  8
SAPA_GLAS
 10
61.148367837723931
 20
126.7225458532823
 30
0.0
  0
SEQEND
  5
1EE6
  8
SAPA_GLAS
  0
INSERT
  5
1428
  8
SAPA_ISOLATOR
  6
CONTINUOUS
  2
*X65
 10
0.0
 20
0.0
 30
0.0
1001
ACAD
1000
HATCH
1002
{
1070
    19
1000
DOTS
1040
1.75
1040
-1.5707963267948959
1000
R14_HATCH_DATA
1000
1428
1011
1.0
1021
0.0
1031
0.0
1021
0.0
1031
0.0
1011
0.0
1021
0.0
1031
0.0
1021
1.0
1031
0.0
1011
0.0
1021
0.0
1031
0.0
1021
0.0
1031
1.0
1040
0.0
1010
0.0
1020
0.0
1030
1.0
1000
DOTS
1070
     0
1070
     0
1071
        3
1071
        7
1070
     1
1070
     1
1071
       14
1040
100.0592908174136
1040
106.8533269883327
1040
0.4142135623730952
1040
99.059290817413626
1040
105.8533269883327
1040
0.0
1040
99.05929081741408
1040
102.65332698833291
1040
-0.4142135623730951
1040
98.55929081741408
1040
102.15332698833291
1040
0.0
1040
86.05929081741408
1040
102.15332698833301
1040
0.4142135623730951
1040
85.559290817414094
1040
101.65332698833301
1040
0.0
1040
85.55929081741435
1040
91.853326988332483
1040
0.0
1040
153.55929081741411
1040
91.85332698833345
1040
0.0
1040
153.55929081741411
1040
101.15332698833279
1040
0.4142135623730951
1040
152.55929081741411
1040
102.15332698833279
1040
0.0
1040
132.55929081741411
1040
102.1533269883333
1040
-0.4142135623730951
1040
132.0592908174136
1040
102.6533269883333
1040
0.0
1040
132.059290817414
1040
105.85332698833309
1040
0.4142135623730951
1040
131.059290817414
1040
106.85332698833309
1040
0.0
1071
        0
1071
        7
1070
     0
1070
     1
1071
        4
1040
85.55929081741435
1040
91.853326988332483
1040
85.559290817414706
1040
78.853326988333066
1040
153.55929081741411
1040
78.853326988333109
1040
153.55929081741411
1040
91.85332698833345
1071
        0
1071
        7
1070
     1
1070
     1
1071
       14
1040
131.059290817414
1040
63.853326988333173
1040
0.4142135623730951
1040
132.059290817414
1040
64.853326988333166
1040
0.0
1040
132.059290817414
1040
68.053326988332543
1040
-0.4142135623730951
1040
132.55929081741411
1040
68.553326988332543
1040
0.0
1040
152.55929081741411
1040
68.553326988332472
1040
0.4142135623730951
1040
153.55929081741411
1040
69.553326988332472
1040
0.0
1040
153.55929081741411
1040
78.853326988333109
1040
0.0
1040
85.559290817414706
1040
78.853326988333066
1040
0.0
1040
85.55929081741499
1040
69.053326988332543
1040
0.4142135623730951
1040
86.059290817414976
1040
68.553326988332543
1040
0.0
1040
98.559290817413626
1040
68.553326988332543
1040
-0.4142135623730951
1040
99.059290817413626
1040
68.053326988332998
1040
0.0
1040
99.05929081741408
1040
64.853326988332725
1040
0.4142135623732283
1040
100.05929081741409
1040
63.85332698833318
1040
0.0
1071
        0
1070
     0
1070
     1
1040
-1.5707963267948959
1040
1.75
1070
     0
1070
     1
1040
4.7123889803846888
1040
-320.07868139158268
1040
545.14178943925606
1040
2.7781249999999988
1040
-1.3890625000000001
1070
     2
1040
0.0
1040
-2.7781249999999988
1040
0.1995749341186441
1071
        3
1040
118.77560560166989
1040
104.09113459175811
1040
0.0
1040
120.7713557709356
1040
87.31822970639351
1040
0.0
1040
121.5696554707696
1040
70.545321822281636
1040
0.0
1002
}
  0
CIRCLE
  5
1435
  8
SAPA_FOGBAND
 10
28.24536413289605
 20
103.91774619297399
 30
0.0
 40
0.2549509756796394
  0
POLYLINE
  5
1436
  8
SAPA_FOGBAND
 66
     1
 10
0.0
 20
0.0
 30
0.0
 70
     1
  0
VERTEX
  5
21FC
  8
SAPA_FOGBAND
 10
25.673830989244721
 20
103.0177461929744
 30
0.0
 42
0.9999999999999998
  0
VERTEX
  5
21FD
  8
SAPA_FOGBAND
 10
25.673830989244721
 20
104.8177461929746
 30
0.0
  0
VERTEX
  5
21FE
  8
SAPA_FOGBAND
 10
25.07383098924436
 20
104.8177461929746
 30
0.0
 42
0.9999999999999998
  0
VERTEX
  5
21FF
  8
SAPA_FOGBAND
 10
25.07383098924436
 20
103.0177461929744
 30
0.0
  0
SEQEND
  5
2200
  8
SAPA_FOGBAND
  0
POLYLINE
  5
1437
  8
SAPA_FOGBAND
 66
     1
 10
0.0
 20
0.0
 30
0.0
 70
     1
  0
VERTEX
  5
2201
  8
SAPA_FOGBAND
 10
29.10960228439615
 20
99.66774619297405
 30
0.0
  0
VERTEX
  5
2202
  8
SAPA_FOGBAND
 10
26.973830989244899
 20
99.66774619297405
 30
0.0
 42
-0.4142135623730951
  0
VERTEX
  5
2203
  8
SAPA_FOGBAND
 10
26.773830989245081
 20
99.867746192973868
 30
0.0
  0
VERTEX
  5
2204
  8
SAPA_FOGBAND
 10
26.773830989245081
 20
101.91774619297399
 30
0.0
 42
0.4142135623730951
  0
VERTEX
  5
2205
  8
SAPA_FOGBAND
 10
26.273830989245091
 20
102.41774619297399
 30
0.0
  0
VERTEX
  5
2206
  8
SAPA_FOGBAND
 10
25.547036070001351
 20
102.41774619297399
 30
0.0
  0
VERTEX
  5
2207
  8
SAPA_FOGBAND
 10
25.479576160691408
 20
102.1659823839537
 30
0.0
 42
-0.4740571810232154
  0
VERTEX
  5
2208
  8
SAPA_FOGBAND
 10
25.197293575053099
 20
102.0386885215904
 30
0.0
  0
VERTEX
  5
2209
  8
SAPA_FOGBAND
 10
23.75108743829276
 20
102.6587890243491
 30
0.0
 42
-0.2846003776496056
  0
VERTEX
  5
220A
  8
SAPA_FOGBAND
 10
23.473830989244899
 20
103.1064332028091
 30
0.0
  0
VERTEX
  5
220B
  8
SAPA_FOGBAND
 10
23.473830989244899
 20
104.7290591831398
 30
0.0
 42
-0.2846003776496054
  0
VERTEX
  5
220C
  8
SAPA_FOGBAND
 10
23.75108743829276
 20
105.17670336159981
 30
0.0
  0
VERTEX
  5
220D
  8
SAPA_FOGBAND
 10
25.197293575053099
 20
105.79680386435849
 30
0.0
 42
-0.4740571810232154
  0
VERTEX
  5
220E
  8
SAPA_FOGBAND
 10
25.479576160691408
 20
105.6695100019943
 30
0.0
  0
VERTEX
  5
220F
  8
SAPA_FOGBAND
 10
25.547036070001351
 20
105.41774619297399
 30
0.0
  0
VERTEX
  5
2210
  8
SAPA_FOGBAND
 10
26.273830989245091
 20
105.41774619297399
 30
0.0
 42
0.4142135623730951
  0
VERTEX
  5
2211
  8
SAPA_FOGBAND
 10
26.773830989245081
 20
105.91774619297399
 30
0.0
  0
VERTEX
  5
2212
  8
SAPA_FOGBAND
 10
26.773830989245081
 20
108.9677461929742
 30
0.0
 42
0.4142135623730951
  0
VERTEX
  5
2213
  8
SAPA_FOGBAND
 10
26.57383098924436
 20
109.16774619297399
 30
0.0
  0
VERTEX
  5
2214
  8
SAPA_FOGBAND
 10
25.673830989244721
 20
109.16774619297399
 30
0.0
 42
-0.4142135623730951
  0
VERTEX
  5
2215
  8
SAPA_FOGBAND
 10
25.473830989244899
 20
109.3677461929738
 30
0.0
  0
VERTEX
  5
2216
  8
SAPA_FOGBAND
 10
25.473830989244899
 20
110.0677461929745
 30
0.0
 42
-0.4142135623730951
  0
VERTEX
  5
2217
  8
SAPA_FOGBAND
 10
25.773830989245091
 20
110.3677461929738
 30
0.0
  0
VERTEX
  5
2218
  8
SAPA_FOGBAND
 10
26.584342765896849
 20
110.3677461929738
 30
0.0
 42
0.1316524975873982
  0
VERTEX
  5
2219
  8
SAPA_FOGBAND
 10
27.584342765896849
 20
110.6356953854056
 30
0.0
  0
VERTEX
  5
221A
  8
SAPA_FOGBAND
 10
30.62569696258516
 20
114.6064079225071
 30
0.0
 42
-0.876976462992761
  0
VERTEX
  5
221B
  8
SAPA_FOGBAND
 10
31.143038298701409
 20
114.50350233259729
 30
0.0
  0
VERTEX
  5
221C
  8
SAPA_FOGBAND
 10
30.589193502157741
 20
109.07884077072509
 30
0.0
 42
0.1353185728426623
  0
VERTEX
  5
221D
  8
SAPA_FOGBAND
 10
30.589193502157741
 20
109.07884077072509
 30
0.0
  0
VERTEX
  5
221E
  8
SAPA_FOGBAND
 10
31.0012301945576
 20
108.84095127789629
 30
0.0
 42
-0.5773502691896196
  0
VERTEX
  5
221F
  8
SAPA_FOGBAND
 10
31.0012301945576
 20
108.4945411163817
 30
0.0
  0
VERTEX
  5
2220
  8
SAPA_FOGBAND
 10
30.588919631996308
 20
108.2564934996508
 30
0.0
  0
VERTEX
  5
2221
  8
SAPA_FOGBAND
 10
30.588919631996308
 20
107.4789988897346
 30
0.0
  0
VERTEX
  5
2222
  8
SAPA_FOGBAND
 10
31.0012301945576
 20
107.2409512778959
 30
0.0
 42
-0.5773502691896196
  0
VERTEX
  5
2223
  8
SAPA_FOGBAND
 10
31.0012301945576
 20
106.8945411163823
 30
0.0
  0
VERTEX
  5
2224
  8
SAPA_FOGBAND
 10
30.588919631996308
 20
106.6564934996514
 30
0.0
  0
VERTEX
  5
2225
  8
SAPA_FOGBAND
 10
30.588919631996308
 20
105.87899888973431
 30
0.0
  0
VERTEX
  5
2226
  8
SAPA_FOGBAND
 10
31.0012301945576
 20
105.64095127789641
 30
0.0
 42
-0.5773502691896196
  0
VERTEX
  5
2227
  8
SAPA_FOGBAND
 10
31.0012301945576
 20
105.29454111638201
 30
0.0
  0
VERTEX
  5
2228
  8
SAPA_FOGBAND
 10
30.588919631996308
 20
105.05649349965201
 30
0.0
  0
VERTEX
  5
2229
  8
SAPA_FOGBAND
 10
30.588919631996308
 20
104.27899888973489
 30
0.0
  0
VERTEX
  5
222A
  8
SAPA_FOGBAND
 10
31.0012301945576
 20
104.0409512778961
 30
0.0
 42
-0.5773502691896196
  0
VERTEX
  5
222B
  8
SAPA_FOGBAND
 10
31.0012301945576
 20
103.6945411163825
 30
0.0
  0
VERTEX
  5
222C
  8
SAPA_FOGBAND
 10
30.588919631996308
 20
103.4564934996516
 30
0.0
  0
VERTEX
  5
222D
  8
SAPA_FOGBAND
 10
30.588919631996308
 20
102.6789988897345
 30
0.0
  0
VERTEX
  5
222E
  8
SAPA_FOGBAND
 10
31.0012301945576
 20
102.44095127789581
 30
0.0
 42
-0.5773502691896196
  0
VERTEX
  5
222F
  8
SAPA_FOGBAND
 10
31.0012301945576
 20
102.0945411163822
 30
0.0
  0
VERTEX
  5
2230
  8
SAPA_FOGBAND
 10
30.588919631996308
 20
101.85649349965119
 30
0.0
  0
VERTEX
  5
2231
  8
SAPA_FOGBAND
 10
30.588919631996308
 20
101.0789988855696
 30
0.0
  0
VERTEX
  5
2232
  8
SAPA_FOGBAND
 10
31.0012301945576
 20
100.84095127373079
 30
0.0
 42
-0.5773502691896196
  0
VERTEX
  5
2233
  8
SAPA_FOGBAND
 10
31.0012301945576
 20
100.49454111221721
 30
0.0
  0
VERTEX
  5
2234
  8
SAPA_FOGBAND
 10
29.209602285166849
 20
99.694541112662705
 30
0.0
 42
-0.1316524987190407
  0
SEQEND
  5
2235
  8
SAPA_FOGBAND
  0
POLYLINE
  5
1438
  8
SAPA_FOGBAND
 66
     1
 10
0.0
 20
0.0
 30
0.0
 70
     1
  0
VERTEX
  5
2236
  8
SAPA_FOGBAND
 10
79.180805919445845
 20
104.5484271832872
 30
0.0
 42
-0.9999999999999998
  0
VERTEX
  5
2237
  8
SAPA_FOGBAND
 10
79.180805919445845
 20
106.3484271832865
 30
0.0
  0
VERTEX
  5
2238
  8
SAPA_FOGBAND
 10
79.780805919446209
 20
106.3484271832865
 30
0.0
 42
-0.9999999999999998
  0
VERTEX
  5
2239
  8
SAPA_FOGBAND
 10
79.780805919446209
 20
104.5484271832872
 30
0.0
  0
SEQEND
  5
223A
  8
SAPA_FOGBAND
  0
POLYLINE
  5
1439
  8
SAPA_FOGBAND
 66
     1
 10
0.0
 20
0.0
 30
0.0
  0
VERTEX
  5
223B
  8
SAPA_FOGBAND
 10
77.566175421808509
 20
109.04842539007829
 30
0.0
  0
VERTEX
  5
223C
  8
SAPA_FOGBAND
 10
77.866175421807782
 20
109.04842539007829
 30
0.0
  0
VERTEX
  5
223D
  8
SAPA_FOGBAND
 10
77.566175421808509
 20
109.04842539007829
 30
0.0
 42
0.4142135623730951
  0
VERTEX
  5
223E
  8
SAPA_FOGBAND
 10
77.066175421808495
 20
108.54842539007829
 30
0.0
  0
VERTEX
  5
223F
  8
SAPA_FOGBAND
 10
77.066175421808495
 20
101.2484253900773
 30
0.0
 42
0.4142135623730951
  0
VERTEX
  5
2240
  8
SAPA_FOGBAND
 10
77.566175421808509
 20
100.7484253900772
 30
0.0
  0
VERTEX
  5
2241
  8
SAPA_FOGBAND
 10
77.866175421807782
 20
100.7484253900772
 30
0.0
  0
SEQEND
  5
2242
  8
SAPA_FOGBAND
  0
POLYLINE
  5
143A
  8
SAPA_FOGBAND
 66
     1
 10
0.0
 20
0.0
 30
0.0
 70
     1
  0
VERTEX
  5
2243
  8
SAPA_FOGBAND
 10
70.682806542031699
 20
92.312018434239064
 30
0.0
  0
VERTEX
  5
2244
  8
SAPA_FOGBAND
 10
69.772490095937755
 20
92.312018434239064
 30
0.0
 42
-0.4554491290172674
  0
VERTEX
  5
2245
  8
SAPA_FOGBAND
 10
69.091332308529104
 20
93.203343177289113
 30
0.0
  0
VERTEX
  5
2246
  8
SAPA_FOGBAND
 10
69.225220103867628
 20
97.139750133127393
 30
0.0
 42
-0.4464785874932439
  0
VERTEX
  5
2247
  8
SAPA_FOGBAND
 10
70.219297408973375
 20
98.248425390077315
 30
0.0
  0
VERTEX
  5
2248
  8
SAPA_FOGBAND
 10
72.525882476274433
 20
98.248425390077273
 30
0.0
 42
-0.622676997742357
  0
VERTEX
  5
2249
  8
SAPA_FOGBAND
 10
73.317764204438731
 20
96.637750903463029
 30
0.0
  0
VERTEX
  5
224A
  8
SAPA_FOGBAND
 10
71.036599845584874
 20
92.701343947627095
 30
0.0
 42
-0.3900438909171161
  0
SEQEND
  5
224B
  8
SAPA_FOGBAND
  0
POLYLINE
  5
143B
  8
SAPA_FOGBAND
 66
     1
 10
0.0
 20
0.0
 30
0.0
 70
     1
  0
VERTEX
  5
224C
  8
SAPA_FOGBAND
 10
79.307600838690121
 20
103.948425390078
 30
0.0
  0
VERTEX
  5
224D
  8
SAPA_FOGBAND
 10
79.375060748000976
 20
103.6966615810568
 30
0.0
 42
0.4740571810232144
  0
VERTEX
  5
224E
  8
SAPA_FOGBAND
 10
79.65734333363929
 20
103.56936771869429
 30
0.0
  0
VERTEX
  5
224F
  8
SAPA_FOGBAND
 10
81.103549470398704
 20
104.1894682214522
 30
0.0
 42
0.2846003776496053
  0
VERTEX
  5
2250
  8
SAPA_FOGBAND
 10
81.380805919446573
 20
104.63711239991309
 30
0.0
  0
VERTEX
  5
2251
  8
SAPA_FOGBAND
 10
81.380805919446573
 20
106.25973838024279
 30
0.0
 42
0.2846003776496027
  0
VERTEX
  5
2252
  8
SAPA_FOGBAND
 10
81.103549470398704
 20
106.7073825587038
 30
0.0
  0
VERTEX
  5
2253
  8
SAPA_FOGBAND
 10
79.65734333363929
 20
107.32748306146161
 30
0.0
 42
0.4740571810232332
  0
VERTEX
  5
2254
  8
SAPA_FOGBAND
 10
79.375060748000976
 20
107.20018919909739
 30
0.0
  0
VERTEX
  5
2255
  8
SAPA_FOGBAND
 10
79.307600838690121
 20
106.948425390078
 30
0.0
  0
VERTEX
  5
2256
  8
SAPA_FOGBAND
 10
78.366175421807782
 20
106.948425390078
 30
0.0
 42
-0.4142135623730951
  0
VERTEX
  5
2257
  8
SAPA_FOGBAND
 10
77.866175421807782
 20
107.448425390078
 30
0.0
  0
VERTEX
  5
2258
  8
SAPA_FOGBAND
 10
77.866175421807782
 20
109.96058555345979
 30
0.0
 42
0.4027293761437467
  0
VERTEX
  5
2259
  8
SAPA_FOGBAND
 10
77.577982784339326
 20
110.2603531070569
 30
0.0
  0
VERTEX
  5
225A
  8
SAPA_FOGBAND
 10
67.445636009062071
 20
110.7481929217272
 30
0.0
 42
0.4257917699693538
  0
VERTEX
  5
225B
  8
SAPA_FOGBAND
 10
67.133828646531981
 20
110.4484253681283
 30
0.0
  0
VERTEX
  5
225C
  8
SAPA_FOGBAND
 10
67.133828646531924
 20
96.742891708904438
 30
0.0
  0
VERTEX
  5
225D
  8
SAPA_FOGBAND
 10
67.159355621908048
 20
91.205287938925096
 30
0.0
 42
0.3826682380870986
  0
VERTEX
  5
225E
  8
SAPA_FOGBAND
 10
68.153432927013796
 20
90.313963195876852
 30
0.0
  0
VERTEX
  5
225F
  8
SAPA_FOGBAND
 10
70.071256965754742
 20
90.251342543506595
 30
0.0
 42
0.2325311832130604
  0
VERTEX
  5
2260
  8
SAPA_FOGBAND
 10
70.467197829836891
 20
90.446005300200625
 30
0.0
  0
VERTEX
  5
2261
  8
SAPA_FOGBAND
 10
77.65805714997208
 20
99.809651352729603
 30
0.0
 42
0.1657205760184606
  0
VERTEX
  5
2262
  8
SAPA_FOGBAND
 10
77.866175421807782
 20
100.42032583934331
 30
0.0
  0
VERTEX
  5
2263
  8
SAPA_FOGBAND
 10
77.866175421807782
 20
103.448425390078
 30
0.0
 42
-0.4142135623730951
  0
VERTEX
  5
2264
  8
SAPA_FOGBAND
 10
78.366175421807782
 20
103.948425390078
 30
0.0
  0
SEQEND
  5
2265
  8
SAPA_FOGBAND
  0
POLYLINE
  5
143C
  8
SAPA_FOGBAND
 66
     1
 10
0.0
 20
0.0
 30
0.0
 70
     1
  0
VERTEX
  5
2266
  8
SAPA_FOGBAND
 10
73.366175421807782
 20
102.3993568905814
 30
0.0
  0
VERTEX
  5
2267
  8
SAPA_FOGBAND
 10
73.366175421807782
 20
104.8993568905814
 30
0.0
 42
1.231150638385174
  0
VERTEX
  5
2268
  8
SAPA_FOGBAND
 10
70.117182264280416
 20
104.8993568905815
 30
0.0
  0
VERTEX
  5
2269
  8
SAPA_FOGBAND
 10
70.117182264280416
 20
102.3993568905815
 30
0.0
 42
1.231150638385174
  0
SEQEND
  5
226A
  8
SAPA_FOGBAND
  0
VIEWPORT
  5
4E8
 67
     1
  8
0
 10
128.5
 20
97.5
 30
0.0
 40
350.36076923076922
 41
222.18000000000001
 68
     1
 69
     1
1001
ACAD
1000
MVIEW
1002
{
1070
    16
1010
0.0
1020
0.0
1030
0.0
1010
0.0
1020
0.0
1030
1.0
1040
0.0
1040
243.91057808312641
1040
128.50000069150701
1040
97.500000488944423
1040
50.0
1040
0.0
1040
0.0
1070
     0
1070
     0
1070
     1
1070
     1
1070
     0
1070
     0
1070
     0
1070
     0
1040
0.0
1040
0.0
1040
0.0
1040
10.0
1040
10.0
1040
10.0
1040
10.0
1070
     0
1002
{
1002
}
1002
}
  0
VIEWPORT
  5
4EC
 67
     1
  8
MATT
 10
128.5
 20
97.5
 30
0.0
 40
205.59999999999999
 41
156.0
 68
     2
 69
     2
1001
ACAD
1000
MVIEW
1002
{
1070
    16
1010
0.0
1020
0.0
1030
0.0
1010
0.0
1020
0.0
1030
1.0
1040
0.0
1040
256.67197173437398
1040
53.854070950713819
1040
116.69145612784131
1040
50.0
1040
0.0
1040
0.0
1070
     0
1070
   100
1070
     1
1070
     1
1070
     0
1070
     0
1070
     0
1070
     0
1040
0.0
1040
0.0
1040
0.0
1040
1.0
1040
1.0
1040
0.0
1040
0.0
1070
     0
1002
{
1002
}
1002
}
  0
ENDSEC
  0
EOF
