  0
SECTION
  2
HEADER
  9
$ACADVER
  1
AC1009
  9
$INSBASE
 10
339.77233197927183
 20
232.3505797206594
 30
0.0
  9
$EXTMIN
 10
-44.431284411979959
 20
-44.481575982826413
 30
0.0
  9
$EXTMAX
 10
69.501092021216209
 20
190.81140157069831
 30
0.0
  9
$LIMMIN
 10
0.0
 20
0.0
  9
$LIMMAX
 10
790.0
 20
790.0
  9
$ORTHOMODE
 70
     1
  9
$REGENMODE
 70
     1
  9
$FILLMODE
 70
     1
  9
$QTEXTMODE
 70
     0
  9
$MIRRTEXT
 70
     1
  9
$DRAGMODE
 70
     2
  9
$LTSCALE
 40
4.0
  9
$OSMODE
 70
   167
  9
$ATTMODE
 70
     1
  9
$TEXTSIZE
 40
3.5
  9
$TRACEWID
 40
0.05
  9
$TEXTSTYLE
  7
ISO
  9
$CLAYER
  8
0
  9
$CELTYPE
  6
BYLAYER
  9
$CECOLOR
 62
   256
  9
$DIMSCALE
 40
0.0
  9
$DIMASZ
 40
3.0
  9
$DIMEXO
 40
1.5
  9
$DIMDLI
 40
10.0
  9
$DIMRND
 40
0.0
  9
$DIMDLE
 40
0.0
  9
$DIMEXE
 40
1.5
  9
$DIMTP
 40
0.0
  9
$DIMTM
 40
0.0
  9
$DIMTXT
 40
3.0
  9
$DIMCEN
 40
-5.0
  9
$DIMTSZ
 40
0.0
  9
$DIMTOL
 70
     0
  9
$DIMLIM
 70
     0
  9
$DIMTIH
 70
     0
  9
$DIMTOH
 70
     0
  9
$DIMSE1
 70
     0
  9
$DIMSE2
 70
     0
  9
$DIMTAD
 70
     1
  9
$DIMZIN
 70
     8
  9
$DIMBLK
  1

  9
$DIMASO
 70
     1
  9
$DIMSHO
 70
     1
  9
$DIMPOST
  1

  9
$DIMAPOST
  1

  9
$DIMALT
 70
     0
  9
$DIMALTD
 70
     0
  9
$DIMALTF
 40
25.399999999999999
  9
$DIMLFAC
 40
-1.0
  9
$DIMTOFL
 70
     1
  9
$DIMTVP
 40
0.0
  9
$DIMTIX
 70
     0
  9
$DIMSOXD
 70
     0
  9
$DIMSAH
 70
     0
  9
$DIMBLK1
  1

  9
$DIMBLK2
  1

  9
$DIMSTYLE
  2
MASKIN
  9
$DIMCLRD
 70
   256
  9
$DIMCLRE
 70
   256
  9
$DIMCLRT
 70
   256
  9
$DIMTFAC
 40
1.0
  9
$DIMGAP
 40
1.0
  9
$LUNITS
 70
     2
  9
$LUPREC
 70
     8
  9
$SKETCHINC
 40
0.1
  9
$FILLETRAD
 40
0.0
  9
$AUNITS
 70
     0
  9
$AUPREC
 70
     8
  9
$MENU
  1
ACAD
  9
$ELEVATION
 40
0.0
  9
$PELEVATION
 40
0.0
  9
$THICKNESS
 40
0.0
  9
$LIMCHECK
 70
     0
  9
$BLIPMODE
 70
     0
  9
$CHAMFERA
 40
0.0
  9
$CHAMFERB
 40
0.0
  9
$SKPOLY
 70
     0
  9
$TDCREATE
 40
2451935.4272193871
  9
$TDUPDATE
 40
2455104.3759809611
  9
$TDINDWG
 40
0.1903991667
  9
$TDUSRTIMER
 40
0.1903991667
  9
$USRTIMER
 70
     1
  9
$ANGBASE
 50
0.0
  9
$ANGDIR
 70
     0
  9
$PDMODE
 70
     0
  9
$PDSIZE
 40
0.0
  9
$PLINEWID
 40
0.0
  9
$COORDS
 70
     1
  9
$SPLFRAME
 70
     0
  9
$SPLINETYPE
 70
     6
  9
$SPLINESEGS
 70
     8
  9
$ATTDIA
 70
     0
  9
$ATTREQ
 70
     1
  9
$HANDLING
 70
     1
  9
$HANDSEED
  5
168D
  9
$SURFTAB1
 70
     6
  9
$SURFTAB2
 70
     6
  9
$SURFTYPE
 70
     6
  9
$SURFU
 70
     6
  9
$SURFV
 70
     6
  9
$UCSNAME
  2

  9
$UCSORG
 10
0.0
 20
0.0
 30
0.0
  9
$UCSXDIR
 10
1.0
 20
0.0
 30
0.0
  9
$UCSYDIR
 10
0.0
 20
1.0
 30
0.0
  9
$PUCSNAME
  2

  9
$PUCSORG
 10
0.0
 20
0.0
 30
0.0
  9
$PUCSXDIR
 10
1.0
 20
0.0
 30
0.0
  9
$PUCSYDIR
 10
0.0
 20
1.0
 30
0.0
  9
$USERI1
 70
     0
  9
$USERI2
 70
     0
  9
$USERI3
 70
     0
  9
$USERI4
 70
     0
  9
$USERI5
 70
     0
  9
$USERR1
 40
0.0
  9
$USERR2
 40
0.0
  9
$USERR3
 40
0.0
  9
$USERR4
 40
0.0
  9
$USERR5
 40
0.0
  9
$WORLDVIEW
 70
     1
  9
$SHADEDGE
 70
     3
  9
$SHADEDIF
 70
    70
  9
$TILEMODE
 70
     1
  9
$MAXACTVP
 70
    16
  9
$PLIMCHECK
 70
     0
  9
$PEXTMIN
 10
25.699999999999989
 20
19.5
 30
0.0
  9
$PEXTMAX
 10
231.30000000000001
 20
175.5
 30
0.0
  9
$PLIMMIN
 10
-20.0
 20
-7.5
  9
$PLIMMAX
 10
277.0
 20
202.5
  9
$UNITMODE
 70
     0
  9
$VISRETAIN
 70
     1
  9
$PLINEGEN
 70
     0
  9
$PSLTSCALE
 70
     1
  0
ENDSEC
  0
SECTION
  2
TABLES
  0
TABLE
  2
VPORT
 70
     1
  0
VPORT
  2
*ACTIVE
 70
     0
 10
0.0
 20
0.0
 11
1.0
 21
1.0
 12
153.90292453709961
 22
70.236534786520224
 13
0.0
 23
0.0
 14
1.0
 24
1.0
 15
0.0
 25
0.0
 16
0.0
 26
0.0
 36
1.0
 17
0.0
 27
0.0
 37
0.0
 40
287.56596738126427
 41
2.362776025236593
 42
50.0
 43
0.0
 44
0.0
 50
0.0
 51
0.0
 71
     0
 72
   100
 73
     1
 74
     1
 75
     0
 76
     0
 77
     0
 78
     0
  0
ENDTAB
  0
TABLE
  2
LTYPE
 70
     6
  0
LTYPE
  2
CONTINUOUS
 70
     0
  3
Solid line
 72
    65
 73
     0
 40
0.0
  0
LTYPE
  2
BYGG-01482201$0$NEWDOT
 70
     0
  3
____ . ____ . ____ . ____ . ____ . ____ . ____
 72
    65
 73
     4
 40
2.0
 49
1.0
 49
-0.5
 49
0.0
 49
-0.5
  0
LTYPE
  2
BYGG-014357$0$NEWDOT
 70
     0
  3
____ . ____ . ____ . ____ . ____ . ____ . ____
 72
    65
 73
     4
 40
2.0
 49
1.0
 49
-0.5
 49
0.0
 49
-0.5
  0
LTYPE
  2
BYGG-014357$0$DASHDOT
 70
     0
  3
__ . __ . __ . __ . __ . __ . __ . __ . __ . __
 72
    65
 73
     4
 40
1.0
 49
0.5
 49
-0.25
 49
0.0
 49
-0.25
  0
LTYPE
  2
BYGG-014357$0$DASHED
 70
     0
  3
__ __ __ __ __ __ __ __ __ __ __ __ __ __ __
 72
    65
 73
     2
 40
0.75
 49
0.5
 49
-0.25
  0
LTYPE
  2
BYGG-014279$0$NEWDOT
 70
     0
  3
____ . ____ . ____ . ____ . ____ . ____ . ____
 72
    65
 73
     4
 40
2.0
 49
1.0
 49
-0.5
 49
0.0
 49
-0.5
  0
ENDTAB
  0
TABLE
  2
LAYER
 70
    62
  0
LAYER
  2
0
 70
     0
 62
     7
  6
CONTINUOUS
  0
LAYER
  2
SAPA_ANSLUTNING
 70
     0
 62
     6
  6
CONTINUOUS
  0
LAYER
  2
SAPA_PROFIL
 70
     0
 62
     7
  6
CONTINUOUS
  0
LAYER
  2
SAPA_LIGHT
 70
     1
 62
     1
  6
CONTINUOUS
  0
LAYER
  2
MATT
 70
     0
 62
     1
  6
CONTINUOUS
  0
LAYER
  2
SAPA_ISOLATOR
 70
     0
 62
     4
  6
CONTINUOUS
  0
LAYER
  2
SAPA_MATT
 70
     0
 62
     1
  6
CONTINUOUS
  0
LAYER
  2
SAPA_GLAS
 70
     0
 62
     4
  6
CONTINUOUS
  0
LAYER
  2
SAPA_FOGBAND
 70
     0
 62
     2
  6
CONTINUOUS
  0
ENDTAB
  0
TABLE
  2
STYLE
 70
    21
  0
STYLE
  2
STANDARD
 70
     0
 40
0.0
 41
1.0
 50
0.0
 71
     0
 42
0.2
  3
txt
  4

  0
STYLE
  2
ISO
 70
     0
 40
0.0
 41
1.0
 50
0.0
 71
     0
 42
3.5
  3
isocp3.shx
  4

  0
STYLE
  2
BYGG-021802$0$STANDARD
 70
     0
 40
0.0
 41
1.0
 50
0.0
 71
     0
 42
0.2
  3
txt
  4

  0
STYLE
  2
BYGG-021802$0$ISO
 70
     0
 40
0.0
 41
1.0
 50
0.0
 71
     0
 42
3.5
  3
isocp3.shx
  4

  0
STYLE
  2
BYGG-014357$0$STANDARD
 70
     0
 40
0.0
 41
1.0
 50
0.0
 71
     0
 42
0.2
  3
txt
  4

  0
STYLE
  2
BYGG-014357$0$ISO
 70
     0
 40
0.0
 41
1.0
 50
0.0
 71
     0
 42
3.5
  3
isocp3.shx
  4

  0
STYLE
  2
BYGG-014063$0$STANDARD
 70
     0
 40
0.0
 41
1.0
 50
0.0
 71
     0
 42
0.2
  3
txt
  4

  0
STYLE
  2
BYGG-014063$0$ISO
 70
     0
 40
0.0
 41
1.0
 50
0.0
 71
     0
 42
3.5
  3
isocp3.shx
  4

  0
STYLE
  2
BYGG-021582$0$STANDARD
 70
     0
 40
0.0
 41
1.0
 50
0.0
 71
     0
 42
0.2
  3
txt
  4

  0
STYLE
  2
BYGG-021582$0$ISO
 70
     0
 40
0.0
 41
1.0
 50
0.0
 71
     0
 42
3.5
  3
isocp3.shx
  4

  0
STYLE
  2
BYGG-014279$0$STANDARD
 70
     0
 40
0.0
 41
1.0
 50
0.0
 71
     0
 42
0.2
  3
TXT.shx
  4

  0
STYLE
  2
BYGG-014279$0$ISO
 70
     0
 40
0.0
 41
1.0
 50
0.0
 71
     0
 42
3.5
  3
iso
  4

  0
STYLE
  2
BYGG-021820$0$STANDARD
 70
     0
 40
0.0
 41
1.0
 50
0.0
 71
     0
 42
0.2
  3
txt
  4

  0
STYLE
  2
BYGG-021820$0$ISO
 70
     0
 40
0.0
 41
1.0
 50
0.0
 71
     0
 42
3.5
  3
txt
  4

  0
STYLE
  2
BYGG-024366$0$STANDARD
 70
     0
 40
0.0
 41
1.0
 50
0.0
 71
     0
 42
0.2
  3
txt
  4

  0
STYLE
  2
BYGG-024366$0$ISO
 70
     0
 40
0.0
 41
1.0
 50
0.0
 71
     0
 42
3.5
  3
isocp3.shx
  4

  0
STYLE
  2
BYGG-01482201$0$STANDARD
 70
     0
 40
0.0
 41
1.0
 50
0.0
 71
     0
 42
0.2
  3
txt
  4

  0
STYLE
  2
BYGG-01482201$0$ISO
 70
     0
 40
0.0
 41
1.0
 50
0.0
 71
     0
 42
3.5
  3
isocp3.shx
  4

  0
STYLE
  2
BYGG-024364$0$STANDARD
 70
     0
 40
0.0
 41
1.0
 50
0.0
 71
     0
 42
0.2
  3
txt
  4

  0
STYLE
  2
BYGG-024364$0$ISO
 70
     0
 40
0.0
 41
1.0
 50
0.0
 71
     0
 42
3.5
  3
txt
  4

  0
STYLE
  2
BYGG-024364$0$ANNOTATIVE
 70
     0
 40
0.0
 41
1.0
 50
0.0
 71
     0
 42
0.2
  3
txt
  4

  0
ENDTAB
  0
TABLE
  2
VIEW
 70
     0
  0
ENDTAB
  0
TABLE
  2
UCS
 70
     0
  0
ENDTAB
  0
TABLE
  2
APPID
 70
    15
  0
APPID
  2
ACAD
 70
     0
  0
APPID
  2
ACAECLAYERSTANDARD
 70
     0
  0
APPID
  2
AMG_ARCHIVE11
 70
     0
  0
APPID
  2
ACAD_DSTYLE_DIMTEXT_FILL
 70
     0
  0
APPID
  2
ACAD_DSTYLE_DIMEXT_LENGTH
 70
     0
  0
APPID
  2
ACAD_DSTYLE_DIMEXT_ENABLED
 70
     0
  0
APPID
  2
ACAD_DSTYLE_DIM_LINETYPE
 70
     0
  0
APPID
  2
ACAD_DSTYLE_DIM_EXT1_LINETYPE
 70
     0
  0
APPID
  2
ACAD_DSTYLE_DIM_EXT2_LINETYPE
 70
     0
  0
APPID
  2
ACAD_PSEXT
 70
     0
  0
APPID
  2
ACAD_EXEMPT_FROM_CAD_STANDARDS
 70
     0
  0
APPID
  2
ACAD_DSTYLE_DIMJOGGED_JOGA
 70
     0
  0
APPID
  2
ACAD_DSTYLE_DIMARC_LENGTH_
 70
     0
  0
APPID
  2
ACAD_MLEADERVER
 70
     0
  0
APPID
  2
ACADANNOTATIVE
 70
     0
  0
ENDTAB
  0
TABLE
  2
DIMSTYLE
 70
    18
  0
DIMSTYLE
  2
MASKIN
 70
     0
  3

  4

  5

  6

  7

 40
0.0
 41
3.0
 42
1.5
 43
10.0
 44
1.5
 45
0.0
 46
0.0
 47
0.0
 48
0.0
140
3.0
141
-5.0
142
0.0
143
25.399999999999999
144
-1.0
145
0.0
146
1.0
147
1.0
 71
     0
 72
     0
 73
     0
 74
     0
 75
     0
 76
     0
 77
     1
 78
     8
170
     0
171
     0
172
     1
173
     0
174
     0
175
     0
176
   256
177
   256
178
   256
  0
DIMSTYLE
  2
BYGG-021802$0$MASKIN
 70
     0
  3

  4

  5

  6

  7

 40
0.0
 41
3.0
 42
1.5
 43
10.0
 44
1.5
 45
0.0
 46
0.0
 47
0.0
 48
0.0
140
3.0
141
-5.0
142
0.0
143
25.399999999999999
144
-1.0
145
0.0
146
1.0
147
1.0
 71
     0
 72
     0
 73
     0
 74
     0
 75
     0
 76
     0
 77
     1
 78
     8
170
     0
171
     0
172
     1
173
     0
174
     0
175
     0
176
   256
177
   256
178
   256
  0
DIMSTYLE
  2
BYGG-014357$0$MASKIN
 70
     0
  3

  4

  5

  6

  7

 40
0.0
 41
3.0
 42
1.5
 43
10.0
 44
1.5
 45
0.0
 46
0.0
 47
0.0
 48
0.0
140
3.0
141
-5.0
142
0.0
143
25.399999999999999
144
-1.0
145
0.0
146
1.0
147
1.0
 71
     0
 72
     0
 73
     0
 74
     0
 75
     0
 76
     0
 77
     1
 78
     8
170
     0
171
     0
172
     1
173
     0
174
     0
175
     0
176
   256
177
   256
178
   256
  0
DIMSTYLE
  2
BYGG-014357$0$MASKIN1
 70
     0
  3

  4

  5

  6

  7

 40
1.0
 41
3.0
 42
1.5
 43
10.0
 44
1.5
 45
0.0
 46
0.0
 47
0.0
 48
0.0
140
3.0
141
-5.0
142
0.0
143
25.399999999999999
144
1.0
145
0.0
146
1.0
147
0.9
 71
     0
 72
     0
 73
     0
 74
     0
 75
     0
 76
     0
 77
     1
 78
     8
170
     0
171
     0
172
     1
173
     0
174
     0
175
     0
176
   256
177
   256
178
   256
  0
DIMSTYLE
  2
BYGG-014357$0$MASKIN2
 70
     0
  3

  4

  5

  6

  7

 40
1.0
 41
3.0
 42
1.5
 43
10.0
 44
1.5
 45
0.0
 46
0.0
 47
0.0
 48
0.0
140
3.0
141
-5.0
142
0.0
143
25.399999999999999
144
1.0
145
0.0
146
1.0
147
0.9
 71
     0
 72
     0
 73
     0
 74
     0
 75
     0
 76
     0
 77
     1
 78
     8
170
     0
171
     0
172
     1
173
     0
174
     0
175
     0
176
   256
177
   256
178
   256
  0
DIMSTYLE
  2
BYGG-014357$0$MASKIN3
 70
     0
  3

  4

  5

  6

  7

 40
1.0
 41
3.0
 42
1.5
 43
10.0
 44
1.5
 45
0.0
 46
0.0
 47
0.0
 48
0.0
140
3.0
141
-5.0
142
0.0
143
25.399999999999999
144
1.0
145
0.0
146
1.0
147
0.9
 71
     0
 72
     0
 73
     0
 74
     0
 75
     0
 76
     0
 77
     1
 78
     8
170
     0
171
     0
172
     1
173
     0
174
     0
175
     0
176
   256
177
   256
178
   256
  0
DIMSTYLE
  2
BYGG-014357$0$DMST_1
 70
     0
  3

  4

  5

  6

  7

 40
1.0
 41
0.7000000000000002
 42
0.0
 43
7.0
 44
0.4
 45
0.0
 46
0.0
 47
0.15
 48
0.15
140
0.7000000000000002
141
0.0
142
0.0
143
25.399999999999999
144
1.0
145
0.0
146
0.7
147
0.09
 71
     1
 72
     0
 73
     0
 74
     0
 75
     0
 76
     0
 77
     1
 78
     9
170
     0
171
     2
172
     0
173
     0
174
     0
175
     0
176
     1
177
     1
178
     2
  0
DIMSTYLE
  2
BYGG-014063$0$MASKIN
 70
     0
  3

  4

  5

  6

  7

 40
0.0
 41
3.0
 42
1.5
 43
10.0
 44
1.5
 45
0.0
 46
0.0
 47
0.0
 48
0.0
140
3.0
141
-5.0
142
0.0
143
25.399999999999999
144
-1.0
145
0.0
146
1.0
147
1.0
 71
     0
 72
     0
 73
     0
 74
     0
 75
     0
 76
     0
 77
     1
 78
     8
170
     0
171
     0
172
     1
173
     0
174
     0
175
     0
176
   256
177
   256
178
   256
  0
DIMSTYLE
  2
BYGG-021582$0$MASKIN
 70
     0
  3

  4

  5

  6

  7

 40
0.0
 41
3.0
 42
1.5
 43
10.0
 44
1.5
 45
0.0
 46
0.0
 47
0.0
 48
0.0
140
3.0
141
-5.0
142
0.0
143
25.399999999999999
144
-1.0
145
0.0
146
1.0
147
1.0
 71
     0
 72
     0
 73
     0
 74
     0
 75
     0
 76
     0
 77
     1
 78
     8
170
     0
171
     0
172
     1
173
     0
174
     0
175
     0
176
   256
177
   256
178
   256
  0
DIMSTYLE
  2
BYGG-014279$0$STANDARD
 70
     0
  3

  4

  5

  6

  7

 40
1.0
 41
0.18
 42
0.0625
 43
0.38
 44
0.18
 45
0.0
 46
0.0
 47
0.0
 48
0.0
140
0.18
141
0.09
142
0.0
143
25.399999999999999
144
1.0
145
0.0
146
1.0
147
0.09
 71
     0
 72
     0
 73
     1
 74
     1
 75
     0
 76
     0
 77
     0
 78
     0
170
     0
171
     2
172
     0
173
     0
174
     0
175
     0
176
     0
177
     0
178
     0
  0
DIMSTYLE
  2
BYGG-014279$0$MASKIN
 70
     0
  3

  4

  5

  6

  7

 40
0.0
 41
3.0
 42
1.5
 43
10.0
 44
1.5
 45
0.0
 46
0.0
 47
0.0
 48
0.0
140
3.0
141
-5.0
142
0.0
143
25.399999999999999
144
-1.0
145
0.0
146
1.0
147
1.0
 71
     0
 72
     0
 73
     0
 74
     1
 75
     0
 76
     0
 77
     1
 78
     8
170
     0
171
     0
172
     1
173
     0
174
     0
175
     0
176
   256
177
   256
178
     2
  0
DIMSTYLE
  2
BYGG-021820$0$MASKIN
 70
     0
  3

  4

  5

  6

  7

 40
0.0
 41
3.0
 42
1.5
 43
10.0
 44
1.5
 45
0.0
 46
0.0
 47
0.0
 48
0.0
140
3.0
141
-5.0
142
0.0
143
25.399999999999999
144
-1.0
145
0.0
146
1.0
147
1.0
 71
     0
 72
     0
 73
     0
 74
     0
 75
     0
 76
     0
 77
     1
 78
     8
170
     0
171
     0
172
     1
173
     0
174
     0
175
     0
176
   256
177
   256
178
     2
  0
DIMSTYLE
  2
BYGG-024366$0$MASKIN
 70
     0
  3

  4

  5

  6

  7

 40
0.0
 41
3.0
 42
1.5
 43
10.0
 44
1.5
 45
0.0
 46
0.0
 47
0.0
 48
0.0
140
3.0
141
-5.0
142
0.0
143
25.399999999999999
144
-1.0
145
0.0
146
1.0
147
1.0
 71
     0
 72
     0
 73
     0
 74
     0
 75
     0
 76
     0
 77
     1
 78
     8
170
     0
171
     0
172
     1
173
     0
174
     0
175
     0
176
   256
177
   256
178
   256
  0
DIMSTYLE
  2
BYGG-01482201$0$STANDARD
 70
     0
  3

  4

  5

  6

  7

 40
1.0
 41
0.18
 42
0.0625
 43
0.38
 44
0.18
 45
0.0
 46
0.0
 47
0.0
 48
0.0
140
0.18
141
0.09
142
0.0
143
25.399999999999999
144
1.0
145
0.0
146
1.0
147
0.09
 71
     0
 72
     0
 73
     1
 74
     1
 75
     0
 76
     0
 77
     0
 78
     0
170
     0
171
     2
172
     0
173
     0
174
     0
175
     0
176
     0
177
     0
178
     0
  0
DIMSTYLE
  2
BYGG-01482201$0$MASKIN
 70
     0
  3

  4

  5

  6

  7

 40
0.0
 41
3.0
 42
1.5
 43
10.0
 44
1.5
 45
0.0
 46
0.0
 47
0.0
 48
0.0
140
3.0
141
-5.0
142
0.0
143
25.399999999999999
144
-1.0
145
0.0
146
1.0
147
1.0
 71
     0
 72
     0
 73
     0
 74
     1
 75
     0
 76
     0
 77
     1
 78
     8
170
     0
171
     0
172
     1
173
     0
174
     0
175
     0
176
   256
177
   256
178
     2
  0
DIMSTYLE
  2
BYGG-024364$0$MASKIN
 70
     0
  3

  4

  5

  6

  7

 40
0.0
 41
3.0
 42
1.5
 43
10.0
 44
1.5
 45
0.0
 46
0.0
 47
0.0
 48
0.0
140
3.0
141
-5.0
142
0.0
143
25.399999999999999
144
-1.0
145
0.0
146
1.0
147
1.0
 71
     0
 72
     0
 73
     0
 74
     0
 75
     0
 76
     0
 77
     1
 78
     8
170
     0
171
     0
172
     1
173
     0
174
     0
175
     0
176
   256
177
   256
178
     2
  0
DIMSTYLE
  2
BYGG-024364$0$STANDARD
 70
     0
  3

  4

  5

  6

  7

 40
1.0
 41
0.18
 42
0.0625
 43
0.38
 44
0.18
 45
0.0
 46
0.0
 47
0.0
 48
0.0
140
0.18
141
0.09
142
0.0
143
25.399999999999999
144
1.0
145
0.0
146
1.0
147
0.09
 71
     0
 72
     0
 73
     1
 74
     1
 75
     0
 76
     0
 77
     0
 78
     0
170
     0
171
     2
172
     0
173
     0
174
     0
175
     0
176
     0
177
     0
178
     0
  0
DIMSTYLE
  2
BYGG-024364$0$ANNOTATIVE
 70
     0
  3

  4

  5

  6

  7

 40
1.0
 41
0.18
 42
0.0625
 43
0.38
 44
0.18
 45
0.0
 46
0.0
 47
0.0
 48
0.0
140
0.18
141
0.09
142
0.0
143
25.399999999999999
144
1.0
145
0.0
146
1.0
147
0.09
 71
     0
 72
     0
 73
     1
 74
     1
 75
     0
 76
     0
 77
     0
 78
     0
170
     0
171
     2
172
     0
173
     0
174
     0
175
     0
176
     0
177
     0
178
     0
  0
ENDTAB
  0
ENDSEC
  0
SECTION
  2
BLOCKS
  0
BLOCK
  8
0
  2
$MODEL_SPACE
 70
     0
 10
0.0
 20
0.0
 30
0.0
  3
$MODEL_SPACE
  1

  0
ENDBLK
  5
D
  8
0
  0
BLOCK
 67
     1
  8
0
  2
$PAPER_SPACE
 70
     0
 10
0.0
 20
0.0
 30
0.0
  3
$PAPER_SPACE
  1

  0
ENDBLK
  5
12
 67
     1
  8
0
  0
BLOCK
  8
0
  2
*X37
 70
     1
 10
0.0
 20
0.0
 30
0.0
  3
*X37
  1

  0
LINE
  5
8C1
  8
0
 62
     0
 10
33.08353702176408
 20
60.564829879159902
 30
0.0
 11
33.066935938829381
 21
60.548228796225203
 31
0.0
  0
LINE
  5
8C2
  8
0
 62
     0
 10
35.066935938829431
 20
60.303164765957938
 30
0.0
 11
33.066935938829488
 21
58.303164765958002
 31
0.0
  0
LINE
  5
8C3
  8
0
 62
     0
 10
35.066935938829431
 20
58.058100735690687
 30
0.0
 11
33.066935938829381
 21
56.058100735690687
 31
0.0
  0
LINE
  5
8C4
  8
0
 62
     0
 10
35.066935938829317
 20
55.813036705423372
 30
0.0
 11
33.066935938829317
 21
53.813036705423308
 31
0.0
  0
LINE
  5
8C5
  8
0
 62
     0
 10
35.066935938829317
 20
53.567972675156113
 30
0.0
 11
33.066935938829381
 21
51.56797267515617
 31
0.0
  0
LINE
  5
8C6
  8
0
 62
     0
 10
35.066935938829317
 20
51.322908644888791
 30
0.0
 11
33.066935938829317
 21
49.322908644888741
 31
0.0
  0
LINE
  5
8C7
  8
0
 62
     0
 10
34.911236270100353
 20
48.922144945892512
 30
0.0
 11
33.066935938829431
 21
47.077844614621597
 31
0.0
  0
LINE
  5
8C8
  8
0
 62
     0
 10
35.066935938829381
 20
49.07784461462154
 30
0.0
 11
34.911236270100353
 21
48.922144945892512
 31
0.0
  0
LINE
  5
8C9
  8
0
 62
     0
 10
35.066935938829317
 20
46.832780584354111
 30
0.0
 11
33.066935938829381
 21
44.832780584354161
 31
0.0
  0
LINE
  5
8CA
  8
0
 62
     0
 10
35.066935938829381
 20
44.587716554086853
 30
0.0
 11
33.066935938829431
 21
42.58771655408691
 31
0.0
  0
LINE
  5
8CB
  8
0
 62
     0
 10
35.066935938829381
 20
42.342652523819588
 30
0.0
 11
33.289113294169681
 21
40.564829879159959
 31
0.0
  0
LINE
  5
8CC
  8
0
 62
     0
 10
35.066935938829431
 20
58.991194810606864
 30
0.0
 11
33.493300870276563
 21
60.56482987915976
 31
0.0
  0
LINE
  5
8CD
  8
0
 62
     0
 10
35.066935938829431
 20
56.746130780339598
 30
0.0
 11
33.066935938829431
 21
58.746130780339627
 31
0.0
  0
LINE
  5
8CE
  8
0
 62
     0
 10
35.066935938829381
 20
54.50106675007234
 30
0.0
 11
33.066935938829353
 21
56.501066750072361
 31
0.0
  0
LINE
  5
8CF
  8
0
 62
     0
 10
35.066935938829381
 20
52.256002719805082
 30
0.0
 11
33.066935938829353
 21
54.25600271980511
 31
0.0
  0
LINE
  5
8D0
  8
0
 62
     0
 10
35.066935938829403
 20
50.010938689537731
 30
0.0
 11
33.066935938829403
 21
52.01093868953776
 31
0.0
  0
LINE
  5
8D1
  8
0
 62
     0
 10
33.91066565220757
 20
48.922144945892342
 30
0.0
 11
33.066935938829403
 21
49.765874659270509
 31
0.0
  0
LINE
  5
8D2
  8
0
 62
     0
 10
35.066935938829403
 20
47.76587465927048
 30
0.0
 11
33.91066565220757
 21
48.922144945892342
 31
0.0
  0
LINE
  5
8D3
  8
0
 62
     0
 10
35.066935938829353
 20
45.520810629003222
 30
0.0
 11
33.066935938829381
 21
47.520810629003194
 31
0.0
  0
LINE
  5
8D4
  8
0
 62
     0
 10
35.066935938829353
 20
43.2757465987359
 30
0.0
 11
33.066935938829381
 21
45.275746598735878
 31
0.0
  0
LINE
  5
8D5
  8
0
 62
     0
 10
35.066935938829353
 20
41.030682568468649
 30
0.0
 11
33.066935938829381
 21
43.03068256846862
 31
0.0
  0
LINE
  5
8D6
  8
0
 62
     0
 10
33.287724597871012
 20
40.56482987915976
 30
0.0
 11
33.066935938829403
 21
40.785618538201327
 31
0.0
  0
ENDBLK
  5
8D8
  8
0
  0
BLOCK
  8
0
  2
*X38
 70
     1
 10
0.0
 20
0.0
 30
0.0
  3
*X38
  1

  0
LINE
  5
8F1
  8
0
 62
     0
 10
-16.744687767208379
 20
172.05547631784941
 30
0.0
 11
-17.070212449305231
 21
171.72995163575251
 31
0.0
  0
LINE
  5
8F2
  8
0
 62
     0
 10
-15.942907918904661
 20
171.73472415101941
 30
0.0
 11
-17.070212449305249
 21
170.6074196206188
 31
0.0
  0
LINE
  5
8F3
  8
0
 62
     0
 10
-15.119110457153759
 20
171.43598959763671
 30
0.0
 11
-17.070212449305242
 21
169.4848876054852
 31
0.0
  0
LINE
  5
8F4
  8
0
 62
     0
 10
-14.27225318483687
 20
171.16031485481989
 30
0.0
 11
-17.070212449305242
 21
168.36235559035151
 31
0.0
  0
LINE
  5
8F5
  8
0
 62
     0
 10
-13.40112617062432
 20
170.9089098538989
 30
0.0
 11
-17.070212449305231
 21
167.23982357521791
 31
0.0
  0
LINE
  5
8F6
  8
0
 62
     0
 10
-12.50431880570677
 20
170.68318520368271
 30
0.0
 11
-17.070212449305249
 21
166.1172915600842
 31
0.0
  0
LINE
  5
8F7
  8
0
 62
     0
 10
-11.58017728148609
 20
170.4847947127698
 30
0.0
 11
-17.070212449305242
 21
164.9947595449506
 31
0.0
  0
LINE
  5
8F8
  8
0
 62
     0
 10
-10.626748912085761
 20
170.3156910670364
 30
0.0
 11
-17.070212449305249
 21
163.872227529817
 31
0.0
  0
LINE
  5
8F9
  8
0
 62
     0
 10
-9.6417080153251131
 20
170.17819994866349
 30
0.0
 11
-17.070212449305231
 21
162.74969551468331
 31
0.0
  0
LINE
  5
8FA
  8
0
 62
     0
 10
-8.6222553359990215
 20
170.0751206128559
 30
0.0
 11
-17.070212449305242
 21
161.62716349954971
 31
0.0
  0
LINE
  5
8FB
  8
0
 62
     0
 10
-7.5649784955001351
 20
170.00986543822111
 30
0.0
 11
-17.070212449305242
 21
160.50463148441611
 31
0.0
  0
LINE
  5
8FC
  8
0
 62
     0
 10
-6.4656532544635388
 20
169.98665866412409
 30
0.0
 11
-17.070212449305242
 21
159.38209946928239
 31
0.0
  0
LINE
  5
8FD
  8
0
 62
     0
 10
-5.3189516276896214
 20
170.0108282757644
 30
0.0
 11
-17.070212449305249
 21
158.25956745414871
 31
0.0
  0
LINE
  5
8FE
  8
0
 62
     0
 10
-4.1179970546684643
 20
170.0892508336519
 30
0.0
 11
-17.070212449305242
 21
157.13703543901511
 31
0.0
  0
LINE
  5
8FF
  8
0
 62
     0
 10
-16.262777287009079
 20
156.82193858617759
 30
0.0
 11
-17.070212449305249
 21
156.01450342388139
 31
0.0
  0
LINE
  5
900
  8
0
 62
     0
 10
-2.8536552103431911
 20
170.2310606628435
 30
0.0
 11
-11.0092226670515
 21
162.07549320613521
 31
0.0
  0
LINE
  5
901
  8
0
 62
     0
 10
-16.810297105556572
 20
155.15188675249649
 30
0.0
 11
-17.070212449305242
 21
154.89197140874779
 31
0.0
  0
LINE
  5
902
  8
0
 62
     0
 10
-1.5133378639796999
 20
170.44884599407339
 30
0.0
 11
-9.3391708333703534
 21
162.62301302468271
 31
0.0
  0
LINE
  5
903
  8
0
 62
     0
 10
-17.027763675378001
 20
153.81188816754141
 30
0.0
 11
-17.070212449305249
 21
153.76943939361419
 31
0.0
  0
LINE
  5
904
  8
0
 62
     0
 10
-0.0788339321842955
 20
170.76081791073511
 30
0.0
 11
-7.9991722484152978
 21
162.8404795945041
 31
0.0
  0
LINE
  5
905
  8
0
 62
     0
 10
1.478023960695956
 20
171.1951437884818
 30
0.0
 11
-6.8362210541236053
 21
162.88089877366221
 31
0.0
  0
LINE
  5
906
  8
0
 62
     0
 10
2.9297871771568458
 20
171.52437498980899
 30
0.0
 11
-5.792934848934145
 21
162.801652963718
 31
0.0
  0
LINE
  5
907
  8
0
 62
     0
 10
2.92978717715686
 20
170.4018429746753
 30
0.0
 11
-4.8403517017995759
 21
162.6317040957189
 31
0.0
  0
LINE
  5
908
  8
0
 62
     0
 10
2.92978717715686
 20
169.2793109595417
 30
0.0
 11
-3.9615655363769728
 21
162.38795824600791
 31
0.0
  0
LINE
  5
909
  8
0
 62
     0
 10
2.9297871771568529
 20
168.1567789444081
 30
0.0
 11
-3.145853821362194
 21
162.081137945889
 31
0.0
  0
LINE
  5
90A
  8
0
 62
     0
 10
2.9297871771568529
 20
167.03424692927439
 30
0.0
 11
-2.3860902228042411
 21
161.71836952931329
 31
0.0
  0
LINE
  5
90B
  8
0
 62
     0
 10
2.9297871771568529
 20
165.91171491414079
 30
0.0
 11
-1.677449550927079
 21
161.3044781860568
 31
0.0
  0
LINE
  5
90C
  8
0
 62
     0
 10
2.9297871771568529
 20
164.7891828990071
 30
0.0
 11
-1.0167051671331599
 21
160.84269055471711
 31
0.0
  0
LINE
  5
90D
  8
0
 62
     0
 10
2.9297871771568458
 20
163.6666508838735
 30
0.0
 11
-0.4018322136952293
 21
160.3350314930214
 31
0.0
  0
LINE
  5
90E
  8
0
 62
     0
 10
2.9297871771568458
 20
162.54411886873979
 30
0.0
 11
0.1682129654482622
 21
159.78254465703131
 31
0.0
  0
LINE
  5
90F
  8
0
 62
     0
 10
2.92978717715686
 20
161.42158685360619
 30
0.0
 11
0.6935982421491787
 21
159.18539791859851
 31
0.0
  0
LINE
  5
910
  8
0
 62
     0
 10
2.92978717715686
 20
160.29905483847261
 30
0.0
 11
1.17363214426161
 21
158.54289980557729
 31
0.0
  0
LINE
  5
911
  8
0
 62
     0
 10
2.9297871771568529
 20
159.1765228233389
 30
0.0
 11
1.60669522143101
 21
157.8534308676131
 31
0.0
  0
LINE
  5
912
  8
0
 62
     0
 10
2.9297871771568671
 20
158.0539908082053
 30
0.0
 11
1.9900697177492641
 21
157.1142733487977
 31
0.0
  0
LINE
  5
913
  8
0
 62
     0
 10
2.9297871771568529
 20
156.93145879307161
 30
0.0
 11
2.319622709285738
 21
156.32129432520051
 31
0.0
  0
LINE
  5
914
  8
0
 62
     0
 10
2.9297871771568671
 20
155.80892677793801
 30
0.0
 11
2.5892463917005202
 21
155.46838599248159
 31
0.0
  0
LINE
  5
915
  8
0
 62
     0
 10
2.9297871771568458
 20
154.6863947628043
 30
0.0
 11
2.789847688861435
 21
154.5464552745089
 31
0.0
  0
LINE
  5
916
  8
0
 62
     0
 10
2.92978717715686
 20
153.5638627476707
 30
0.0
 11
2.9074020946592678
 21
153.54147766517309
 31
0.0
  0
LINE
  5
917
  8
0
 62
     0
 10
2.9297871771568822
 20
171.52757736924431
 30
0.0
 11
2.8083352732791411
 21
171.64902927312201
 31
0.0
  0
LINE
  5
918
  8
0
 62
     0
 10
2.9297871771568671
 20
170.4050453541106
 30
0.0
 11
1.9782087372694259
 21
171.3566237939981
 31
0.0
  0
LINE
  5
919
  8
0
 62
     0
 10
2.9297871771568671
 20
169.282513338977
 30
0.0
 11
1.1247026021729449
 21
171.08759791396091
 31
0.0
  0
LINE
  5
91A
  8
0
 62
     0
 10
2.9297871771568671
 20
168.15998132384331
 30
0.0
 11
0.2465545606837338
 21
170.8432139403165
 31
0.0
  0
LINE
  5
91B
  8
0
 62
     0
 10
2.9297871771568671
 20
167.03744930870971
 30
0.0
 11
-0.6577091552914283
 21
170.62494564115801
 31
0.0
  0
LINE
  5
91C
  8
0
 62
     0
 10
2.9297871771568529
 20
165.91491729357611
 30
0.0
 11
-1.589819551692087
 21
170.43452402242499
 31
0.0
  0
LINE
  5
91D
  8
0
 62
     0
 10
2.9297871771568529
 20
164.7923852784424
 30
0.0
 11
-2.5518250747737019
 21
170.27399753037301
 31
0.0
  0
LINE
  5
91E
  8
0
 62
     0
 10
2.9297871771568529
 20
163.6698532633088
 30
0.0
 11
-3.5461721611328012
 21
170.14581260159841
 31
0.0
  0
LINE
  5
91F
  8
0
 62
     0
 10
2.9297871771568822
 20
162.54732124817511
 30
0.0
 11
-4.5758151854420666
 21
170.05292361077409
 31
0.0
  0
LINE
  5
920
  8
0
 62
     0
 10
2.9297871771568671
 20
161.42478923304151
 30
0.0
 11
-5.6443700630916851
 21
169.99894647329
 31
0.0
  0
LINE
  5
921
  8
0
 62
     0
 10
2.9297871771568671
 20
160.30225721790779
 30
0.0
 11
-6.7563347739435917
 21
169.98837916900831
 31
0.0
  0
LINE
  5
922
  8
0
 62
     0
 10
2.9297871771568671
 20
159.17972520277419
 30
0.0
 11
-7.9174163797219981
 21
170.02692875965309
 31
0.0
  0
LINE
  5
923
  8
0
 62
     0
 10
2.9297871771568671
 20
158.05719318764059
 30
0.0
 11
-9.1350352446346061
 21
170.122015609432
 31
0.0
  0
LINE
  5
924
  8
0
 62
     0
 10
-0.8433221573953063
 20
160.70777050705911
 30
0.0
 11
-10.41914059644075
 21
170.28358894610449
 31
0.0
  0
LINE
  5
925
  8
0
 62
     0
 10
2.9297871771568529
 20
156.93466117250691
 30
0.0
 11
0.7531789232735946
 21
159.11126942639021
 31
0.0
  0
LINE
  5
926
  8
0
 62
     0
 10
-3.471463128786155
 20
162.2133794633163
 30
0.0
 11
-11.78361151883716
 21
170.52552785336729
 31
0.0
  0
LINE
  5
927
  8
0
 62
     0
 10
2.9297871771568529
 20
155.81212915737331
 30
0.0
 11
2.258787879530785
 21
156.4831284549993
 31
0.0
  0
LINE
  5
928
  8
0
 62
     0
 10
-5.0599866197118502
 20
162.67937093910831
 30
0.0
 11
-13.24885936002374
 21
170.8682436794202
 31
0.0
  0
LINE
  5
929
  8
0
 62
     0
 10
2.9297871771568529
 20
154.68959714223959
 30
0.0
 11
2.724779355322851
 21
154.89460496407361
 31
0.0
  0
LINE
  5
92A
  8
0
 62
     0
 10
-6.3616126097467847
 20
162.8584649140096
 30
0.0
 11
-14.847203595525359
 21
171.3440558997882
 31
0.0
  0
LINE
  5
92B
  8
0
 62
     0
 10
2.9297871771568822
 20
153.56706512710599
 30
0.0
 11
2.9038733302241431
 21
153.59297897403869
 31
0.0
  0
LINE
  5
92C
  8
0
 62
     0
 10
-7.5001193774260306
 20
162.87443966655519
 30
0.0
 11
-16.635829107357821
 21
172.01014939648701
 31
0.0
  0
LINE
  5
92D
  8
0
 62
     0
 10
-8.5255107873773426
 20
162.7772990613729
 30
0.0
 11
-17.070212449305259
 21
171.32200072330079
 31
0.0
  0
LINE
  5
92E
  8
0
 62
     0
 10
-9.4638707960753692
 20
162.5931270549373
 30
0.0
 11
-17.070212449305242
 21
170.1994687081671
 31
0.0
  0
LINE
  5
92F
  8
0
 62
     0
 10
-10.33070684662459
 20
162.33743109035279
 30
0.0
 11
-17.070212449305259
 21
169.0769366930335
 31
0.0
  0
LINE
  5
930
  8
0
 62
     0
 10
-11.13595963464774
 20
162.0201518632424
 30
0.0
 11
-17.07021244930527
 21
167.9544046778999
 31
0.0
  0
LINE
  5
931
  8
0
 62
     0
 10
-11.88627125970268
 20
161.64793147316371
 30
0.0
 11
-17.07021244930527
 21
166.83187266276619
 31
0.0
  0
LINE
  5
932
  8
0
 62
     0
 10
-12.586140486023201
 20
161.22526868435051
 30
0.0
 11
-17.070212449305259
 21
165.70934064763259
 31
0.0
  0
LINE
  5
933
  8
0
 62
     0
 10
-13.23855594931916
 20
160.75515213251279
 30
0.0
 11
-17.07021244930527
 21
164.5868086324989
 31
0.0
  0
LINE
  5
934
  8
0
 62
     0
 10
-13.845354546158131
 20
160.2394187142182
 30
0.0
 11
-17.070212449305259
 21
163.4642766173653
 31
0.0
  0
LINE
  5
935
  8
0
 62
     0
 10
-14.40741819691584
 20
159.67895034984221
 30
0.0
 11
-17.070212449305259
 21
162.3417446022317
 31
0.0
  0
LINE
  5
936
  8
0
 62
     0
 10
-14.924762146280919
 20
159.07376228407369
 30
0.0
 11
-17.070212449305242
 21
161.21921258709801
 31
0.0
  0
LINE
  5
937
  8
0
 62
     0
 10
-15.39653645494344
 20
158.42300457760251
 30
0.0
 11
-17.070212449305259
 21
160.09668057196441
 31
0.0
  0
LINE
  5
938
  8
0
 62
     0
 10
-15.82094103614118
 20
157.72487714366659
 30
0.0
 11
-17.07021244930527
 21
158.9741485568307
 31
0.0
  0
LINE
  5
939
  8
0
 62
     0
 10
-16.19503345000987
 20
156.9764375424017
 30
0.0
 11
-17.070212449305259
 21
157.8516165416971
 31
0.0
  0
LINE
  5
93A
  8
0
 62
     0
 10
-16.51437775704532
 20
156.1732498343035
 30
0.0
 11
-17.070212449305259
 21
156.72908452656341
 31
0.0
  0
LINE
  5
93B
  8
0
 62
     0
 10
-16.772424252320999
 20
155.3087643144456
 30
0.0
 11
-17.070212449305242
 21
155.60655251142981
 31
0.0
  0
LINE
  5
93C
  8
0
 62
     0
 10
-16.959379959529919
 20
154.37318800652079
 30
0.0
 11
-17.070212449305259
 21
154.48402049629621
 31
0.0
  0
LINE
  5
93D
  8
0
 62
     0
 10
-17.05999839400744
 20
153.35127442586469
 30
0.0
 11
-17.070212449305242
 21
153.3614884811625
 31
0.0
  0
ENDBLK
  5
93F
  8
0
  0
BLOCK
  8
0
  2
*X39
 70
     1
 10
0.0
 20
0.0
 30
0.0
  3
*X39
  1

  0
LINE
  5
941
  8
0
 62
     0
 10
-4.0573874714266331
 20
162.00413208169081
 30
0.0
 11
-4.7447951356805307
 21
162.40100708169081
 31
0.0
  0
LINE
  5
942
  8
0
 62
     0
 10
-1.995164478664939
 20
160.81350708169089
 30
0.0
 11
-2.6825721429188372
 21
161.21038208169091
 31
0.0
  0
LINE
  5
943
  8
0
 62
     0
 10
0.0670585140967544
 20
159.6228820816909
 30
0.0
 11
-0.6203491501571437
 21
160.0197570816909
 31
0.0
  0
LINE
  5
944
  8
0
 62
     0
 10
-6.8070179641883533
 20
162.00413236618689
 30
0.0
 11
-7.4944256284422499
 21
162.40100736618689
 31
0.0
  0
LINE
  5
945
  8
0
 62
     0
 10
-4.744794971426658
 20
160.81350736618691
 30
0.0
 11
-5.4322026356805573
 21
161.21038236618691
 31
0.0
  0
LINE
  5
946
  8
0
 62
     0
 10
-2.6825719786649649
 20
159.6228823661869
 30
0.0
 11
-3.3699796429188629
 21
160.01975736618689
 31
0.0
  0
LINE
  5
947
  8
0
 62
     0
 10
-0.6203489859032717
 20
158.432257366187
 30
0.0
 11
-1.3077566501571689
 21
158.82913236618691
 31
0.0
  0
LINE
  5
948
  8
0
 62
     0
 10
1.4418740068584219
 20
157.24163236618699
 30
0.0
 11
0.7544663426045244
 21
157.63850736618701
 31
0.0
  0
LINE
  5
949
  8
0
 62
     0
 10
-9.5566484569500396
 20
162.004132650683
 30
0.0
 11
-10.20652812532448
 21
162.3793408521598
 31
0.0
  0
LINE
  5
94A
  8
0
 62
     0
 10
-7.4944254641883452
 20
160.81350765068299
 30
0.0
 11
-8.1818331284422428
 21
161.21038265068299
 31
0.0
  0
LINE
  5
94B
  8
0
 62
     0
 10
-5.4322024714266508
 20
159.62288265068301
 30
0.0
 11
-6.1196101356805492
 21
160.019757650683
 31
0.0
  0
LINE
  5
94C
  8
0
 62
     0
 10
-3.3699794786649582
 20
158.432257650683
 30
0.0
 11
-4.0573871429188548
 21
158.82913265068299
 31
0.0
  0
LINE
  5
94D
  8
0
 62
     0
 10
-1.307756485903264
 20
157.24163265068299
 30
0.0
 11
-1.995164150157162
 21
157.6385076506831
 31
0.0
  0
LINE
  5
94E
  8
0
 62
     0
 10
0.7544665068584298
 20
156.05100765068309
 30
0.0
 11
0.0670588426045318
 21
156.44788265068311
 31
0.0
  0
LINE
  5
94F
  8
0
 62
     0
 10
2.7203635697655382
 20
154.91599645221461
 30
0.0
 11
2.1292818353662248
 21
155.2572576506831
 31
0.0
  0
LINE
  5
950
  8
0
 62
     0
 10
-10.244055956950049
 20
160.81350793517899
 30
0.0
 11
-10.931463621203941
 21
161.21038293517901
 31
0.0
  0
LINE
  5
951
  8
0
 62
     0
 10
-8.1818329641883558
 20
159.62288293517909
 30
0.0
 11
-8.8692406284422542
 21
160.01975793517909
 31
0.0
  0
LINE
  5
952
  8
0
 62
     0
 10
-6.1196099714266614
 20
158.43225793517911
 30
0.0
 11
-6.8070176356805581
 21
158.8291329351791
 31
0.0
  0
LINE
  5
953
  8
0
 62
     0
 10
-4.057386978664967
 20
157.2416329351791
 30
0.0
 11
-4.7447946429188654
 21
157.63850793517909
 31
0.0
  0
LINE
  5
954
  8
0
 62
     0
 10
-1.995163985903273
 20
156.05100793517909
 30
0.0
 11
-2.682571650157171
 21
156.44788293517911
 31
0.0
  0
LINE
  5
955
  8
0
 62
     0
 10
0.0670590068584209
 20
154.8603829351791
 30
0.0
 11
-0.6203486573954771
 21
155.2572579351791
 31
0.0
  0
LINE
  5
956
  8
0
 62
     0
 10
2.129281999620114
 20
153.66975793517921
 30
0.0
 11
1.441874335366216
 21
154.06663293517909
 31
0.0
  0
LINE
  5
957
  8
0
 62
     0
 10
-12.99368644971174
 20
160.8135082196751
 30
0.0
 11
-13.090155287706491
 21
160.8692045292598
 31
0.0
  0
LINE
  5
958
  8
0
 62
     0
 10
-10.93146345695004
 20
159.62288321967509
 30
0.0
 11
-11.61887112120394
 21
160.01975821967511
 31
0.0
  0
LINE
  5
959
  8
0
 62
     0
 10
-8.8692404641883513
 20
158.43225821967519
 30
0.0
 11
-9.5566481284422498
 21
158.8291332196751
 31
0.0
  0
LINE
  5
95A
  8
0
 62
     0
 10
-6.8070174714266578
 20
157.24163321967521
 30
0.0
 11
-7.4944251356805562
 21
157.6385082196752
 31
0.0
  0
LINE
  5
95B
  8
0
 62
     0
 10
-4.7447944786649652
 20
156.0510082196752
 30
0.0
 11
-5.4322021429188618
 21
156.44788321967519
 31
0.0
  0
LINE
  5
95C
  8
0
 62
     0
 10
-2.6825714859032712
 20
154.86038321967521
 30
0.0
 11
-3.3699791501571692
 21
155.25725821967521
 31
0.0
  0
LINE
  5
95D
  8
0
 62
     0
 10
-0.6203484931415773
 20
153.6697582196752
 30
0.0
 11
-1.307756157395475
 21
154.0666332196752
 31
0.0
  0
LINE
  5
95E
  8
0
 62
     0
 10
1.441874499620116
 20
152.4791332196753
 30
0.0
 11
0.7544668353662188
 21
152.87600821967521
 31
0.0
  0
LINE
  5
95F
  8
0
 62
     0
 10
2.8543607321475828
 20
151.66363391309889
 30
0.0
 11
2.8166898281279118
 21
151.68538321967529
 31
0.0
  0
LINE
  5
960
  8
0
 62
     0
 10
-13.681093949711739
 20
159.62288350417131
 30
0.0
 11
-14.183521707036499
 21
159.91296030511111
 31
0.0
  0
LINE
  5
961
  8
0
 62
     0
 10
-11.61887095695004
 20
158.4322585041713
 30
0.0
 11
-12.306278621203941
 21
158.8291335041713
 31
0.0
  0
LINE
  5
962
  8
0
 62
     0
 10
-9.5566479641883504
 20
157.24163350417129
 30
0.0
 11
-10.244055628442251
 21
157.63850850417131
 31
0.0
  0
LINE
  5
963
  8
0
 62
     0
 10
-7.4944249714266569
 20
156.05100850417131
 30
0.0
 11
-8.1818326356805553
 21
156.4478835041713
 31
0.0
  0
LINE
  5
964
  8
0
 62
     0
 10
-5.4322019786649633
 20
154.8603835041713
 30
0.0
 11
-6.1196096429188609
 21
155.25725850417129
 31
0.0
  0
LINE
  5
965
  8
0
 62
     0
 10
-3.3699789859032689
 20
153.66975850417131
 30
0.0
 11
-4.0573866501571674
 21
154.06663350417131
 31
0.0
  0
LINE
  5
966
  8
0
 62
     0
 10
-1.307755993141575
 20
152.47913350417139
 30
0.0
 11
-1.995163657395473
 21
152.87600850417141
 31
0.0
  0
LINE
  5
967
  8
0
 62
     0
 10
0.7544669996201187
 20
151.2885085041714
 30
0.0
 11
0.0670593353662206
 21
151.6853835041714
 31
0.0
  0
LINE
  5
968
  8
0
 62
     0
 10
2.572912151477595
 20
150.23862870623989
 30
0.0
 11
2.1292823281279141
 21
150.49475850417139
 31
0.0
  0
LINE
  5
969
  8
0
 62
     0
 10
-14.368501449711729
 20
158.4322587886673
 30
0.0
 11
-15.05590911396563
 21
158.82913378866729
 31
0.0
  0
LINE
  5
96A
  8
0
 62
     0
 10
-12.306278456950031
 20
157.24163378866729
 30
0.0
 11
-12.993686121203931
 21
157.63850878866731
 31
0.0
  0
LINE
  5
96B
  8
0
 62
     0
 10
-10.244055464188341
 20
156.05100878866739
 30
0.0
 11
-10.931463128442241
 21
156.44788378866741
 31
0.0
  0
LINE
  5
96C
  8
0
 62
     0
 10
-8.1818324714266488
 20
154.86038378866741
 30
0.0
 11
-8.8692401356805473
 21
155.2572587886674
 31
0.0
  0
LINE
  5
96D
  8
0
 62
     0
 10
-6.1196094786649544
 20
153.66975878866739
 30
0.0
 11
-6.8070171429188511
 21
154.06663378866739
 31
0.0
  0
LINE
  5
96E
  8
0
 62
     0
 10
-4.05738648590326
 20
152.47913378866741
 30
0.0
 11
-4.7447941501571584
 21
152.87600878866741
 31
0.0
  0
LINE
  5
96F
  8
0
 62
     0
 10
-1.995163493141566
 20
151.2885087886674
 30
0.0
 11
-2.682571157395464
 21
151.68538378866739
 31
0.0
  0
LINE
  5
970
  8
0
 62
     0
 10
0.0670594996201273
 20
150.0978837886675
 30
0.0
 11
-0.6203481646337707
 21
150.49475878866741
 31
0.0
  0
LINE
  5
971
  8
0
 62
     0
 10
2.1094366179439268
 20
148.91871680961651
 30
0.0
 11
1.441874828127923
 21
149.30413378866751
 31
0.0
  0
LINE
  5
972
  8
0
 62
     0
 10
-15.05590894971175
 20
157.2416340731634
 30
0.0
 11
-15.74331661396565
 21
157.63850907316339
 31
0.0
  0
LINE
  5
973
  8
0
 62
     0
 10
-12.99368595695006
 20
156.05100907316341
 30
0.0
 11
-13.68109362120396
 21
156.44788407316341
 31
0.0
  0
LINE
  5
974
  8
0
 62
     0
 10
-10.931462964188359
 20
154.86038407316349
 30
0.0
 11
-11.618870628442259
 21
155.2572590731634
 31
0.0
  0
LINE
  5
975
  8
0
 62
     0
 10
-8.8692399714266728
 20
153.6697590731635
 30
0.0
 11
-9.5566476356805712
 21
154.0666340731635
 31
0.0
  0
LINE
  5
976
  8
0
 62
     0
 10
-6.8070169786649801
 20
152.47913407316349
 30
0.0
 11
-7.4944246429188768
 21
152.87600907316349
 31
0.0
  0
LINE
  5
977
  8
0
 62
     0
 10
-4.7447939859032848
 20
151.28850907316351
 30
0.0
 11
-5.4322016501571841
 21
151.6853840731635
 31
0.0
  0
LINE
  5
978
  8
0
 62
     0
 10
-2.6825709931415922
 20
150.0978840731635
 30
0.0
 11
-3.3699786573954902
 21
150.49475907316349
 31
0.0
  0
LINE
  5
979
  8
0
 62
     0
 10
-0.6203480003798984
 20
148.9072590731636
 30
0.0
 11
-1.307755664633796
 21
149.30413407316351
 31
0.0
  0
LINE
  5
97A
  8
0
 62
     0
 10
1.4418749923817951
 20
147.71663407316359
 30
0.0
 11
0.7544673281278979
 21
148.11350907316361
 31
0.0
  0
LINE
  5
97B
  8
0
 62
     0
 10
-15.74331644971174
 20
156.0510093576595
 30
0.0
 11
-16.417166788670801
 21
156.4400570322511
 31
0.0
  0
LINE
  5
97C
  8
0
 62
     0
 10
-13.68109345695005
 20
154.86038435765951
 30
0.0
 11
-14.36850112120394
 21
155.25725935765951
 31
0.0
  0
LINE
  5
97D
  8
0
 62
     0
 10
-11.618870464188349
 20
153.66975935765959
 30
0.0
 11
-12.30627812844225
 21
154.06663435765961
 31
0.0
  0
LINE
  5
97E
  8
0
 62
     0
 10
-9.5566474714266612
 20
152.4791343576596
 30
0.0
 11
-10.24405513568056
 21
152.8760093576596
 31
0.0
  0
LINE
  5
97F
  8
0
 62
     0
 10
-7.4944244786649659
 20
151.28850935765959
 30
0.0
 11
-8.1818321429188643
 21
151.68538435765959
 31
0.0
  0
LINE
  5
980
  8
0
 62
     0
 10
-5.4322014859032732
 20
150.09788435765961
 30
0.0
 11
-6.1196091501571699
 21
150.4947593576596
 31
0.0
  0
LINE
  5
981
  8
0
 62
     0
 10
-3.3699784931415788
 20
148.9072593576596
 30
0.0
 11
-4.0573861573954773
 21
149.30413435765959
 31
0.0
  0
LINE
  5
982
  8
0
 62
     0
 10
-1.3077555003798851
 20
147.71663435765959
 30
0.0
 11
-1.9951631646337831
 21
148.11350935765969
 31
0.0
  0
LINE
  5
983
  8
0
 62
     0
 10
0.6821122331118801
 20
146.5677836860765
 30
0.0
 11
0.0670598281279106
 21
146.92288435765971
 31
0.0
  0
LINE
  5
984
  8
0
 62
     0
 10
-16.430723949711751
 20
154.86038464215559
 30
0.0
 11
-16.824956494660729
 21
155.0879949081052
 31
0.0
  0
LINE
  5
985
  8
0
 62
     0
 10
-14.36850095695006
 20
153.66975964215561
 30
0.0
 11
-15.05590862120396
 21
154.06663464215561
 31
0.0
  0
LINE
  5
986
  8
0
 62
     0
 10
-12.30627796418837
 20
152.4791346421556
 30
0.0
 11
-12.993685628442259
 21
152.87600964215571
 31
0.0
  0
LINE
  5
987
  8
0
 62
     0
 10
-10.244054971426671
 20
151.2885096421557
 30
0.0
 11
-10.931462635680569
 21
151.6853846421557
 31
0.0
  0
LINE
  5
988
  8
0
 62
     0
 10
-8.1818319786649791
 20
150.09788464215569
 30
0.0
 11
-8.8692396429188793
 21
150.49475964215571
 31
0.0
  0
LINE
  5
989
  8
0
 62
     0
 10
-6.1196089859032856
 20
148.90725964215571
 30
0.0
 11
-6.807016650157184
 21
149.3041346421557
 31
0.0
  0
LINE
  5
98A
  8
0
 62
     0
 10
-4.0573859931415921
 20
147.7166346421557
 30
0.0
 11
-4.7447936573954896
 21
148.11350964215569
 31
0.0
  0
LINE
  5
98B
  8
0
 62
     0
 10
-1.9951630003798979
 20
146.52600964215571
 30
0.0
 11
-2.6825706646337961
 21
146.92288464215571
 31
0.0
  0
LINE
  5
98C
  8
0
 62
     0
 10
-0.2849130608981909
 20
145.53859637921451
 30
0.0
 11
-0.6203476718721027
 21
145.73225964215581
 31
0.0
  0
LINE
  5
98D
  8
0
 62
     0
 10
-15.055908456950039
 20
152.4791349266518
 30
0.0
 11
-15.743316121203939
 21
152.87600992665179
 31
0.0
  0
LINE
  5
98E
  8
0
 62
     0
 10
-12.993685464188349
 20
151.28850992665181
 30
0.0
 11
-13.681093128442241
 21
151.68538492665181
 31
0.0
  0
LINE
  5
98F
  8
0
 62
     0
 10
-10.93146247142665
 20
150.0978849266518
 30
0.0
 11
-11.618870135680551
 21
150.4947599266518
 31
0.0
  0
LINE
  5
990
  8
0
 62
     0
 10
-8.8692394786649622
 20
148.90725992665179
 30
0.0
 11
-9.5566471429188606
 21
149.30413492665181
 31
0.0
  0
LINE
  5
991
  8
0
 62
     0
 10
-6.8070164859032669
 20
147.71663492665181
 30
0.0
 11
-7.4944241501571653
 21
148.1135099266518
 31
0.0
  0
LINE
  5
992
  8
0
 62
     0
 10
-4.7447934931415734
 20
146.52600992665191
 30
0.0
 11
-5.4322011573954709
 21
146.9228849266519
 31
0.0
  0
LINE
  5
993
  8
0
 62
     0
 10
-2.6825705003798781
 20
145.3353849266519
 30
0.0
 11
-3.3699781646337761
 21
145.73225992665189
 31
0.0
  0
LINE
  5
994
  8
0
 62
     0
 10
-15.743315956950051
 20
151.28851021114781
 30
0.0
 11
-16.430723621203938
 21
151.6853852111478
 31
0.0
  0
LINE
  5
995
  8
0
 62
     0
 10
-13.68109296418835
 20
150.09788521114791
 30
0.0
 11
-14.36850062844225
 21
150.49476021114779
 31
0.0
  0
LINE
  5
996
  8
0
 62
     0
 10
-11.61886997142666
 20
148.9072602111479
 30
0.0
 11
-12.30627763568056
 21
149.30413521114789
 31
0.0
  0
LINE
  5
997
  8
0
 62
     0
 10
-9.5566469786649684
 20
147.71663521114789
 30
0.0
 11
-10.24405464291886
 21
148.11351021114791
 31
0.0
  0
LINE
  5
998
  8
0
 62
     0
 10
-7.4944239859032731
 20
146.52601021114791
 30
0.0
 11
-8.1818316501571715
 21
146.9228852111479
 31
0.0
  0
LINE
  5
999
  8
0
 62
     0
 10
-5.4322009931415796
 20
145.33538521114789
 30
0.0
 11
-6.1196086573954771
 21
145.73226021114789
 31
0.0
  0
LINE
  5
99A
  8
0
 62
     0
 10
-3.369978000379886
 20
144.14476021114791
 30
0.0
 11
-4.0573856646337836
 21
144.54163521114791
 31
0.0
  0
LINE
  5
99B
  8
0
 62
     0
 10
-16.430723456950041
 20
150.09788549564391
 30
0.0
 11
-16.722317630640219
 21
150.26623747031809
 31
0.0
  0
LINE
  5
99C
  8
0
 62
     0
 10
-14.36850046418834
 20
148.9072604956439
 30
0.0
 11
-15.05590812844224
 21
149.30413549564389
 31
0.0
  0
LINE
  5
99D
  8
0
 62
     0
 10
-12.30627747142665
 20
147.71663549564391
 30
0.0
 11
-12.993685135680551
 21
148.11351049564391
 31
0.0
  0
LINE
  5
99E
  8
0
 62
     0
 10
-10.24405447866496
 20
146.52601049564399
 30
0.0
 11
-10.931462142918861
 21
146.92288549564401
 31
0.0
  0
LINE
  5
99F
  8
0
 62
     0
 10
-8.1818314859032668
 20
145.335385495644
 30
0.0
 11
-8.8692391501571652
 21
145.732260495644
 31
0.0
  0
LINE
  5
9A0
  8
0
 62
     0
 10
-6.1196084931415724
 20
144.14476049564399
 30
0.0
 11
-6.8070161573954691
 21
144.54163549564399
 31
0.0
  0
LINE
  5
9A1
  8
0
 62
     0
 10
-4.5119969249187051
 20
143.21660552397819
 30
0.0
 11
-4.7447931646337764
 21
143.351010495644
 31
0.0
  0
LINE
  5
9A2
  8
0
 62
     0
 10
-15.05590796418835
 20
147.71663578014011
 30
0.0
 11
-15.74331562844225
 21
148.1135107801401
 31
0.0
  0
LINE
  5
9A3
  8
0
 62
     0
 10
-12.99368497142666
 20
146.5260107801401
 30
0.0
 11
-13.68109263568056
 21
146.92288578014009
 31
0.0
  0
LINE
  5
9A4
  8
0
 62
     0
 10
-10.93146197866497
 20
145.33538578014009
 30
0.0
 11
-11.61886964291887
 21
145.73226078014011
 31
0.0
  0
LINE
  5
9A5
  8
0
 62
     0
 10
-8.8692389859032765
 20
144.1447607801401
 30
0.0
 11
-9.5566466501571732
 21
144.5416357801401
 31
0.0
  0
LINE
  5
9A6
  8
0
 62
     0
 10
-6.9142609357098186
 20
143.0160536766011
 30
0.0
 11
-7.4944236573954814
 21
143.35101078014009
 31
0.0
  0
LINE
  5
9A7
  8
0
 62
     0
 10
-11.61886947866496
 20
144.14476106463621
 30
0.0
 11
-12.30627714291886
 21
144.54163606463621
 31
0.0
  0
LINE
  5
9A8
  8
0
 62
     0
 10
-15.0558759346782
 20
158.82911842587819
 30
0.0
 11
-15.15250397540996
 21
158.7733302005505
 31
0.0
  0
LINE
  5
9A9
  8
0
 62
     0
 10
-12.99365294191651
 20
160.0197434258782
 30
0.0
 11
-13.68106060617041
 21
159.62286842587821
 31
0.0
  0
LINE
  5
9AA
  8
0
 62
     0
 10
-10.931429949154809
 20
161.21036842587819
 30
0.0
 11
-11.61883761340871
 21
160.81349342587819
 31
0.0
  0
LINE
  5
9AB
  8
0
 62
     0
 10
-8.8692069563931195
 20
162.4009934258782
 30
0.0
 11
-9.5566146206470162
 21
162.0041184258782
 31
0.0
  0
LINE
  5
9AC
  8
0
 62
     0
 10
-14.368468434678199
 20
157.63849371037429
 30
0.0
 11
-15.055876098932099
 21
157.24161871037441
 31
0.0
  0
LINE
  5
9AD
  8
0
 62
     0
 10
-12.3062454419165
 20
158.8291187103743
 30
0.0
 11
-12.993653106170401
 21
158.43224371037431
 31
0.0
  0
LINE
  5
9AE
  8
0
 62
     0
 10
-10.24402244915481
 20
160.01974371037431
 30
0.0
 11
-10.931430113408711
 21
159.62286871037429
 31
0.0
  0
LINE
  5
9AF
  8
0
 62
     0
 10
-8.1817994563931151
 20
161.2103687103743
 30
0.0
 11
-8.8692071206470136
 21
160.8134937103743
 31
0.0
  0
LINE
  5
9B0
  8
0
 62
     0
 10
-6.1195764636314198
 20
162.40099371037431
 30
0.0
 11
-6.8069841278853191
 21
162.00411871037431
 31
0.0
  0
LINE
  5
9B1
  8
0
 62
     0
 10
-15.74328392743989
 20
155.25724399487049
 30
0.0
 11
-16.43069159169379
 21
154.8603689948705
 31
0.0
  0
LINE
  5
9B2
  8
0
 62
     0
 10
-13.6810609346782
 20
156.4478689948705
 30
0.0
 11
-14.3684685989321
 21
156.05099399487051
 31
0.0
  0
LINE
  5
9B3
  8
0
 62
     0
 10
-11.6188379419165
 20
157.6384939948704
 30
0.0
 11
-12.3062456061704
 21
157.24161899487041
 31
0.0
  0
LINE
  5
9B4
  8
0
 62
     0
 10
-9.5566149491548114
 20
158.82911899487041
 30
0.0
 11
-10.24402261340871
 21
158.43224399487039
 31
0.0
  0
LINE
  5
9B5
  8
0
 62
     0
 10
-7.4943919563931161
 20
160.0197439948704
 30
0.0
 11
-8.1817996206470145
 21
159.6228689948704
 31
0.0
  0
LINE
  5
9B6
  8
0
 62
     0
 10
-5.4321689636314208
 20
161.21036899487041
 30
0.0
 11
-6.1195766278853201
 21
160.81349399487041
 31
0.0
  0
LINE
  5
9B7
  8
0
 62
     0
 10
-3.6065616425511768
 20
162.26438387313061
 30
0.0
 11
-4.0573536351236248
 21
162.0041189948704
 31
0.0
  0
LINE
  5
9B8
  8
0
 62
     0
 10
-15.055876427439889
 20
154.06661927936659
 30
0.0
 11
-15.74328409169379
 21
153.6697442793666
 31
0.0
  0
LINE
  5
9B9
  8
0
 62
     0
 10
-12.993653434678199
 20
155.2572442793666
 30
0.0
 11
-13.6810610989321
 21
154.86036927936661
 31
0.0
  0
LINE
  5
9BA
  8
0
 62
     0
 10
-10.9314304419165
 20
156.4478692793665
 30
0.0
 11
-11.618838106170401
 21
156.05099427936651
 31
0.0
  0
LINE
  5
9BB
  8
0
 62
     0
 10
-8.8692074491548087
 20
157.63849427936651
 30
0.0
 11
-9.5566151134087072
 21
157.24161927936649
 31
0.0
  0
LINE
  5
9BC
  8
0
 62
     0
 10
-6.8069844563931126
 20
158.82911927936649
 30
0.0
 11
-7.494392120647011
 21
158.4322442793665
 31
0.0
  0
LINE
  5
9BD
  8
0
 62
     0
 10
-4.744761463631419
 20
160.01974427936651
 30
0.0
 11
-5.4321691278853166
 21
159.62286927936651
 31
0.0
  0
LINE
  5
9BE
  8
0
 62
     0
 10
-2.6825384708697242
 20
161.21036927936649
 30
0.0
 11
-3.3699461351236222
 21
160.81349427936649
 31
0.0
  0
LINE
  5
9BF
  8
0
 62
     0
 10
-16.4306919202016
 20
151.68536956386271
 30
0.0
 11
-16.95743358920009
 21
151.381255119473
 31
0.0
  0
LINE
  5
9C0
  8
0
 62
     0
 10
-14.368468927439899
 20
152.87599456386269
 30
0.0
 11
-15.055876591693799
 21
152.4791195638627
 31
0.0
  0
LINE
  5
9C1
  8
0
 62
     0
 10
-12.306245934678209
 20
154.06661956386259
 30
0.0
 11
-12.993653598932109
 21
153.66974456386271
 31
0.0
  0
LINE
  5
9C2
  8
0
 62
     0
 10
-10.24402294191651
 20
155.2572445638626
 30
0.0
 11
-10.931430606170411
 21
154.8603695638626
 31
0.0
  0
LINE
  5
9C3
  8
0
 62
     0
 10
-8.1817999491548221
 20
156.44786956386261
 30
0.0
 11
-8.8692076134087205
 21
156.05099456386259
 31
0.0
  0
LINE
  5
9C4
  8
0
 62
     0
 10
-6.1195769563931259
 20
157.63849456386259
 30
0.0
 11
-6.8069846206470253
 21
157.2416195638626
 31
0.0
  0
LINE
  5
9C5
  8
0
 62
     0
 10
-4.0573539636314324
 20
158.8291195638626
 30
0.0
 11
-4.74476162788533
 21
158.43224456386261
 31
0.0
  0
LINE
  5
9C6
  8
0
 62
     0
 10
-1.995130970869738
 20
160.01974456386259
 30
0.0
 11
-2.6825386351236351
 21
159.62286956386259
 31
0.0
  0
LINE
  5
9C7
  8
0
 62
     0
 10
-15.743284420201601
 20
150.49474484835881
 30
0.0
 11
-16.430692084455501
 21
150.09786984835881
 31
0.0
  0
LINE
  5
9C8
  8
0
 62
     0
 10
-13.6810614274399
 20
151.68536984835879
 30
0.0
 11
-14.3684690916938
 21
151.28849484835879
 31
0.0
  0
LINE
  5
9C9
  8
0
 62
     0
 10
-11.61883843467821
 20
152.87599484835869
 30
0.0
 11
-12.30624609893211
 21
152.47911984835881
 31
0.0
  0
LINE
  5
9CA
  8
0
 62
     0
 10
-9.5566154419165148
 20
154.0666198483587
 30
0.0
 11
-10.24402310617041
 21
153.6697448483587
 31
0.0
  0
LINE
  5
9CB
  8
0
 62
     0
 10
-7.4943924491548186
 20
155.25724484835871
 30
0.0
 11
-8.1818001134087162
 21
154.86036984835869
 31
0.0
  0
LINE
  5
9CC
  8
0
 62
     0
 10
-5.4321694563931251
 20
156.44786984835869
 30
0.0
 11
-6.1195771206470226
 21
156.0509948483587
 31
0.0
  0
LINE
  5
9CD
  8
0
 62
     0
 10
-3.3699464636314298
 20
157.6384948483587
 30
0.0
 11
-4.0573541278853291
 21
157.24161984835871
 31
0.0
  0
LINE
  5
9CE
  8
0
 62
     0
 10
-1.3077234708697361
 20
158.8291198483586
 30
0.0
 11
-1.995131135123634
 21
158.43224484835869
 31
0.0
  0
LINE
  5
9CF
  8
0
 62
     0
 10
0.2301205769324355
 20
159.71699452332891
 30
0.0
 11
0.0670918576380598
 21
159.62286984835859
 31
0.0
  0
LINE
  5
9D0
  8
0
 62
     0
 10
-15.055876920201611
 20
149.30412013285491
 30
0.0
 11
-15.743284584455511
 21
148.90724513285491
 31
0.0
  0
LINE
  5
9D1
  8
0
 62
     0
 10
-12.99365392743991
 20
150.49474513285489
 30
0.0
 11
-13.68106159169381
 21
150.09787013285489
 31
0.0
  0
LINE
  5
9D2
  8
0
 62
     0
 10
-10.93143093467822
 20
151.6853701328549
 30
0.0
 11
-11.618838598932109
 21
151.28849513285479
 31
0.0
  0
LINE
  5
9D3
  8
0
 62
     0
 10
-8.8692079419165228
 20
152.8759951328548
 30
0.0
 11
-9.5566156061704213
 21
152.4791201328548
 31
0.0
  0
LINE
  5
9D4
  8
0
 62
     0
 10
-6.8069849491548284
 20
154.06662013285481
 30
0.0
 11
-7.494392613408726
 21
153.66974513285481
 31
0.0
  0
LINE
  5
9D5
  8
0
 62
     0
 10
-4.744761956393134
 20
155.25724513285479
 30
0.0
 11
-5.4321696206470316
 21
154.8603701328548
 31
0.0
  0
LINE
  5
9D6
  8
0
 62
     0
 10
-2.6825389636314392
 20
156.4478701328548
 30
0.0
 11
-3.3699466278853372
 21
156.05099513285481
 31
0.0
  0
LINE
  5
9D7
  8
0
 62
     0
 10
-0.6203159708697451
 20
157.63849513285481
 30
0.0
 11
-1.307723635123643
 21
157.24162013285479
 31
0.0
  0
LINE
  5
9D8
  8
0
 62
     0
 10
1.1085039043367779
 20
158.63662975318559
 30
0.0
 11
0.7544993576380512
 21
158.4322451328548
 31
0.0
  0
LINE
  5
9D9
  8
0
 62
     0
 10
-14.368469420201579
 20
148.11349541735089
 30
0.0
 11
-15.055877084455471
 21
147.71662041735101
 31
0.0
  0
LINE
  5
9DA
  8
0
 62
     0
 10
-12.306246427439881
 20
149.3041204173509
 30
0.0
 11
-12.993654091693781
 21
148.90724541735091
 31
0.0
  0
LINE
  5
9DB
  8
0
 62
     0
 10
-10.24402343467818
 20
150.49474541735091
 30
0.0
 11
-10.93143109893208
 21
150.09787041735089
 31
0.0
  0
LINE
  5
9DC
  8
0
 62
     0
 10
-8.1818004419164918
 20
151.6853704173509
 30
0.0
 11
-8.8692081061703902
 21
151.2884954173509
 31
0.0
  0
LINE
  5
9DD
  8
0
 62
     0
 10
-6.1195774491547974
 20
152.87599541735091
 30
0.0
 11
-6.8069851134086949
 21
152.47912041735091
 31
0.0
  0
LINE
  5
9DE
  8
0
 62
     0
 10
-4.0573544563931021
 20
154.06662041735089
 30
0.0
 11
-4.7447621206470014
 21
153.6697454173509
 31
0.0
  0
LINE
  5
9DF
  8
0
 62
     0
 10
-1.995131463631409
 20
155.2572454173509
 30
0.0
 11
-2.682539127885307
 21
154.86037041735079
 31
0.0
  0
LINE
  5
9E0
  8
0
 62
     0
 10
0.0670915291302854
 20
156.4478704173508
 30
0.0
 11
-0.6203161351236127
 21
156.0509954173508
 31
0.0
  0
LINE
  5
9E1
  8
0
 62
     0
 10
1.8203936191785031
 20
157.46013985101089
 30
0.0
 11
1.4419068576380809
 21
157.24162041735079
 31
0.0
  0
LINE
  5
9E2
  8
0
 62
     0
 10
-13.681061920201589
 20
146.9228707018471
 30
0.0
 11
-14.368469584455489
 21
146.52599570184711
 31
0.0
  0
LINE
  5
9E3
  8
0
 62
     0
 10
-11.61883892743989
 20
148.113495701847
 30
0.0
 11
-12.306246591693791
 21
147.71662070184701
 31
0.0
  0
LINE
  5
9E4
  8
0
 62
     0
 10
-9.5566159346782005
 20
149.30412070184701
 30
0.0
 11
-10.244023598932101
 21
148.90724570184699
 31
0.0
  0
LINE
  5
9E5
  8
0
 62
     0
 10
-7.4943929419165052
 20
150.49474570184699
 30
0.0
 11
-8.1818006061704036
 21
150.097870701847
 31
0.0
  0
LINE
  5
9E6
  8
0
 62
     0
 10
-5.4321699491548099
 20
151.68537070184701
 30
0.0
 11
-6.1195776134087092
 21
151.28849570184701
 31
0.0
  0
LINE
  5
9E7
  8
0
 62
     0
 10
-3.3699469563931159
 20
152.87599570184699
 30
0.0
 11
-4.0573546206470139
 21
152.47912070184699
 31
0.0
  0
LINE
  5
9E8
  8
0
 62
     0
 10
-1.307723963631422
 20
154.06662070184689
 30
0.0
 11
-1.9951316278853199
 21
153.66974570184689
 31
0.0
  0
LINE
  5
9E9
  8
0
 62
     0
 10
0.7544990291302718
 20
155.2572457018469
 30
0.0
 11
0.0670913648763737
 21
154.8603707018469
 31
0.0
  0
LINE
  5
9EA
  8
0
 62
     0
 10
2.367226854637738
 20
156.1883545460332
 30
0.0
 11
2.1293143576380671
 21
156.05099570184689
 31
0.0
  0
LINE
  5
9EB
  8
0
 62
     0
 10
-12.993654420201601
 20
145.7322459863432
 30
0.0
 11
-13.650447697689581
 21
145.3530462107835
 31
0.0
  0
LINE
  5
9EC
  8
0
 62
     0
 10
-10.9314314274399
 20
146.9228709863431
 30
0.0
 11
-11.6188390916938
 21
146.5259959863431
 31
0.0
  0
LINE
  5
9ED
  8
0
 62
     0
 10
-8.8692084346782103
 20
148.11349598634311
 30
0.0
 11
-9.5566160989321087
 21
147.71662098634309
 31
0.0
  0
LINE
  5
9EE
  8
0
 62
     0
 10
-6.806985441916515
 20
149.30412098634309
 30
0.0
 11
-7.4943931061704134
 21
148.9072459863431
 31
0.0
  0
LINE
  5
9EF
  8
0
 62
     0
 10
-4.7447624491548197
 20
150.4947459863431
 30
0.0
 11
-5.432170113408719
 21
150.09787098634311
 31
0.0
  0
LINE
  5
9F0
  8
0
 62
     0
 10
-2.6825394563931262
 20
151.68537098634309
 30
0.0
 11
-3.3699471206470242
 21
151.28849598634309
 31
0.0
  0
LINE
  5
9F1
  8
0
 62
     0
 10
-0.6203164636314325
 20
152.87599598634301
 30
0.0
 11
-1.30772412788533
 21
152.4791209863431
 31
0.0
  0
LINE
  5
9F2
  8
0
 62
     0
 10
1.4419065291302611
 20
154.066620986343
 30
0.0
 11
0.7544988648763639
 21
153.669745986343
 31
0.0
  0
LINE
  5
9F3
  8
0
 62
     0
 10
-12.3062469202016
 20
144.54162127083919
 30
0.0
 11
-12.454127819513429
 21
144.45624219381361
 31
0.0
  0
LINE
  5
9F4
  8
0
 62
     0
 10
-10.244023927439899
 20
145.7322462708392
 30
0.0
 11
-10.9314315916938
 21
145.3353712708392
 31
0.0
  0
LINE
  5
9F5
  8
0
 62
     0
 10
-8.1818009346782077
 20
146.92287127083921
 30
0.0
 11
-8.8692085989321061
 21
146.52599627083919
 31
0.0
  0
LINE
  5
9F6
  8
0
 62
     0
 10
-6.1195779419165133
 20
148.11349627083919
 30
0.0
 11
-6.8069856061704108
 21
147.7166212708392
 31
0.0
  0
LINE
  5
9F7
  8
0
 62
     0
 10
-4.057354949154818
 20
149.3041212708392
 30
0.0
 11
-4.7447626134087173
 21
148.90724627083921
 31
0.0
  0
LINE
  5
9F8
  8
0
 62
     0
 10
-1.995131956393124
 20
150.49474627083919
 30
0.0
 11
-2.682539620647022
 21
150.09787127083919
 31
0.0
  0
LINE
  5
9F9
  8
0
 62
     0
 10
0.0670910363685697
 20
151.68537127083911
 30
0.0
 11
-0.6203166278853284
 21
151.28849627083909
 31
0.0
  0
LINE
  5
9FA
  8
0
 62
     0
 10
2.129314029130263
 20
152.8759962708391
 30
0.0
 11
1.441906364876365
 21
152.4791212708391
 31
0.0
  0
LINE
  5
9FB
  8
0
 62
     0
 10
-9.5566164274399057
 20
144.5416215553353
 30
0.0
 11
-10.244024091693801
 21
144.1447465553353
 31
0.0
  0
LINE
  5
9FC
  8
0
 62
     0
 10
-7.4943934346782104
 20
145.73224655533531
 30
0.0
 11
-8.1818010989321088
 21
145.33537155533531
 31
0.0
  0
LINE
  5
9FD
  8
0
 62
     0
 10
-5.4321704419165151
 20
146.92287155533529
 30
0.0
 11
-6.1195781061704144
 21
146.5259965553353
 31
0.0
  0
LINE
  5
9FE
  8
0
 62
     0
 10
-3.3699474491548211
 20
148.1134965553353
 30
0.0
 11
-4.05735511340872
 21
147.71662155533531
 31
0.0
  0
LINE
  5
9FF
  8
0
 62
     0
 10
-1.307724456393127
 20
149.3041215553352
 30
0.0
 11
-1.9951321206470249
 21
148.90724655533529
 31
0.0
  0
LINE
  5
A00
  8
0
 62
     0
 10
0.7544985363685666
 20
150.49474655533521
 30
0.0
 11
0.0670908721146685
 21
150.09787155533519
 31
0.0
  0
LINE
  5
A01
  8
0
 62
     0
 10
2.8167215291302599
 20
151.68537155533519
 30
0.0
 11
2.1293138648763619
 21
151.2884965553352
 31
0.0
  0
LINE
  5
A02
  8
0
 62
     0
 10
-8.8692089274399226
 20
143.3509968398314
 30
0.0
 11
-9.2589755944408374
 21
143.12596494971729
 31
0.0
  0
LINE
  5
A03
  8
0
 62
     0
 10
-6.8069859346782282
 20
144.54162183983141
 30
0.0
 11
-7.4943935989321258
 21
144.14474683983141
 31
0.0
  0
LINE
  5
A04
  8
0
 62
     0
 10
-4.7447629419165329
 20
145.73224683983139
 30
0.0
 11
-5.4321706061704322
 21
145.3353718398314
 31
0.0
  0
LINE
  5
A05
  8
0
 62
     0
 10
-2.682539949154839
 20
146.92287183983129
 30
0.0
 11
-3.3699476134087369
 21
146.52599683983141
 31
0.0
  0
LINE
  5
A06
  8
0
 62
     0
 10
-0.6203169563931456
 20
148.1134968398313
 30
0.0
 11
-1.307724620647043
 21
147.7166218398313
 31
0.0
  0
LINE
  5
A07
  8
0
 62
     0
 10
1.4419060363685481
 20
149.30412183983131
 30
0.0
 11
0.7544983721146507
 21
148.90724683983129
 31
0.0
  0
LINE
  5
A08
  8
0
 62
     0
 10
-6.1195784346782158
 20
143.35099712432751
 30
0.0
 11
-6.6997175038024066
 21
143.01605367660119
 31
0.0
  0
LINE
  5
A09
  8
0
 62
     0
 10
-4.0573554419165223
 20
144.54162212432749
 30
0.0
 11
-4.7447631061704199
 21
144.14474712432749
 31
0.0
  0
LINE
  5
A0A
  8
0
 62
     0
 10
-1.995132449154827
 20
145.7322471243275
 30
0.0
 11
-2.682540113408725
 21
145.33537212432739
 31
0.0
  0
LINE
  5
A0B
  8
0
 62
     0
 10
0.0670905436068663
 20
146.9228721243274
 30
0.0
 11
-0.6203171206470319
 21
146.5259971243274
 31
0.0
  0
LINE
  5
A0C
  8
0
 62
     0
 10
1.5165797061786279
 20
147.75973508252571
 30
0.0
 11
1.441905872114662
 21
147.71662212432739
 31
0.0
  0
LINE
  5
A0D
  8
0
 62
     0
 10
2.129308115989895
 20
155.25727984137859
 30
0.0
 11
2.129308115989895
 21
156.05102984137861
 31
0.0
  0
LINE
  5
A0E
  8
0
 62
     0
 10
2.129308115989895
 20
152.8760298413786
 30
0.0
 11
2.129308115989895
 21
153.66977984137861
 31
0.0
  0
LINE
  5
A0F
  8
0
 62
     0
 10
2.129308115989895
 20
150.4947798413786
 30
0.0
 11
2.129308115989895
 21
151.28852984137859
 31
0.0
  0
LINE
  5
A10
  8
0
 62
     0
 10
0.7544931159898977
 20
157.63852984137861
 30
0.0
 11
0.7544931159898977
 21
158.43227984137849
 31
0.0
  0
LINE
  5
A11
  8
0
 62
     0
 10
0.7544931159898975
 20
155.25727984137859
 30
0.0
 11
0.7544931159898975
 21
156.05102984137849
 31
0.0
  0
LINE
  5
A12
  8
0
 62
     0
 10
0.7544931159898975
 20
152.8760298413786
 30
0.0
 11
0.7544931159898975
 21
153.66977984137861
 31
0.0
  0
LINE
  5
A13
  8
0
 62
     0
 10
0.7544931159898974
 20
150.4947798413786
 30
0.0
 11
0.7544931159898974
 21
151.28852984137859
 31
0.0
  0
LINE
  5
A14
  8
0
 62
     0
 10
0.7544931159898973
 20
148.11352984137861
 30
0.0
 11
0.7544931159898973
 21
148.9072798413786
 31
0.0
  0
LINE
  5
A15
  8
0
 62
     0
 10
-0.6203218840101076
 20
160.01977984137849
 30
0.0
 11
-0.6203218840101076
 21
160.52495952254529
 31
0.0
  0
LINE
  5
A16
  8
0
 62
     0
 10
-0.6203218840101077
 20
157.6385298413785
 30
0.0
 11
-0.6203218840101077
 21
158.43227984137849
 31
0.0
  0
LINE
  5
A17
  8
0
 62
     0
 10
-0.6203218840101079
 20
155.25727984137851
 30
0.0
 11
-0.6203218840101079
 21
156.05102984137849
 31
0.0
  0
LINE
  5
A18
  8
0
 62
     0
 10
-0.6203218840101079
 20
152.8760298413786
 30
0.0
 11
-0.6203218840101079
 21
153.6697798413785
 31
0.0
  0
LINE
  5
A19
  8
0
 62
     0
 10
-0.620321884010108
 20
150.4947798413786
 30
0.0
 11
-0.620321884010108
 21
151.28852984137851
 31
0.0
  0
LINE
  5
A1A
  8
0
 62
     0
 10
-0.6203218840101082
 20
148.11352984137861
 30
0.0
 11
-0.6203218840101082
 21
148.90727984137851
 31
0.0
  0
LINE
  5
A1B
  8
0
 62
     0
 10
-0.6203218840101084
 20
145.73227984137861
 30
0.0
 11
-0.6203218840101084
 21
146.52602984137849
 31
0.0
  0
LINE
  5
A1C
  8
0
 62
     0
 10
-1.995136884010106
 20
160.01977984137849
 30
0.0
 11
-1.995136884010106
 21
160.81352984137851
 31
0.0
  0
LINE
  5
A1D
  8
0
 62
     0
 10
-1.995136884010106
 20
157.6385298413785
 30
0.0
 11
-1.995136884010106
 21
158.43227984137849
 31
0.0
  0
LINE
  5
A1E
  8
0
 62
     0
 10
-1.995136884010106
 20
155.25727984137851
 30
0.0
 11
-1.995136884010106
 21
156.05102984137849
 31
0.0
  0
LINE
  5
A1F
  8
0
 62
     0
 10
-1.995136884010106
 20
152.8760298413786
 30
0.0
 11
-1.995136884010106
 21
153.6697798413785
 31
0.0
  0
LINE
  5
A20
  8
0
 62
     0
 10
-1.995136884010106
 20
150.4947798413786
 30
0.0
 11
-1.995136884010106
 21
151.28852984137851
 31
0.0
  0
LINE
  5
A21
  8
0
 62
     0
 10
-1.995136884010106
 20
148.11352984137861
 30
0.0
 11
-1.995136884010106
 21
148.90727984137851
 31
0.0
  0
LINE
  5
A22
  8
0
 62
     0
 10
-1.995136884010106
 20
145.73227984137861
 30
0.0
 11
-1.995136884010106
 21
146.52602984137849
 31
0.0
  0
LINE
  5
A23
  8
0
 62
     0
 10
-3.3699518840101041
 20
160.01977984137861
 30
0.0
 11
-3.3699518840101041
 21
160.81352984137851
 31
0.0
  0
LINE
  5
A24
  8
0
 62
     0
 10
-3.3699518840101041
 20
157.63852984137861
 30
0.0
 11
-3.3699518840101041
 21
158.43227984137849
 31
0.0
  0
LINE
  5
A25
  8
0
 62
     0
 10
-3.3699518840101041
 20
155.25727984137859
 30
0.0
 11
-3.3699518840101041
 21
156.05102984137849
 31
0.0
  0
LINE
  5
A26
  8
0
 62
     0
 10
-3.3699518840101041
 20
152.8760298413786
 30
0.0
 11
-3.3699518840101041
 21
153.66977984137861
 31
0.0
  0
LINE
  5
A27
  8
0
 62
     0
 10
-3.3699518840101041
 20
150.4947798413786
 30
0.0
 11
-3.3699518840101041
 21
151.28852984137859
 31
0.0
  0
LINE
  5
A28
  8
0
 62
     0
 10
-3.3699518840101041
 20
148.11352984137861
 30
0.0
 11
-3.3699518840101041
 21
148.9072798413786
 31
0.0
  0
LINE
  5
A29
  8
0
 62
     0
 10
-3.3699518840101041
 20
145.73227984137861
 30
0.0
 11
-3.3699518840101041
 21
146.5260298413786
 31
0.0
  0
LINE
  5
A2A
  8
0
 62
     0
 10
-3.3699518840101041
 20
143.5937289395782
 30
0.0
 11
-3.3699518840101041
 21
144.14477984137861
 31
0.0
  0
LINE
  5
A2B
  8
0
 62
     0
 10
-4.7447668840101089
 20
162.4010298413786
 30
0.0
 11
-4.7447668840101089
 21
162.60933772324901
 31
0.0
  0
LINE
  5
A2C
  8
0
 62
     0
 10
-4.7447668840101089
 20
160.01977984137861
 30
0.0
 11
-4.7447668840101089
 21
160.81352984137851
 31
0.0
  0
LINE
  5
A2D
  8
0
 62
     0
 10
-4.7447668840101089
 20
157.63852984137861
 30
0.0
 11
-4.7447668840101089
 21
158.43227984137849
 31
0.0
  0
LINE
  5
A2E
  8
0
 62
     0
 10
-4.7447668840101089
 20
155.25727984137859
 30
0.0
 11
-4.7447668840101089
 21
156.05102984137849
 31
0.0
  0
LINE
  5
A2F
  8
0
 62
     0
 10
-4.7447668840101089
 20
152.8760298413786
 30
0.0
 11
-4.7447668840101089
 21
153.66977984137861
 31
0.0
  0
LINE
  5
A30
  8
0
 62
     0
 10
-4.7447668840101089
 20
150.4947798413786
 30
0.0
 11
-4.7447668840101089
 21
151.28852984137859
 31
0.0
  0
LINE
  5
A31
  8
0
 62
     0
 10
-4.7447668840101089
 20
148.11352984137861
 30
0.0
 11
-4.7447668840101089
 21
148.9072798413786
 31
0.0
  0
LINE
  5
A32
  8
0
 62
     0
 10
-4.7447668840101089
 20
145.73227984137861
 30
0.0
 11
-4.7447668840101089
 21
146.5260298413786
 31
0.0
  0
LINE
  5
A33
  8
0
 62
     0
 10
-4.7447668840101089
 20
143.35102984137859
 30
0.0
 11
-4.7447668840101089
 21
144.14477984137861
 31
0.0
  0
LINE
  5
A34
  8
0
 62
     0
 10
-6.1195818840101071
 20
162.40102984137849
 30
0.0
 11
-6.1195818840101071
 21
162.83829698261161
 31
0.0
  0
LINE
  5
A35
  8
0
 62
     0
 10
-6.1195818840101071
 20
160.01977984137849
 30
0.0
 11
-6.1195818840101071
 21
160.81352984137851
 31
0.0
  0
LINE
  5
A36
  8
0
 62
     0
 10
-6.1195818840101071
 20
157.6385298413785
 30
0.0
 11
-6.1195818840101071
 21
158.43227984137849
 31
0.0
  0
LINE
  5
A37
  8
0
 62
     0
 10
-6.1195818840101071
 20
155.25727984137851
 30
0.0
 11
-6.1195818840101071
 21
156.05102984137849
 31
0.0
  0
LINE
  5
A38
  8
0
 62
     0
 10
-6.1195818840101071
 20
152.8760298413786
 30
0.0
 11
-6.1195818840101071
 21
153.6697798413785
 31
0.0
  0
LINE
  5
A39
  8
0
 62
     0
 10
-6.1195818840101071
 20
150.4947798413786
 30
0.0
 11
-6.1195818840101071
 21
151.28852984137851
 31
0.0
  0
LINE
  5
A3A
  8
0
 62
     0
 10
-6.1195818840101071
 20
148.11352984137861
 30
0.0
 11
-6.1195818840101071
 21
148.90727984137851
 31
0.0
  0
LINE
  5
A3B
  8
0
 62
     0
 10
-6.1195818840101071
 20
145.73227984137861
 30
0.0
 11
-6.1195818840101071
 21
146.52602984137849
 31
0.0
  0
LINE
  5
A3C
  8
0
 62
     0
 10
-6.1195818840101071
 20
143.35102984137859
 30
0.0
 11
-6.1195818840101071
 21
144.14477984137861
 31
0.0
  0
LINE
  5
A3D
  8
0
 62
     0
 10
-7.4943968840101061
 20
162.40102984137849
 30
0.0
 11
-7.4943968840101061
 21
162.87468385007679
 31
0.0
  0
LINE
  5
A3E
  8
0
 62
     0
 10
-7.4943968840101061
 20
160.01977984137849
 30
0.0
 11
-7.4943968840101061
 21
160.81352984137851
 31
0.0
  0
LINE
  5
A3F
  8
0
 62
     0
 10
-7.4943968840101061
 20
157.6385298413785
 30
0.0
 11
-7.4943968840101061
 21
158.43227984137849
 31
0.0
  0
LINE
  5
A40
  8
0
 62
     0
 10
-7.4943968840101061
 20
155.25727984137851
 30
0.0
 11
-7.4943968840101061
 21
156.05102984137849
 31
0.0
  0
LINE
  5
A41
  8
0
 62
     0
 10
-7.4943968840101061
 20
152.8760298413786
 30
0.0
 11
-7.4943968840101061
 21
153.6697798413785
 31
0.0
  0
LINE
  5
A42
  8
0
 62
     0
 10
-7.4943968840101061
 20
150.4947798413786
 30
0.0
 11
-7.4943968840101061
 21
151.28852984137851
 31
0.0
  0
LINE
  5
A43
  8
0
 62
     0
 10
-7.4943968840101061
 20
148.11352984137861
 30
0.0
 11
-7.4943968840101061
 21
148.90727984137851
 31
0.0
  0
LINE
  5
A44
  8
0
 62
     0
 10
-7.4943968840101061
 20
145.73227984137861
 30
0.0
 11
-7.4943968840101061
 21
146.52602984137849
 31
0.0
  0
LINE
  5
A45
  8
0
 62
     0
 10
-7.4943968840101061
 20
143.35102984137859
 30
0.0
 11
-7.4943968840101061
 21
144.14477984137861
 31
0.0
  0
LINE
  5
A46
  8
0
 62
     0
 10
-8.8692118840101042
 20
162.4010298413786
 30
0.0
 11
-8.8692118840101042
 21
162.72063552611891
 31
0.0
  0
LINE
  5
A47
  8
0
 62
     0
 10
-8.8692118840101042
 20
160.01977984137861
 30
0.0
 11
-8.8692118840101042
 21
160.81352984137851
 31
0.0
  0
LINE
  5
A48
  8
0
 62
     0
 10
-8.8692118840101042
 20
157.63852984137861
 30
0.0
 11
-8.8692118840101042
 21
158.43227984137849
 31
0.0
  0
LINE
  5
A49
  8
0
 62
     0
 10
-8.8692118840101042
 20
155.25727984137859
 30
0.0
 11
-8.8692118840101042
 21
156.05102984137849
 31
0.0
  0
LINE
  5
A4A
  8
0
 62
     0
 10
-8.8692118840101042
 20
152.8760298413786
 30
0.0
 11
-8.8692118840101042
 21
153.66977984137861
 31
0.0
  0
LINE
  5
A4B
  8
0
 62
     0
 10
-8.8692118840101042
 20
150.4947798413786
 30
0.0
 11
-8.8692118840101042
 21
151.28852984137859
 31
0.0
  0
LINE
  5
A4C
  8
0
 62
     0
 10
-8.8692118840101042
 20
148.11352984137861
 30
0.0
 11
-8.8692118840101042
 21
148.9072798413786
 31
0.0
  0
LINE
  5
A4D
  8
0
 62
     0
 10
-8.8692118840101042
 20
145.73227984137861
 30
0.0
 11
-8.8692118840101042
 21
146.5260298413786
 31
0.0
  0
LINE
  5
A4E
  8
0
 62
     0
 10
-8.8692118840101042
 20
143.35102984137859
 30
0.0
 11
-8.8692118840101042
 21
144.14477984137861
 31
0.0
  0
LINE
  5
A4F
  8
0
 62
     0
 10
-10.244026884010101
 20
160.01977984137861
 30
0.0
 11
-10.244026884010101
 21
160.81352984137851
 31
0.0
  0
LINE
  5
A50
  8
0
 62
     0
 10
-10.244026884010101
 20
157.63852984137861
 30
0.0
 11
-10.244026884010101
 21
158.43227984137849
 31
0.0
  0
LINE
  5
A51
  8
0
 62
     0
 10
-10.244026884010101
 20
155.25727984137859
 30
0.0
 11
-10.244026884010101
 21
156.05102984137849
 31
0.0
  0
LINE
  5
A52
  8
0
 62
     0
 10
-10.244026884010101
 20
152.8760298413786
 30
0.0
 11
-10.244026884010101
 21
153.66977984137861
 31
0.0
  0
LINE
  5
A53
  8
0
 62
     0
 10
-10.244026884010101
 20
150.4947798413786
 30
0.0
 11
-10.244026884010101
 21
151.28852984137859
 31
0.0
  0
LINE
  5
A54
  8
0
 62
     0
 10
-10.244026884010101
 20
148.11352984137861
 30
0.0
 11
-10.244026884010101
 21
148.9072798413786
 31
0.0
  0
LINE
  5
A55
  8
0
 62
     0
 10
-10.244026884010101
 20
145.73227984137861
 30
0.0
 11
-10.244026884010101
 21
146.5260298413786
 31
0.0
  0
LINE
  5
A56
  8
0
 62
     0
 10
-10.244026884010101
 20
143.4004314156617
 30
0.0
 11
-10.244026884010101
 21
144.14477984137861
 31
0.0
  0
LINE
  5
A57
  8
0
 62
     0
 10
-11.6188418840101
 20
160.01977984137861
 30
0.0
 11
-11.6188418840101
 21
160.81352984137851
 31
0.0
  0
LINE
  5
A58
  8
0
 62
     0
 10
-11.6188418840101
 20
157.63852984137861
 30
0.0
 11
-11.6188418840101
 21
158.43227984137849
 31
0.0
  0
LINE
  5
A59
  8
0
 62
     0
 10
-11.6188418840101
 20
155.25727984137859
 30
0.0
 11
-11.6188418840101
 21
156.05102984137849
 31
0.0
  0
LINE
  5
A5A
  8
0
 62
     0
 10
-11.6188418840101
 20
152.8760298413786
 30
0.0
 11
-11.6188418840101
 21
153.66977984137861
 31
0.0
  0
LINE
  5
A5B
  8
0
 62
     0
 10
-11.6188418840101
 20
150.4947798413786
 30
0.0
 11
-11.6188418840101
 21
151.28852984137859
 31
0.0
  0
LINE
  5
A5C
  8
0
 62
     0
 10
-11.6188418840101
 20
148.11352984137861
 30
0.0
 11
-11.6188418840101
 21
148.9072798413786
 31
0.0
  0
LINE
  5
A5D
  8
0
 62
     0
 10
-11.6188418840101
 20
145.73227984137861
 30
0.0
 11
-11.6188418840101
 21
146.5260298413786
 31
0.0
  0
LINE
  5
A5E
  8
0
 62
     0
 10
-11.6188418840101
 20
143.9776687561446
 30
0.0
 11
-11.6188418840101
 21
144.14477984137861
 31
0.0
  0
LINE
  5
A5F
  8
0
 62
     0
 10
-12.9936568840101
 20
160.01977984137861
 30
0.0
 11
-12.9936568840101
 21
160.81352984137851
 31
0.0
  0
LINE
  5
A60
  8
0
 62
     0
 10
-12.9936568840101
 20
157.63852984137861
 30
0.0
 11
-12.9936568840101
 21
158.43227984137849
 31
0.0
  0
LINE
  5
A61
  8
0
 62
     0
 10
-12.9936568840101
 20
155.25727984137859
 30
0.0
 11
-12.9936568840101
 21
156.05102984137849
 31
0.0
  0
LINE
  5
A62
  8
0
 62
     0
 10
-12.9936568840101
 20
152.8760298413786
 30
0.0
 11
-12.9936568840101
 21
153.66977984137861
 31
0.0
  0
LINE
  5
A63
  8
0
 62
     0
 10
-12.9936568840101
 20
150.4947798413786
 30
0.0
 11
-12.9936568840101
 21
151.28852984137859
 31
0.0
  0
LINE
  5
A64
  8
0
 62
     0
 10
-12.9936568840101
 20
148.11352984137861
 30
0.0
 11
-12.9936568840101
 21
148.9072798413786
 31
0.0
  0
LINE
  5
A65
  8
0
 62
     0
 10
-12.9936568840101
 20
145.73227984137861
 30
0.0
 11
-12.9936568840101
 21
146.5260298413786
 31
0.0
  0
LINE
  5
A66
  8
0
 62
     0
 10
-14.368471884010111
 20
157.63852984137861
 30
0.0
 11
-14.368471884010111
 21
158.43227984137849
 31
0.0
  0
LINE
  5
A67
  8
0
 62
     0
 10
-14.368471884010111
 20
155.25727984137859
 30
0.0
 11
-14.368471884010111
 21
156.05102984137849
 31
0.0
  0
LINE
  5
A68
  8
0
 62
     0
 10
-14.368471884010111
 20
152.8760298413786
 30
0.0
 11
-14.368471884010111
 21
153.66977984137861
 31
0.0
  0
LINE
  5
A69
  8
0
 62
     0
 10
-14.368471884010111
 20
150.4947798413786
 30
0.0
 11
-14.368471884010111
 21
151.28852984137859
 31
0.0
  0
LINE
  5
A6A
  8
0
 62
     0
 10
-14.368471884010111
 20
148.11352984137861
 30
0.0
 11
-14.368471884010111
 21
148.9072798413786
 31
0.0
  0
LINE
  5
A6B
  8
0
 62
     0
 10
-14.368471884010111
 20
146.0465493377026
 30
0.0
 11
-14.368471884010111
 21
146.5260298413786
 31
0.0
  0
LINE
  5
A6C
  8
0
 62
     0
 10
-15.743286884010111
 20
157.63852984137861
 30
0.0
 11
-15.743286884010111
 21
157.86264581068011
 31
0.0
  0
LINE
  5
A6D
  8
0
 62
     0
 10
-15.743286884010111
 20
155.25727984137859
 30
0.0
 11
-15.743286884010111
 21
156.05102984137849
 31
0.0
  0
LINE
  5
A6E
  8
0
 62
     0
 10
-15.743286884010111
 20
152.8760298413786
 30
0.0
 11
-15.743286884010111
 21
153.66977984137861
 31
0.0
  0
LINE
  5
A6F
  8
0
 62
     0
 10
-15.743286884010111
 20
150.4947798413786
 30
0.0
 11
-15.743286884010111
 21
151.28852984137859
 31
0.0
  0
LINE
  5
A70
  8
0
 62
     0
 10
-15.743286884010111
 20
148.11352984137861
 30
0.0
 11
-15.743286884010111
 21
148.9072798413786
 31
0.0
  0
ENDBLK
  5
A72
  8
0
  0
BLOCK
  8
0
  2
*U40
 70
     1
 10
0.0
 20
0.0
 30
0.0
  3
*U40
  1

  0
TEXT
  5
BDD
  8
0
 62
     2
 10
519.44555345861374
 20
444.85263631951398
 30
0.0
 40
6.0
  1
100
 50
90.0
  7
BYGG-01482201$0$ISO
  0
ENDBLK
  5
BDF
  8
0
  0
BLOCK
  8
0
  2
*U41
 70
     1
 10
0.0
 20
0.0
 30
0.0
  3
*U41
  1

  0
TEXT
  5
BE1
  8
0
 62
     2
 10
551.65528576274187
 20
514.06440195840526
 30
0.0
 40
6.0
  1
50
  7
BYGG-01482201$0$ISO
  0
ENDBLK
  5
BE3
  8
0
  0
BLOCK
  8
0
  2
*U42
 70
     1
 10
0.0
 20
0.0
 30
0.0
  3
*U42
  1

  0
TEXT
  5
C5C
  8
0
 10
641.15247639990275
 20
316.63306531357932
 30
0.0
 40
3.0
  1
47.6
  7
BYGG-014357$0$ISO
  0
ENDBLK
  5
C5E
  8
0
  0
BLOCK
  8
0
  2
*U43
 70
     1
 10
0.0
 20
0.0
 30
0.0
  3
*U43
  1

  0
TEXT
  5
CB6
  8
0
 62
     2
 10
1.8600612505260341
 20
15.36917458955009
 30
0.0
 40
3.0
  1
18,5
 50
90.0
  7
BYGG-014279$0$ISO
  0
ENDBLK
  5
CB8
  8
0
  0
BLOCK
  8
0
  2
*U44
 70
     1
 10
0.0
 20
0.0
 30
0.0
  3
*U44
  1

  0
TEXT
  5
CBA
  8
0
 62
     2
 10
34.830704100513778
 20
1.248809543065921
 30
0.0
 40
3.0
  1
50
  7
BYGG-014279$0$ISO
  0
ENDBLK
  5
CBC
  8
0
  0
BLOCK
  8
0
  2
*X45
 70
     1
 10
0.0
 20
0.0
 30
0.0
  3
*X45
  1

  0
LINE
  5
D77
  8
0
 62
     0
 10
27.047475049077178
 20
2.7464027910031059
 30
0.0
 11
27.047475049077178
 21
2.7464027910031059
 31
0.0
  0
LINE
  5
D78
  8
0
 62
     0
 10
24.269350049077179
 20
2.7464027910031059
 30
0.0
 11
24.269350049077179
 21
2.7464027910031059
 31
0.0
  0
LINE
  5
D79
  8
0
 62
     0
 10
21.49122504907718
 20
2.7464027910031059
 30
0.0
 11
21.49122504907718
 21
2.7464027910031059
 31
0.0
  0
LINE
  5
D7A
  8
0
 62
     0
 10
18.71310004907718
 20
2.7464027910031059
 30
0.0
 11
18.71310004907718
 21
2.7464027910031059
 31
0.0
  0
LINE
  5
D7B
  8
0
 62
     0
 10
15.934975049077179
 20
2.7464027910031059
 30
0.0
 11
15.934975049077179
 21
2.7464027910031059
 31
0.0
  0
LINE
  5
D7C
  8
0
 62
     0
 10
38.159975049077147
 20
2.7464027910031059
 30
0.0
 11
38.159975049077147
 21
2.7464027910031059
 31
0.0
  0
LINE
  5
D7D
  8
0
 62
     0
 10
35.381850049077151
 20
2.7464027910031059
 30
0.0
 11
35.381850049077151
 21
2.7464027910031059
 31
0.0
  0
LINE
  5
D7E
  8
0
 62
     0
 10
32.603725049077148
 20
2.7464027910031059
 30
0.0
 11
32.603725049077148
 21
2.7464027910031059
 31
0.0
  0
LINE
  5
D7F
  8
0
 62
     0
 10
29.825600049077149
 20
2.7464027910031059
 30
0.0
 11
29.825600049077149
 21
2.7464027910031059
 31
0.0
  0
LINE
  5
D80
  8
0
 62
     0
 10
13.15685004907716
 20
2.7464027910031059
 30
0.0
 11
13.15685004907716
 21
2.7464027910031059
 31
0.0
  0
LINE
  5
D81
  8
0
 62
     0
 10
10.378725049077159
 20
2.7464027910031059
 30
0.0
 11
10.378725049077159
 21
2.7464027910031059
 31
0.0
  0
LINE
  5
D82
  8
0
 62
     0
 10
7.6006000490771646
 20
2.7464027910031059
 30
0.0
 11
7.6006000490771646
 21
2.7464027910031059
 31
0.0
  0
LINE
  5
D83
  8
0
 62
     0
 10
4.8224750490771662
 20
2.7464027910031059
 30
0.0
 11
4.8224750490771662
 21
2.7464027910031059
 31
0.0
  0
LINE
  5
D84
  8
0
 62
     0
 10
25.65841254907717
 20
5.5245277910030941
 30
0.0
 11
25.65841254907717
 21
5.5245277910030941
 31
0.0
  0
LINE
  5
D85
  8
0
 62
     0
 10
22.88028754907717
 20
5.5245277910030941
 30
0.0
 11
22.88028754907717
 21
5.5245277910030941
 31
0.0
  0
LINE
  5
D86
  8
0
 62
     0
 10
20.102162549077171
 20
5.5245277910030941
 30
0.0
 11
20.102162549077171
 21
5.5245277910030941
 31
0.0
  0
LINE
  5
D87
  8
0
 62
     0
 10
17.324037549077168
 20
5.5245277910030941
 30
0.0
 11
17.324037549077168
 21
5.5245277910030941
 31
0.0
  0
LINE
  5
D88
  8
0
 62
     0
 10
36.770912549077131
 20
5.5245277910030941
 30
0.0
 11
36.770912549077131
 21
5.5245277910030941
 31
0.0
  0
LINE
  5
D89
  8
0
 62
     0
 10
33.992787549077129
 20
5.5245277910030941
 30
0.0
 11
33.992787549077129
 21
5.5245277910030941
 31
0.0
  0
LINE
  5
D8A
  8
0
 62
     0
 10
31.214662549077129
 20
5.5245277910030941
 30
0.0
 11
31.214662549077129
 21
5.5245277910030941
 31
0.0
  0
LINE
  5
D8B
  8
0
 62
     0
 10
28.43653754907713
 20
5.5245277910030941
 30
0.0
 11
28.43653754907713
 21
5.5245277910030941
 31
0.0
  0
LINE
  5
D8C
  8
0
 62
     0
 10
14.54591254907716
 20
5.5245277910030941
 30
0.0
 11
14.54591254907716
 21
5.5245277910030941
 31
0.0
  0
LINE
  5
D8D
  8
0
 62
     0
 10
11.767787549077161
 20
5.5245277910030941
 30
0.0
 11
11.767787549077161
 21
5.5245277910030941
 31
0.0
  0
LINE
  5
D8E
  8
0
 62
     0
 10
8.9896625490771598
 20
5.5245277910030941
 30
0.0
 11
8.9896625490771598
 21
5.5245277910030941
 31
0.0
  0
LINE
  5
D8F
  8
0
 62
     0
 10
6.2115375490771596
 20
5.5245277910030941
 30
0.0
 11
6.2115375490771596
 21
5.5245277910030941
 31
0.0
  0
LINE
  5
D90
  8
0
 62
     0
 10
27.04747504907715
 20
8.3026527910030836
 30
0.0
 11
27.04747504907715
 21
8.3026527910030836
 31
0.0
  0
LINE
  5
D91
  8
0
 62
     0
 10
24.269350049077151
 20
8.3026527910030836
 30
0.0
 11
24.269350049077151
 21
8.3026527910030836
 31
0.0
  0
LINE
  5
D92
  8
0
 62
     0
 10
21.491225049077151
 20
8.3026527910030836
 30
0.0
 11
21.491225049077151
 21
8.3026527910030836
 31
0.0
  0
LINE
  5
D93
  8
0
 62
     0
 10
18.713100049077148
 20
8.3026527910030836
 30
0.0
 11
18.713100049077148
 21
8.3026527910030836
 31
0.0
  0
LINE
  5
D94
  8
0
 62
     0
 10
15.934975049077149
 20
8.3026527910030836
 30
0.0
 11
15.934975049077149
 21
8.3026527910030836
 31
0.0
  0
LINE
  5
D95
  8
0
 62
     0
 10
38.159975049077147
 20
8.3026527910030836
 30
0.0
 11
38.159975049077147
 21
8.3026527910030836
 31
0.0
  0
LINE
  5
D96
  8
0
 62
     0
 10
35.381850049077151
 20
8.3026527910030836
 30
0.0
 11
35.381850049077151
 21
8.3026527910030836
 31
0.0
  0
LINE
  5
D97
  8
0
 62
     0
 10
32.603725049077148
 20
8.3026527910030836
 30
0.0
 11
32.603725049077148
 21
8.3026527910030836
 31
0.0
  0
LINE
  5
D98
  8
0
 62
     0
 10
29.825600049077149
 20
8.3026527910030836
 30
0.0
 11
29.825600049077149
 21
8.3026527910030836
 31
0.0
  0
LINE
  5
D99
  8
0
 62
     0
 10
13.15685004907716
 20
8.3026527910030836
 30
0.0
 11
13.15685004907716
 21
8.3026527910030836
 31
0.0
  0
LINE
  5
D9A
  8
0
 62
     0
 10
10.378725049077159
 20
8.3026527910030836
 30
0.0
 11
10.378725049077159
 21
8.3026527910030836
 31
0.0
  0
LINE
  5
D9B
  8
0
 62
     0
 10
7.6006000490771646
 20
8.3026527910030836
 30
0.0
 11
7.6006000490771646
 21
8.3026527910030836
 31
0.0
  0
LINE
  5
D9C
  8
0
 62
     0
 10
4.8224750490771662
 20
8.3026527910030836
 30
0.0
 11
4.8224750490771662
 21
8.3026527910030836
 31
0.0
  0
LINE
  5
D9D
  8
0
 62
     0
 10
25.658412549077141
 20
11.08077779100307
 30
0.0
 11
25.658412549077141
 21
11.08077779100307
 31
0.0
  0
LINE
  5
D9E
  8
0
 62
     0
 10
22.880287549077138
 20
11.08077779100307
 30
0.0
 11
22.880287549077138
 21
11.08077779100307
 31
0.0
  0
LINE
  5
D9F
  8
0
 62
     0
 10
20.102162549077139
 20
11.08077779100307
 30
0.0
 11
20.102162549077139
 21
11.08077779100307
 31
0.0
  0
LINE
  5
DA0
  8
0
 62
     0
 10
17.32403754907714
 20
11.08077779100307
 30
0.0
 11
17.32403754907714
 21
11.08077779100307
 31
0.0
  0
LINE
  5
DA1
  8
0
 62
     0
 10
36.770912549077188
 20
11.08077779100307
 30
0.0
 11
36.770912549077188
 21
11.08077779100307
 31
0.0
  0
LINE
  5
DA2
  8
0
 62
     0
 10
33.992787549077192
 20
11.08077779100307
 30
0.0
 11
33.992787549077192
 21
11.08077779100307
 31
0.0
  0
LINE
  5
DA3
  8
0
 62
     0
 10
31.214662549077179
 20
11.08077779100307
 30
0.0
 11
31.214662549077179
 21
11.08077779100307
 31
0.0
  0
LINE
  5
DA4
  8
0
 62
     0
 10
28.43653754907718
 20
11.08077779100307
 30
0.0
 11
28.43653754907718
 21
11.08077779100307
 31
0.0
  0
LINE
  5
DA5
  8
0
 62
     0
 10
14.54591254907716
 20
11.08077779100307
 30
0.0
 11
14.54591254907716
 21
11.08077779100307
 31
0.0
  0
LINE
  5
DA6
  8
0
 62
     0
 10
11.767787549077161
 20
11.08077779100307
 30
0.0
 11
11.767787549077161
 21
11.08077779100307
 31
0.0
  0
LINE
  5
DA7
  8
0
 62
     0
 10
8.9896625490771598
 20
11.08077779100307
 30
0.0
 11
8.9896625490771598
 21
11.08077779100307
 31
0.0
  0
LINE
  5
DA8
  8
0
 62
     0
 10
6.2115375490771596
 20
11.08077779100307
 30
0.0
 11
6.2115375490771596
 21
11.08077779100307
 31
0.0
  0
LINE
  5
DA9
  8
0
 62
     0
 10
27.04747504907715
 20
13.858902791003061
 30
0.0
 11
27.04747504907715
 21
13.858902791003061
 31
0.0
  0
LINE
  5
DAA
  8
0
 62
     0
 10
24.269350049077151
 20
13.858902791003061
 30
0.0
 11
24.269350049077151
 21
13.858902791003061
 31
0.0
  0
LINE
  5
DAB
  8
0
 62
     0
 10
21.491225049077151
 20
13.858902791003061
 30
0.0
 11
21.491225049077151
 21
13.858902791003061
 31
0.0
  0
LINE
  5
DAC
  8
0
 62
     0
 10
18.713100049077148
 20
13.858902791003061
 30
0.0
 11
18.713100049077148
 21
13.858902791003061
 31
0.0
  0
LINE
  5
DAD
  8
0
 62
     0
 10
15.934975049077149
 20
13.858902791003061
 30
0.0
 11
15.934975049077149
 21
13.858902791003061
 31
0.0
  0
LINE
  5
DAE
  8
0
 62
     0
 10
40.93810004907715
 20
13.858902791003061
 30
0.0
 11
40.93810004907715
 21
13.858902791003061
 31
0.0
  0
LINE
  5
DAF
  8
0
 62
     0
 10
38.159975049077147
 20
13.858902791003061
 30
0.0
 11
38.159975049077147
 21
13.858902791003061
 31
0.0
  0
LINE
  5
DB0
  8
0
 62
     0
 10
35.381850049077151
 20
13.858902791003061
 30
0.0
 11
35.381850049077151
 21
13.858902791003061
 31
0.0
  0
LINE
  5
DB1
  8
0
 62
     0
 10
32.603725049077148
 20
13.858902791003061
 30
0.0
 11
32.603725049077148
 21
13.858902791003061
 31
0.0
  0
LINE
  5
DB2
  8
0
 62
     0
 10
29.825600049077149
 20
13.858902791003061
 30
0.0
 11
29.825600049077149
 21
13.858902791003061
 31
0.0
  0
LINE
  5
DB3
  8
0
 62
     0
 10
13.15685004907715
 20
13.858902791003061
 30
0.0
 11
13.15685004907715
 21
13.858902791003061
 31
0.0
  0
LINE
  5
DB4
  8
0
 62
     0
 10
10.378725049077151
 20
13.858902791003061
 30
0.0
 11
10.378725049077151
 21
13.858902791003061
 31
0.0
  0
LINE
  5
DB5
  8
0
 62
     0
 10
7.6006000490771486
 20
13.858902791003061
 30
0.0
 11
7.6006000490771486
 21
13.858902791003061
 31
0.0
  0
LINE
  5
DB6
  8
0
 62
     0
 10
4.8224750490771493
 20
13.858902791003061
 30
0.0
 11
4.8224750490771493
 21
13.858902791003061
 31
0.0
  0
LINE
  5
DB7
  8
0
 62
     0
 10
2.0443500490771491
 20
13.858902791003061
 30
0.0
 11
2.0443500490771491
 21
13.858902791003061
 31
0.0
  0
LINE
  5
DB8
  8
0
 62
     0
 10
25.65841254907717
 20
16.637027791003099
 30
0.0
 11
25.65841254907717
 21
16.637027791003099
 31
0.0
  0
LINE
  5
DB9
  8
0
 62
     0
 10
22.88028754907717
 20
16.637027791003099
 30
0.0
 11
22.88028754907717
 21
16.637027791003099
 31
0.0
  0
LINE
  5
DBA
  8
0
 62
     0
 10
20.102162549077171
 20
16.637027791003099
 30
0.0
 11
20.102162549077171
 21
16.637027791003099
 31
0.0
  0
LINE
  5
DBB
  8
0
 62
     0
 10
17.324037549077168
 20
16.637027791003099
 30
0.0
 11
17.324037549077168
 21
16.637027791003099
 31
0.0
  0
LINE
  5
DBC
  8
0
 62
     0
 10
42.327162549077187
 20
16.637027791003099
 30
0.0
 11
42.327162549077187
 21
16.637027791003099
 31
0.0
  0
LINE
  5
DBD
  8
0
 62
     0
 10
39.549037549077191
 20
16.637027791003099
 30
0.0
 11
39.549037549077191
 21
16.637027791003099
 31
0.0
  0
LINE
  5
DBE
  8
0
 62
     0
 10
36.770912549077188
 20
16.637027791003099
 30
0.0
 11
36.770912549077188
 21
16.637027791003099
 31
0.0
  0
LINE
  5
DBF
  8
0
 62
     0
 10
33.992787549077192
 20
16.637027791003099
 30
0.0
 11
33.992787549077192
 21
16.637027791003099
 31
0.0
  0
LINE
  5
DC0
  8
0
 62
     0
 10
31.214662549077179
 20
16.637027791003099
 30
0.0
 11
31.214662549077179
 21
16.637027791003099
 31
0.0
  0
LINE
  5
DC1
  8
0
 62
     0
 10
28.43653754907718
 20
16.637027791003099
 30
0.0
 11
28.43653754907718
 21
16.637027791003099
 31
0.0
  0
LINE
  5
DC2
  8
0
 62
     0
 10
14.54591254907718
 20
16.637027791003099
 30
0.0
 11
14.54591254907718
 21
16.637027791003099
 31
0.0
  0
LINE
  5
DC3
  8
0
 62
     0
 10
11.76778754907718
 20
16.637027791003099
 30
0.0
 11
11.76778754907718
 21
16.637027791003099
 31
0.0
  0
LINE
  5
DC4
  8
0
 62
     0
 10
8.9896625490771829
 20
16.637027791003099
 30
0.0
 11
8.9896625490771829
 21
16.637027791003099
 31
0.0
  0
LINE
  5
DC5
  8
0
 62
     0
 10
6.2115375490771827
 20
16.637027791003099
 30
0.0
 11
6.2115375490771827
 21
16.637027791003099
 31
0.0
  0
LINE
  5
DC6
  8
0
 62
     0
 10
3.433412549077183
 20
16.637027791003099
 30
0.0
 11
3.433412549077183
 21
16.637027791003099
 31
0.0
  0
LINE
  5
DC7
  8
0
 62
     0
 10
0.6552875490771837
 20
16.637027791003099
 30
0.0
 11
0.6552875490771837
 21
16.637027791003099
 31
0.0
  0
LINE
  5
DC8
  8
0
 62
     0
 10
27.047475049077178
 20
19.415152791003091
 30
0.0
 11
27.047475049077178
 21
19.415152791003091
 31
0.0
  0
LINE
  5
DC9
  8
0
 62
     0
 10
24.269350049077179
 20
19.415152791003091
 30
0.0
 11
24.269350049077179
 21
19.415152791003091
 31
0.0
  0
LINE
  5
DCA
  8
0
 62
     0
 10
21.49122504907718
 20
19.415152791003091
 30
0.0
 11
21.49122504907718
 21
19.415152791003091
 31
0.0
  0
LINE
  5
DCB
  8
0
 62
     0
 10
18.71310004907718
 20
19.415152791003091
 30
0.0
 11
18.71310004907718
 21
19.415152791003091
 31
0.0
  0
LINE
  5
DCC
  8
0
 62
     0
 10
15.934975049077179
 20
19.415152791003091
 30
0.0
 11
15.934975049077179
 21
19.415152791003091
 31
0.0
  0
LINE
  5
DCD
  8
0
 62
     0
 10
40.938100049077192
 20
19.415152791003091
 30
0.0
 11
40.938100049077192
 21
19.415152791003091
 31
0.0
  0
LINE
  5
DCE
  8
0
 62
     0
 10
38.159975049077183
 20
19.415152791003091
 30
0.0
 11
38.159975049077183
 21
19.415152791003091
 31
0.0
  0
LINE
  5
DCF
  8
0
 62
     0
 10
35.38185004907718
 20
19.415152791003091
 30
0.0
 11
35.38185004907718
 21
19.415152791003091
 31
0.0
  0
LINE
  5
DD0
  8
0
 62
     0
 10
32.603725049077177
 20
19.415152791003091
 30
0.0
 11
32.603725049077177
 21
19.415152791003091
 31
0.0
  0
LINE
  5
DD1
  8
0
 62
     0
 10
29.825600049077181
 20
19.415152791003091
 30
0.0
 11
29.825600049077181
 21
19.415152791003091
 31
0.0
  0
LINE
  5
DD2
  8
0
 62
     0
 10
13.15685004907718
 20
19.415152791003091
 30
0.0
 11
13.15685004907718
 21
19.415152791003091
 31
0.0
  0
LINE
  5
DD3
  8
0
 62
     0
 10
10.37872504907717
 20
19.415152791003091
 30
0.0
 11
10.37872504907717
 21
19.415152791003091
 31
0.0
  0
LINE
  5
DD4
  8
0
 62
     0
 10
7.600600049077177
 20
19.415152791003091
 30
0.0
 11
7.600600049077177
 21
19.415152791003091
 31
0.0
  0
LINE
  5
DD5
  8
0
 62
     0
 10
4.8224750490771768
 20
19.415152791003091
 30
0.0
 11
4.8224750490771768
 21
19.415152791003091
 31
0.0
  0
LINE
  5
DD6
  8
0
 62
     0
 10
2.0443500490771771
 20
19.415152791003091
 30
0.0
 11
2.0443500490771771
 21
19.415152791003091
 31
0.0
  0
LINE
  5
DD7
  8
0
 62
     0
 10
25.65841254907717
 20
22.19327779100308
 30
0.0
 11
25.65841254907717
 21
22.19327779100308
 31
0.0
  0
LINE
  5
DD8
  8
0
 62
     0
 10
22.88028754907717
 20
22.19327779100308
 30
0.0
 11
22.88028754907717
 21
22.19327779100308
 31
0.0
  0
LINE
  5
DD9
  8
0
 62
     0
 10
20.102162549077171
 20
22.19327779100308
 30
0.0
 11
20.102162549077171
 21
22.19327779100308
 31
0.0
  0
LINE
  5
DDA
  8
0
 62
     0
 10
17.324037549077168
 20
22.19327779100308
 30
0.0
 11
17.324037549077168
 21
22.19327779100308
 31
0.0
  0
LINE
  5
DDB
  8
0
 62
     0
 10
42.327162549077173
 20
22.19327779100308
 30
0.0
 11
42.327162549077173
 21
22.19327779100308
 31
0.0
  0
LINE
  5
DDC
  8
0
 62
     0
 10
39.549037549077163
 20
22.19327779100308
 30
0.0
 11
39.549037549077163
 21
22.19327779100308
 31
0.0
  0
LINE
  5
DDD
  8
0
 62
     0
 10
36.77091254907716
 20
22.19327779100308
 30
0.0
 11
36.77091254907716
 21
22.19327779100308
 31
0.0
  0
LINE
  5
DDE
  8
0
 62
     0
 10
33.992787549077157
 20
22.19327779100308
 30
0.0
 11
33.992787549077157
 21
22.19327779100308
 31
0.0
  0
LINE
  5
DDF
  8
0
 62
     0
 10
31.214662549077161
 20
22.19327779100308
 30
0.0
 11
31.214662549077161
 21
22.19327779100308
 31
0.0
  0
LINE
  5
DE0
  8
0
 62
     0
 10
28.436537549077158
 20
22.19327779100308
 30
0.0
 11
28.436537549077158
 21
22.19327779100308
 31
0.0
  0
LINE
  5
DE1
  8
0
 62
     0
 10
14.545912549077149
 20
22.19327779100308
 30
0.0
 11
14.545912549077149
 21
22.19327779100308
 31
0.0
  0
LINE
  5
DE2
  8
0
 62
     0
 10
11.76778754907715
 20
22.19327779100308
 30
0.0
 11
11.76778754907715
 21
22.19327779100308
 31
0.0
  0
LINE
  5
DE3
  8
0
 62
     0
 10
8.9896625490771545
 20
22.19327779100308
 30
0.0
 11
8.9896625490771545
 21
22.19327779100308
 31
0.0
  0
LINE
  5
DE4
  8
0
 62
     0
 10
6.2115375490771552
 20
22.19327779100308
 30
0.0
 11
6.2115375490771552
 21
22.19327779100308
 31
0.0
  0
LINE
  5
DE5
  8
0
 62
     0
 10
3.4334125490771541
 20
22.19327779100308
 30
0.0
 11
3.4334125490771541
 21
22.19327779100308
 31
0.0
  0
LINE
  5
DE6
  8
0
 62
     0
 10
0.6552875490771553
 20
22.19327779100308
 30
0.0
 11
0.6552875490771553
 21
22.19327779100308
 31
0.0
  0
LINE
  5
DE7
  8
0
 62
     0
 10
27.04747504907715
 20
24.971402791003069
 30
0.0
 11
27.04747504907715
 21
24.971402791003069
 31
0.0
  0
LINE
  5
DE8
  8
0
 62
     0
 10
24.269350049077151
 20
24.971402791003069
 30
0.0
 11
24.269350049077151
 21
24.971402791003069
 31
0.0
  0
LINE
  5
DE9
  8
0
 62
     0
 10
21.491225049077151
 20
24.971402791003069
 30
0.0
 11
21.491225049077151
 21
24.971402791003069
 31
0.0
  0
LINE
  5
DEA
  8
0
 62
     0
 10
18.713100049077148
 20
24.971402791003069
 30
0.0
 11
18.713100049077148
 21
24.971402791003069
 31
0.0
  0
LINE
  5
DEB
  8
0
 62
     0
 10
15.934975049077149
 20
24.971402791003069
 30
0.0
 11
15.934975049077149
 21
24.971402791003069
 31
0.0
  0
LINE
  5
DEC
  8
0
 62
     0
 10
40.93810004907715
 20
24.971402791003069
 30
0.0
 11
40.93810004907715
 21
24.971402791003069
 31
0.0
  0
LINE
  5
DED
  8
0
 62
     0
 10
38.159975049077147
 20
24.971402791003069
 30
0.0
 11
38.159975049077147
 21
24.971402791003069
 31
0.0
  0
LINE
  5
DEE
  8
0
 62
     0
 10
35.381850049077151
 20
24.971402791003069
 30
0.0
 11
35.381850049077151
 21
24.971402791003069
 31
0.0
  0
LINE
  5
DEF
  8
0
 62
     0
 10
32.603725049077148
 20
24.971402791003069
 30
0.0
 11
32.603725049077148
 21
24.971402791003069
 31
0.0
  0
LINE
  5
DF0
  8
0
 62
     0
 10
29.825600049077149
 20
24.971402791003069
 30
0.0
 11
29.825600049077149
 21
24.971402791003069
 31
0.0
  0
LINE
  5
DF1
  8
0
 62
     0
 10
13.15685004907715
 20
24.971402791003069
 30
0.0
 11
13.15685004907715
 21
24.971402791003069
 31
0.0
  0
LINE
  5
DF2
  8
0
 62
     0
 10
10.378725049077151
 20
24.971402791003069
 30
0.0
 11
10.378725049077151
 21
24.971402791003069
 31
0.0
  0
LINE
  5
DF3
  8
0
 62
     0
 10
7.6006000490771486
 20
24.971402791003069
 30
0.0
 11
7.6006000490771486
 21
24.971402791003069
 31
0.0
  0
LINE
  5
DF4
  8
0
 62
     0
 10
4.8224750490771493
 20
24.971402791003069
 30
0.0
 11
4.8224750490771493
 21
24.971402791003069
 31
0.0
  0
LINE
  5
DF5
  8
0
 62
     0
 10
2.0443500490771491
 20
24.971402791003069
 30
0.0
 11
2.0443500490771491
 21
24.971402791003069
 31
0.0
  0
LINE
  5
DF6
  8
0
 62
     0
 10
25.658412549077141
 20
27.749527791003061
 30
0.0
 11
25.658412549077141
 21
27.749527791003061
 31
0.0
  0
LINE
  5
DF7
  8
0
 62
     0
 10
22.880287549077138
 20
27.749527791003061
 30
0.0
 11
22.880287549077138
 21
27.749527791003061
 31
0.0
  0
LINE
  5
DF8
  8
0
 62
     0
 10
20.102162549077139
 20
27.749527791003061
 30
0.0
 11
20.102162549077139
 21
27.749527791003061
 31
0.0
  0
LINE
  5
DF9
  8
0
 62
     0
 10
17.32403754907714
 20
27.749527791003061
 30
0.0
 11
17.32403754907714
 21
27.749527791003061
 31
0.0
  0
LINE
  5
DFA
  8
0
 62
     0
 10
42.327162549077173
 20
27.749527791003061
 30
0.0
 11
42.327162549077173
 21
27.749527791003061
 31
0.0
  0
LINE
  5
DFB
  8
0
 62
     0
 10
39.549037549077163
 20
27.749527791003061
 30
0.0
 11
39.549037549077163
 21
27.749527791003061
 31
0.0
  0
LINE
  5
DFC
  8
0
 62
     0
 10
36.77091254907716
 20
27.749527791003061
 30
0.0
 11
36.77091254907716
 21
27.749527791003061
 31
0.0
  0
LINE
  5
DFD
  8
0
 62
     0
 10
33.992787549077157
 20
27.749527791003061
 30
0.0
 11
33.992787549077157
 21
27.749527791003061
 31
0.0
  0
LINE
  5
DFE
  8
0
 62
     0
 10
31.214662549077161
 20
27.749527791003061
 30
0.0
 11
31.214662549077161
 21
27.749527791003061
 31
0.0
  0
LINE
  5
DFF
  8
0
 62
     0
 10
28.436537549077158
 20
27.749527791003061
 30
0.0
 11
28.436537549077158
 21
27.749527791003061
 31
0.0
  0
LINE
  5
E00
  8
0
 62
     0
 10
14.545912549077149
 20
27.749527791003061
 30
0.0
 11
14.545912549077149
 21
27.749527791003061
 31
0.0
  0
LINE
  5
E01
  8
0
 62
     0
 10
11.76778754907715
 20
27.749527791003061
 30
0.0
 11
11.76778754907715
 21
27.749527791003061
 31
0.0
  0
LINE
  5
E02
  8
0
 62
     0
 10
8.9896625490771545
 20
27.749527791003061
 30
0.0
 11
8.9896625490771545
 21
27.749527791003061
 31
0.0
  0
LINE
  5
E03
  8
0
 62
     0
 10
6.2115375490771552
 20
27.749527791003061
 30
0.0
 11
6.2115375490771552
 21
27.749527791003061
 31
0.0
  0
LINE
  5
E04
  8
0
 62
     0
 10
3.4334125490771541
 20
27.749527791003061
 30
0.0
 11
3.4334125490771541
 21
27.749527791003061
 31
0.0
  0
LINE
  5
E05
  8
0
 62
     0
 10
0.6552875490771553
 20
27.749527791003061
 30
0.0
 11
0.6552875490771553
 21
27.749527791003061
 31
0.0
  0
LINE
  5
E06
  8
0
 62
     0
 10
27.047475049077178
 20
30.52765279100311
 30
0.0
 11
27.047475049077178
 21
30.52765279100311
 31
0.0
  0
LINE
  5
E07
  8
0
 62
     0
 10
24.269350049077179
 20
30.52765279100311
 30
0.0
 11
24.269350049077179
 21
30.52765279100311
 31
0.0
  0
LINE
  5
E08
  8
0
 62
     0
 10
21.49122504907718
 20
30.52765279100311
 30
0.0
 11
21.49122504907718
 21
30.52765279100311
 31
0.0
  0
LINE
  5
E09
  8
0
 62
     0
 10
18.71310004907718
 20
30.52765279100311
 30
0.0
 11
18.71310004907718
 21
30.52765279100311
 31
0.0
  0
LINE
  5
E0A
  8
0
 62
     0
 10
15.934975049077179
 20
30.52765279100311
 30
0.0
 11
15.934975049077179
 21
30.52765279100311
 31
0.0
  0
LINE
  5
E0B
  8
0
 62
     0
 10
40.938100049077192
 20
30.52765279100311
 30
0.0
 11
40.938100049077192
 21
30.52765279100311
 31
0.0
  0
LINE
  5
E0C
  8
0
 62
     0
 10
38.159975049077183
 20
30.52765279100311
 30
0.0
 11
38.159975049077183
 21
30.52765279100311
 31
0.0
  0
LINE
  5
E0D
  8
0
 62
     0
 10
35.38185004907718
 20
30.52765279100311
 30
0.0
 11
35.38185004907718
 21
30.52765279100311
 31
0.0
  0
LINE
  5
E0E
  8
0
 62
     0
 10
32.603725049077177
 20
30.52765279100311
 30
0.0
 11
32.603725049077177
 21
30.52765279100311
 31
0.0
  0
LINE
  5
E0F
  8
0
 62
     0
 10
29.825600049077181
 20
30.52765279100311
 30
0.0
 11
29.825600049077181
 21
30.52765279100311
 31
0.0
  0
LINE
  5
E10
  8
0
 62
     0
 10
13.15685004907718
 20
30.52765279100311
 30
0.0
 11
13.15685004907718
 21
30.52765279100311
 31
0.0
  0
LINE
  5
E11
  8
0
 62
     0
 10
10.37872504907717
 20
30.52765279100311
 30
0.0
 11
10.37872504907717
 21
30.52765279100311
 31
0.0
  0
LINE
  5
E12
  8
0
 62
     0
 10
7.600600049077177
 20
30.52765279100311
 30
0.0
 11
7.600600049077177
 21
30.52765279100311
 31
0.0
  0
LINE
  5
E13
  8
0
 62
     0
 10
4.8224750490771768
 20
30.52765279100311
 30
0.0
 11
4.8224750490771768
 21
30.52765279100311
 31
0.0
  0
LINE
  5
E14
  8
0
 62
     0
 10
2.0443500490771771
 20
30.52765279100311
 30
0.0
 11
2.0443500490771771
 21
30.52765279100311
 31
0.0
  0
LINE
  5
E15
  8
0
 62
     0
 10
25.65841254907717
 20
33.305777791003088
 30
0.0
 11
25.65841254907717
 21
33.305777791003088
 31
0.0
  0
LINE
  5
E16
  8
0
 62
     0
 10
22.88028754907717
 20
33.305777791003088
 30
0.0
 11
22.88028754907717
 21
33.305777791003088
 31
0.0
  0
LINE
  5
E17
  8
0
 62
     0
 10
20.102162549077171
 20
33.305777791003088
 30
0.0
 11
20.102162549077171
 21
33.305777791003088
 31
0.0
  0
LINE
  5
E18
  8
0
 62
     0
 10
17.324037549077168
 20
33.305777791003088
 30
0.0
 11
17.324037549077168
 21
33.305777791003088
 31
0.0
  0
LINE
  5
E19
  8
0
 62
     0
 10
42.327162549077173
 20
33.305777791003088
 30
0.0
 11
42.327162549077173
 21
33.305777791003088
 31
0.0
  0
LINE
  5
E1A
  8
0
 62
     0
 10
39.549037549077163
 20
33.305777791003088
 30
0.0
 11
39.549037549077163
 21
33.305777791003088
 31
0.0
  0
LINE
  5
E1B
  8
0
 62
     0
 10
36.77091254907716
 20
33.305777791003088
 30
0.0
 11
36.77091254907716
 21
33.305777791003088
 31
0.0
  0
LINE
  5
E1C
  8
0
 62
     0
 10
33.992787549077157
 20
33.305777791003088
 30
0.0
 11
33.992787549077157
 21
33.305777791003088
 31
0.0
  0
LINE
  5
E1D
  8
0
 62
     0
 10
31.214662549077161
 20
33.305777791003088
 30
0.0
 11
31.214662549077161
 21
33.305777791003088
 31
0.0
  0
LINE
  5
E1E
  8
0
 62
     0
 10
28.436537549077158
 20
33.305777791003088
 30
0.0
 11
28.436537549077158
 21
33.305777791003088
 31
0.0
  0
LINE
  5
E1F
  8
0
 62
     0
 10
14.545912549077149
 20
33.305777791003088
 30
0.0
 11
14.545912549077149
 21
33.305777791003088
 31
0.0
  0
LINE
  5
E20
  8
0
 62
     0
 10
11.76778754907715
 20
33.305777791003088
 30
0.0
 11
11.76778754907715
 21
33.305777791003088
 31
0.0
  0
LINE
  5
E21
  8
0
 62
     0
 10
8.9896625490771545
 20
33.305777791003088
 30
0.0
 11
8.9896625490771545
 21
33.305777791003088
 31
0.0
  0
LINE
  5
E22
  8
0
 62
     0
 10
6.2115375490771552
 20
33.305777791003088
 30
0.0
 11
6.2115375490771552
 21
33.305777791003088
 31
0.0
  0
LINE
  5
E23
  8
0
 62
     0
 10
3.4334125490771541
 20
33.305777791003088
 30
0.0
 11
3.4334125490771541
 21
33.305777791003088
 31
0.0
  0
LINE
  5
E24
  8
0
 62
     0
 10
0.6552875490771553
 20
33.305777791003088
 30
0.0
 11
0.6552875490771553
 21
33.305777791003088
 31
0.0
  0
LINE
  5
E25
  8
0
 62
     0
 10
27.04747504907715
 20
36.083902791003091
 30
0.0
 11
27.04747504907715
 21
36.083902791003091
 31
0.0
  0
LINE
  5
E26
  8
0
 62
     0
 10
24.269350049077151
 20
36.083902791003091
 30
0.0
 11
24.269350049077151
 21
36.083902791003091
 31
0.0
  0
LINE
  5
E27
  8
0
 62
     0
 10
21.491225049077151
 20
36.083902791003091
 30
0.0
 11
21.491225049077151
 21
36.083902791003091
 31
0.0
  0
LINE
  5
E28
  8
0
 62
     0
 10
18.713100049077148
 20
36.083902791003091
 30
0.0
 11
18.713100049077148
 21
36.083902791003091
 31
0.0
  0
LINE
  5
E29
  8
0
 62
     0
 10
15.934975049077149
 20
36.083902791003091
 30
0.0
 11
15.934975049077149
 21
36.083902791003091
 31
0.0
  0
LINE
  5
E2A
  8
0
 62
     0
 10
40.93810004907715
 20
36.083902791003091
 30
0.0
 11
40.93810004907715
 21
36.083902791003091
 31
0.0
  0
LINE
  5
E2B
  8
0
 62
     0
 10
38.159975049077147
 20
36.083902791003091
 30
0.0
 11
38.159975049077147
 21
36.083902791003091
 31
0.0
  0
LINE
  5
E2C
  8
0
 62
     0
 10
35.381850049077151
 20
36.083902791003091
 30
0.0
 11
35.381850049077151
 21
36.083902791003091
 31
0.0
  0
LINE
  5
E2D
  8
0
 62
     0
 10
32.603725049077148
 20
36.083902791003091
 30
0.0
 11
32.603725049077148
 21
36.083902791003091
 31
0.0
  0
LINE
  5
E2E
  8
0
 62
     0
 10
29.825600049077149
 20
36.083902791003091
 30
0.0
 11
29.825600049077149
 21
36.083902791003091
 31
0.0
  0
LINE
  5
E2F
  8
0
 62
     0
 10
13.15685004907715
 20
36.083902791003091
 30
0.0
 11
13.15685004907715
 21
36.083902791003091
 31
0.0
  0
LINE
  5
E30
  8
0
 62
     0
 10
10.378725049077151
 20
36.083902791003091
 30
0.0
 11
10.378725049077151
 21
36.083902791003091
 31
0.0
  0
LINE
  5
E31
  8
0
 62
     0
 10
7.6006000490771486
 20
36.083902791003091
 30
0.0
 11
7.6006000490771486
 21
36.083902791003091
 31
0.0
  0
LINE
  5
E32
  8
0
 62
     0
 10
4.8224750490771493
 20
36.083902791003091
 30
0.0
 11
4.8224750490771493
 21
36.083902791003091
 31
0.0
  0
LINE
  5
E33
  8
0
 62
     0
 10
2.0443500490771491
 20
36.083902791003091
 30
0.0
 11
2.0443500490771491
 21
36.083902791003091
 31
0.0
  0
LINE
  5
E34
  8
0
 62
     0
 10
25.658412549077141
 20
38.862027791003072
 30
0.0
 11
25.658412549077141
 21
38.862027791003072
 31
0.0
  0
LINE
  5
E35
  8
0
 62
     0
 10
22.880287549077138
 20
38.862027791003072
 30
0.0
 11
22.880287549077138
 21
38.862027791003072
 31
0.0
  0
LINE
  5
E36
  8
0
 62
     0
 10
20.102162549077139
 20
38.862027791003072
 30
0.0
 11
20.102162549077139
 21
38.862027791003072
 31
0.0
  0
LINE
  5
E37
  8
0
 62
     0
 10
17.32403754907714
 20
38.862027791003072
 30
0.0
 11
17.32403754907714
 21
38.862027791003072
 31
0.0
  0
LINE
  5
E38
  8
0
 62
     0
 10
42.327162549077173
 20
38.862027791003072
 30
0.0
 11
42.327162549077173
 21
38.862027791003072
 31
0.0
  0
LINE
  5
E39
  8
0
 62
     0
 10
39.549037549077163
 20
38.862027791003072
 30
0.0
 11
39.549037549077163
 21
38.862027791003072
 31
0.0
  0
LINE
  5
E3A
  8
0
 62
     0
 10
36.77091254907716
 20
38.862027791003072
 30
0.0
 11
36.77091254907716
 21
38.862027791003072
 31
0.0
  0
LINE
  5
E3B
  8
0
 62
     0
 10
33.992787549077157
 20
38.862027791003072
 30
0.0
 11
33.992787549077157
 21
38.862027791003072
 31
0.0
  0
LINE
  5
E3C
  8
0
 62
     0
 10
31.214662549077161
 20
38.862027791003072
 30
0.0
 11
31.214662549077161
 21
38.862027791003072
 31
0.0
  0
LINE
  5
E3D
  8
0
 62
     0
 10
28.436537549077158
 20
38.862027791003072
 30
0.0
 11
28.436537549077158
 21
38.862027791003072
 31
0.0
  0
LINE
  5
E3E
  8
0
 62
     0
 10
14.545912549077149
 20
38.862027791003072
 30
0.0
 11
14.545912549077149
 21
38.862027791003072
 31
0.0
  0
LINE
  5
E3F
  8
0
 62
     0
 10
11.76778754907715
 20
38.862027791003072
 30
0.0
 11
11.76778754907715
 21
38.862027791003072
 31
0.0
  0
LINE
  5
E40
  8
0
 62
     0
 10
8.9896625490771545
 20
38.862027791003072
 30
0.0
 11
8.9896625490771545
 21
38.862027791003072
 31
0.0
  0
LINE
  5
E41
  8
0
 62
     0
 10
6.2115375490771552
 20
38.862027791003072
 30
0.0
 11
6.2115375490771552
 21
38.862027791003072
 31
0.0
  0
LINE
  5
E42
  8
0
 62
     0
 10
3.4334125490771541
 20
38.862027791003072
 30
0.0
 11
3.4334125490771541
 21
38.862027791003072
 31
0.0
  0
LINE
  5
E43
  8
0
 62
     0
 10
0.6552875490771553
 20
38.862027791003072
 30
0.0
 11
0.6552875490771553
 21
38.862027791003072
 31
0.0
  0
LINE
  5
E44
  8
0
 62
     0
 10
27.04747504907715
 20
41.640152791003061
 30
0.0
 11
27.04747504907715
 21
41.640152791003061
 31
0.0
  0
LINE
  5
E45
  8
0
 62
     0
 10
24.269350049077151
 20
41.640152791003061
 30
0.0
 11
24.269350049077151
 21
41.640152791003061
 31
0.0
  0
LINE
  5
E46
  8
0
 62
     0
 10
21.491225049077151
 20
41.640152791003061
 30
0.0
 11
21.491225049077151
 21
41.640152791003061
 31
0.0
  0
LINE
  5
E47
  8
0
 62
     0
 10
18.713100049077148
 20
41.640152791003061
 30
0.0
 11
18.713100049077148
 21
41.640152791003061
 31
0.0
  0
LINE
  5
E48
  8
0
 62
     0
 10
15.934975049077149
 20
41.640152791003061
 30
0.0
 11
15.934975049077149
 21
41.640152791003061
 31
0.0
  0
LINE
  5
E49
  8
0
 62
     0
 10
40.93810004907715
 20
41.640152791003061
 30
0.0
 11
40.93810004907715
 21
41.640152791003061
 31
0.0
  0
LINE
  5
E4A
  8
0
 62
     0
 10
38.159975049077147
 20
41.640152791003061
 30
0.0
 11
38.159975049077147
 21
41.640152791003061
 31
0.0
  0
LINE
  5
E4B
  8
0
 62
     0
 10
35.381850049077151
 20
41.640152791003061
 30
0.0
 11
35.381850049077151
 21
41.640152791003061
 31
0.0
  0
LINE
  5
E4C
  8
0
 62
     0
 10
32.603725049077148
 20
41.640152791003061
 30
0.0
 11
32.603725049077148
 21
41.640152791003061
 31
0.0
  0
LINE
  5
E4D
  8
0
 62
     0
 10
29.825600049077149
 20
41.640152791003061
 30
0.0
 11
29.825600049077149
 21
41.640152791003061
 31
0.0
  0
LINE
  5
E4E
  8
0
 62
     0
 10
13.15685004907715
 20
41.640152791003061
 30
0.0
 11
13.15685004907715
 21
41.640152791003061
 31
0.0
  0
LINE
  5
E4F
  8
0
 62
     0
 10
10.378725049077151
 20
41.640152791003061
 30
0.0
 11
10.378725049077151
 21
41.640152791003061
 31
0.0
  0
LINE
  5
E50
  8
0
 62
     0
 10
7.6006000490771486
 20
41.640152791003061
 30
0.0
 11
7.6006000490771486
 21
41.640152791003061
 31
0.0
  0
LINE
  5
E51
  8
0
 62
     0
 10
4.8224750490771493
 20
41.640152791003061
 30
0.0
 11
4.8224750490771493
 21
41.640152791003061
 31
0.0
  0
LINE
  5
E52
  8
0
 62
     0
 10
2.0443500490771491
 20
41.640152791003061
 30
0.0
 11
2.0443500490771491
 21
41.640152791003061
 31
0.0
  0
LINE
  5
E53
  8
0
 62
     0
 10
25.65841254907717
 20
44.418277791003099
 30
0.0
 11
25.65841254907717
 21
44.418277791003099
 31
0.0
  0
LINE
  5
E54
  8
0
 62
     0
 10
22.88028754907717
 20
44.418277791003099
 30
0.0
 11
22.88028754907717
 21
44.418277791003099
 31
0.0
  0
LINE
  5
E55
  8
0
 62
     0
 10
20.102162549077171
 20
44.418277791003099
 30
0.0
 11
20.102162549077171
 21
44.418277791003099
 31
0.0
  0
LINE
  5
E56
  8
0
 62
     0
 10
17.324037549077168
 20
44.418277791003099
 30
0.0
 11
17.324037549077168
 21
44.418277791003099
 31
0.0
  0
LINE
  5
E57
  8
0
 62
     0
 10
42.327162549077187
 20
44.418277791003099
 30
0.0
 11
42.327162549077187
 21
44.418277791003099
 31
0.0
  0
LINE
  5
E58
  8
0
 62
     0
 10
39.549037549077191
 20
44.418277791003099
 30
0.0
 11
39.549037549077191
 21
44.418277791003099
 31
0.0
  0
LINE
  5
E59
  8
0
 62
     0
 10
36.770912549077188
 20
44.418277791003099
 30
0.0
 11
36.770912549077188
 21
44.418277791003099
 31
0.0
  0
LINE
  5
E5A
  8
0
 62
     0
 10
33.992787549077192
 20
44.418277791003099
 30
0.0
 11
33.992787549077192
 21
44.418277791003099
 31
0.0
  0
LINE
  5
E5B
  8
0
 62
     0
 10
31.214662549077179
 20
44.418277791003099
 30
0.0
 11
31.214662549077179
 21
44.418277791003099
 31
0.0
  0
LINE
  5
E5C
  8
0
 62
     0
 10
28.43653754907718
 20
44.418277791003099
 30
0.0
 11
28.43653754907718
 21
44.418277791003099
 31
0.0
  0
LINE
  5
E5D
  8
0
 62
     0
 10
14.54591254907718
 20
44.418277791003099
 30
0.0
 11
14.54591254907718
 21
44.418277791003099
 31
0.0
  0
LINE
  5
E5E
  8
0
 62
     0
 10
11.76778754907718
 20
44.418277791003099
 30
0.0
 11
11.76778754907718
 21
44.418277791003099
 31
0.0
  0
LINE
  5
E5F
  8
0
 62
     0
 10
8.9896625490771829
 20
44.418277791003099
 30
0.0
 11
8.9896625490771829
 21
44.418277791003099
 31
0.0
  0
LINE
  5
E60
  8
0
 62
     0
 10
6.2115375490771827
 20
44.418277791003099
 30
0.0
 11
6.2115375490771827
 21
44.418277791003099
 31
0.0
  0
LINE
  5
E61
  8
0
 62
     0
 10
3.433412549077183
 20
44.418277791003099
 30
0.0
 11
3.433412549077183
 21
44.418277791003099
 31
0.0
  0
LINE
  5
E62
  8
0
 62
     0
 10
0.6552875490771837
 20
44.418277791003099
 30
0.0
 11
0.6552875490771837
 21
44.418277791003099
 31
0.0
  0
LINE
  5
E63
  8
0
 62
     0
 10
27.047475049077178
 20
47.196402791003102
 30
0.0
 11
27.047475049077178
 21
47.196402791003102
 31
0.0
  0
LINE
  5
E64
  8
0
 62
     0
 10
24.269350049077179
 20
47.196402791003102
 30
0.0
 11
24.269350049077179
 21
47.196402791003102
 31
0.0
  0
LINE
  5
E65
  8
0
 62
     0
 10
21.49122504907718
 20
47.196402791003102
 30
0.0
 11
21.49122504907718
 21
47.196402791003102
 31
0.0
  0
LINE
  5
E66
  8
0
 62
     0
 10
18.71310004907718
 20
47.196402791003102
 30
0.0
 11
18.71310004907718
 21
47.196402791003102
 31
0.0
  0
LINE
  5
E67
  8
0
 62
     0
 10
15.934975049077179
 20
47.196402791003102
 30
0.0
 11
15.934975049077179
 21
47.196402791003102
 31
0.0
  0
LINE
  5
E68
  8
0
 62
     0
 10
38.159975049077183
 20
47.196402791003102
 30
0.0
 11
38.159975049077183
 21
47.196402791003102
 31
0.0
  0
LINE
  5
E69
  8
0
 62
     0
 10
35.38185004907718
 20
47.196402791003102
 30
0.0
 11
35.38185004907718
 21
47.196402791003102
 31
0.0
  0
LINE
  5
E6A
  8
0
 62
     0
 10
32.603725049077177
 20
47.196402791003102
 30
0.0
 11
32.603725049077177
 21
47.196402791003102
 31
0.0
  0
LINE
  5
E6B
  8
0
 62
     0
 10
29.825600049077181
 20
47.196402791003102
 30
0.0
 11
29.825600049077181
 21
47.196402791003102
 31
0.0
  0
LINE
  5
E6C
  8
0
 62
     0
 10
13.15685004907716
 20
47.196402791003102
 30
0.0
 11
13.15685004907716
 21
47.196402791003102
 31
0.0
  0
LINE
  5
E6D
  8
0
 62
     0
 10
10.378725049077159
 20
47.196402791003102
 30
0.0
 11
10.378725049077159
 21
47.196402791003102
 31
0.0
  0
LINE
  5
E6E
  8
0
 62
     0
 10
7.6006000490771646
 20
47.196402791003102
 30
0.0
 11
7.6006000490771646
 21
47.196402791003102
 31
0.0
  0
LINE
  5
E6F
  8
0
 62
     0
 10
4.8224750490771662
 20
47.196402791003102
 30
0.0
 11
4.8224750490771662
 21
47.196402791003102
 31
0.0
  0
LINE
  5
E70
  8
0
 62
     0
 10
25.65841254907717
 20
49.974527791003077
 30
0.0
 11
25.65841254907717
 21
49.974527791003077
 31
0.0
  0
LINE
  5
E71
  8
0
 62
     0
 10
22.88028754907717
 20
49.974527791003077
 30
0.0
 11
22.88028754907717
 21
49.974527791003077
 31
0.0
  0
LINE
  5
E72
  8
0
 62
     0
 10
20.102162549077171
 20
49.974527791003077
 30
0.0
 11
20.102162549077171
 21
49.974527791003077
 31
0.0
  0
LINE
  5
E73
  8
0
 62
     0
 10
17.324037549077168
 20
49.974527791003077
 30
0.0
 11
17.324037549077168
 21
49.974527791003077
 31
0.0
  0
LINE
  5
E74
  8
0
 62
     0
 10
36.77091254907716
 20
49.974527791003077
 30
0.0
 11
36.77091254907716
 21
49.974527791003077
 31
0.0
  0
LINE
  5
E75
  8
0
 62
     0
 10
33.992787549077157
 20
49.974527791003077
 30
0.0
 11
33.992787549077157
 21
49.974527791003077
 31
0.0
  0
LINE
  5
E76
  8
0
 62
     0
 10
31.214662549077161
 20
49.974527791003077
 30
0.0
 11
31.214662549077161
 21
49.974527791003077
 31
0.0
  0
LINE
  5
E77
  8
0
 62
     0
 10
28.436537549077158
 20
49.974527791003077
 30
0.0
 11
28.436537549077158
 21
49.974527791003077
 31
0.0
  0
LINE
  5
E78
  8
0
 62
     0
 10
14.54591254907716
 20
49.974527791003077
 30
0.0
 11
14.54591254907716
 21
49.974527791003077
 31
0.0
  0
LINE
  5
E79
  8
0
 62
     0
 10
11.767787549077161
 20
49.974527791003077
 30
0.0
 11
11.767787549077161
 21
49.974527791003077
 31
0.0
  0
LINE
  5
E7A
  8
0
 62
     0
 10
8.9896625490771598
 20
49.974527791003077
 30
0.0
 11
8.9896625490771598
 21
49.974527791003077
 31
0.0
  0
LINE
  5
E7B
  8
0
 62
     0
 10
6.2115375490771596
 20
49.974527791003077
 30
0.0
 11
6.2115375490771596
 21
49.974527791003077
 31
0.0
  0
LINE
  5
E7C
  8
0
 62
     0
 10
27.04747504907715
 20
52.752652791003072
 30
0.0
 11
27.04747504907715
 21
52.752652791003072
 31
0.0
  0
LINE
  5
E7D
  8
0
 62
     0
 10
24.269350049077151
 20
52.752652791003072
 30
0.0
 11
24.269350049077151
 21
52.752652791003072
 31
0.0
  0
LINE
  5
E7E
  8
0
 62
     0
 10
21.491225049077151
 20
52.752652791003072
 30
0.0
 11
21.491225049077151
 21
52.752652791003072
 31
0.0
  0
LINE
  5
E7F
  8
0
 62
     0
 10
18.713100049077148
 20
52.752652791003072
 30
0.0
 11
18.713100049077148
 21
52.752652791003072
 31
0.0
  0
LINE
  5
E80
  8
0
 62
     0
 10
15.934975049077149
 20
52.752652791003072
 30
0.0
 11
15.934975049077149
 21
52.752652791003072
 31
0.0
  0
LINE
  5
E81
  8
0
 62
     0
 10
38.159975049077147
 20
52.752652791003072
 30
0.0
 11
38.159975049077147
 21
52.752652791003072
 31
0.0
  0
LINE
  5
E82
  8
0
 62
     0
 10
35.381850049077151
 20
52.752652791003072
 30
0.0
 11
35.381850049077151
 21
52.752652791003072
 31
0.0
  0
LINE
  5
E83
  8
0
 62
     0
 10
32.603725049077148
 20
52.752652791003072
 30
0.0
 11
32.603725049077148
 21
52.752652791003072
 31
0.0
  0
LINE
  5
E84
  8
0
 62
     0
 10
29.825600049077149
 20
52.752652791003072
 30
0.0
 11
29.825600049077149
 21
52.752652791003072
 31
0.0
  0
LINE
  5
E85
  8
0
 62
     0
 10
13.15685004907716
 20
52.752652791003072
 30
0.0
 11
13.15685004907716
 21
52.752652791003072
 31
0.0
  0
LINE
  5
E86
  8
0
 62
     0
 10
10.378725049077159
 20
52.752652791003072
 30
0.0
 11
10.378725049077159
 21
52.752652791003072
 31
0.0
  0
LINE
  5
E87
  8
0
 62
     0
 10
7.6006000490771646
 20
52.752652791003072
 30
0.0
 11
7.6006000490771646
 21
52.752652791003072
 31
0.0
  0
LINE
  5
E88
  8
0
 62
     0
 10
4.8224750490771662
 20
52.752652791003072
 30
0.0
 11
4.8224750490771662
 21
52.752652791003072
 31
0.0
  0
LINE
  5
E89
  8
0
 62
     0
 10
25.658412549077141
 20
55.530777791003061
 30
0.0
 11
25.658412549077141
 21
55.530777791003061
 31
0.0
  0
LINE
  5
E8A
  8
0
 62
     0
 10
22.880287549077138
 20
55.530777791003061
 30
0.0
 11
22.880287549077138
 21
55.530777791003061
 31
0.0
  0
LINE
  5
E8B
  8
0
 62
     0
 10
20.102162549077139
 20
55.530777791003061
 30
0.0
 11
20.102162549077139
 21
55.530777791003061
 31
0.0
  0
LINE
  5
E8C
  8
0
 62
     0
 10
17.32403754907714
 20
55.530777791003061
 30
0.0
 11
17.32403754907714
 21
55.530777791003061
 31
0.0
  0
LINE
  5
E8D
  8
0
 62
     0
 10
36.77091254907716
 20
55.530777791003061
 30
0.0
 11
36.77091254907716
 21
55.530777791003061
 31
0.0
  0
LINE
  5
E8E
  8
0
 62
     0
 10
33.992787549077157
 20
55.530777791003061
 30
0.0
 11
33.992787549077157
 21
55.530777791003061
 31
0.0
  0
LINE
  5
E8F
  8
0
 62
     0
 10
31.214662549077161
 20
55.530777791003061
 30
0.0
 11
31.214662549077161
 21
55.530777791003061
 31
0.0
  0
LINE
  5
E90
  8
0
 62
     0
 10
28.436537549077158
 20
55.530777791003061
 30
0.0
 11
28.436537549077158
 21
55.530777791003061
 31
0.0
  0
LINE
  5
E91
  8
0
 62
     0
 10
14.54591254907716
 20
55.530777791003061
 30
0.0
 11
14.54591254907716
 21
55.530777791003061
 31
0.0
  0
LINE
  5
E92
  8
0
 62
     0
 10
11.767787549077161
 20
55.530777791003061
 30
0.0
 11
11.767787549077161
 21
55.530777791003061
 31
0.0
  0
LINE
  5
E93
  8
0
 62
     0
 10
8.9896625490771598
 20
55.530777791003061
 30
0.0
 11
8.9896625490771598
 21
55.530777791003061
 31
0.0
  0
LINE
  5
E94
  8
0
 62
     0
 10
6.2115375490771596
 20
55.530777791003061
 30
0.0
 11
6.2115375490771596
 21
55.530777791003061
 31
0.0
  0
LINE
  5
E95
  8
0
 62
     0
 10
27.047475049077178
 20
58.308902791003099
 30
0.0
 11
27.047475049077178
 21
58.308902791003099
 31
0.0
  0
LINE
  5
E96
  8
0
 62
     0
 10
24.269350049077179
 20
58.308902791003099
 30
0.0
 11
24.269350049077179
 21
58.308902791003099
 31
0.0
  0
LINE
  5
E97
  8
0
 62
     0
 10
21.49122504907718
 20
58.308902791003099
 30
0.0
 11
21.49122504907718
 21
58.308902791003099
 31
0.0
  0
LINE
  5
E98
  8
0
 62
     0
 10
18.71310004907718
 20
58.308902791003099
 30
0.0
 11
18.71310004907718
 21
58.308902791003099
 31
0.0
  0
LINE
  5
E99
  8
0
 62
     0
 10
15.934975049077179
 20
58.308902791003099
 30
0.0
 11
15.934975049077179
 21
58.308902791003099
 31
0.0
  0
LINE
  5
E9A
  8
0
 62
     0
 10
38.159975049077183
 20
58.308902791003099
 30
0.0
 11
38.159975049077183
 21
58.308902791003099
 31
0.0
  0
LINE
  5
E9B
  8
0
 62
     0
 10
35.38185004907718
 20
58.308902791003099
 30
0.0
 11
35.38185004907718
 21
58.308902791003099
 31
0.0
  0
LINE
  5
E9C
  8
0
 62
     0
 10
32.603725049077177
 20
58.308902791003099
 30
0.0
 11
32.603725049077177
 21
58.308902791003099
 31
0.0
  0
LINE
  5
E9D
  8
0
 62
     0
 10
29.825600049077181
 20
58.308902791003099
 30
0.0
 11
29.825600049077181
 21
58.308902791003099
 31
0.0
  0
LINE
  5
E9E
  8
0
 62
     0
 10
13.15685004907716
 20
58.308902791003099
 30
0.0
 11
13.15685004907716
 21
58.308902791003099
 31
0.0
  0
LINE
  5
E9F
  8
0
 62
     0
 10
10.378725049077159
 20
58.308902791003099
 30
0.0
 11
10.378725049077159
 21
58.308902791003099
 31
0.0
  0
LINE
  5
EA0
  8
0
 62
     0
 10
7.6006000490771646
 20
58.308902791003099
 30
0.0
 11
7.6006000490771646
 21
58.308902791003099
 31
0.0
  0
LINE
  5
EA1
  8
0
 62
     0
 10
4.8224750490771662
 20
58.308902791003099
 30
0.0
 11
4.8224750490771662
 21
58.308902791003099
 31
0.0
  0
LINE
  5
EA2
  8
0
 62
     0
 10
25.65841254907717
 20
61.087027791003088
 30
0.0
 11
25.65841254907717
 21
61.087027791003088
 31
0.0
  0
LINE
  5
EA3
  8
0
 62
     0
 10
22.88028754907717
 20
61.087027791003088
 30
0.0
 11
22.88028754907717
 21
61.087027791003088
 31
0.0
  0
LINE
  5
EA4
  8
0
 62
     0
 10
20.102162549077171
 20
61.087027791003088
 30
0.0
 11
20.102162549077171
 21
61.087027791003088
 31
0.0
  0
LINE
  5
EA5
  8
0
 62
     0
 10
17.324037549077168
 20
61.087027791003088
 30
0.0
 11
17.324037549077168
 21
61.087027791003088
 31
0.0
  0
LINE
  5
EA6
  8
0
 62
     0
 10
36.77091254907716
 20
61.087027791003088
 30
0.0
 11
36.77091254907716
 21
61.087027791003088
 31
0.0
  0
LINE
  5
EA7
  8
0
 62
     0
 10
33.992787549077157
 20
61.087027791003088
 30
0.0
 11
33.992787549077157
 21
61.087027791003088
 31
0.0
  0
LINE
  5
EA8
  8
0
 62
     0
 10
31.214662549077161
 20
61.087027791003088
 30
0.0
 11
31.214662549077161
 21
61.087027791003088
 31
0.0
  0
LINE
  5
EA9
  8
0
 62
     0
 10
28.436537549077158
 20
61.087027791003088
 30
0.0
 11
28.436537549077158
 21
61.087027791003088
 31
0.0
  0
LINE
  5
EAA
  8
0
 62
     0
 10
14.54591254907716
 20
61.087027791003088
 30
0.0
 11
14.54591254907716
 21
61.087027791003088
 31
0.0
  0
LINE
  5
EAB
  8
0
 62
     0
 10
11.767787549077161
 20
61.087027791003088
 30
0.0
 11
11.767787549077161
 21
61.087027791003088
 31
0.0
  0
LINE
  5
EAC
  8
0
 62
     0
 10
8.9896625490771598
 20
61.087027791003088
 30
0.0
 11
8.9896625490771598
 21
61.087027791003088
 31
0.0
  0
LINE
  5
EAD
  8
0
 62
     0
 10
6.2115375490771596
 20
61.087027791003088
 30
0.0
 11
6.2115375490771596
 21
61.087027791003088
 31
0.0
  0
LINE
  5
EAE
  8
0
 62
     0
 10
27.04747504907715
 20
63.865152791003077
 30
0.0
 11
27.04747504907715
 21
63.865152791003077
 31
0.0
  0
LINE
  5
EAF
  8
0
 62
     0
 10
24.269350049077151
 20
63.865152791003077
 30
0.0
 11
24.269350049077151
 21
63.865152791003077
 31
0.0
  0
LINE
  5
EB0
  8
0
 62
     0
 10
21.491225049077151
 20
63.865152791003077
 30
0.0
 11
21.491225049077151
 21
63.865152791003077
 31
0.0
  0
LINE
  5
EB1
  8
0
 62
     0
 10
18.713100049077148
 20
63.865152791003077
 30
0.0
 11
18.713100049077148
 21
63.865152791003077
 31
0.0
  0
LINE
  5
EB2
  8
0
 62
     0
 10
15.934975049077149
 20
63.865152791003077
 30
0.0
 11
15.934975049077149
 21
63.865152791003077
 31
0.0
  0
LINE
  5
EB3
  8
0
 62
     0
 10
38.159975049077147
 20
63.865152791003077
 30
0.0
 11
38.159975049077147
 21
63.865152791003077
 31
0.0
  0
LINE
  5
EB4
  8
0
 62
     0
 10
35.381850049077151
 20
63.865152791003077
 30
0.0
 11
35.381850049077151
 21
63.865152791003077
 31
0.0
  0
LINE
  5
EB5
  8
0
 62
     0
 10
32.603725049077148
 20
63.865152791003077
 30
0.0
 11
32.603725049077148
 21
63.865152791003077
 31
0.0
  0
LINE
  5
EB6
  8
0
 62
     0
 10
29.825600049077149
 20
63.865152791003077
 30
0.0
 11
29.825600049077149
 21
63.865152791003077
 31
0.0
  0
LINE
  5
EB7
  8
0
 62
     0
 10
13.15685004907716
 20
63.865152791003077
 30
0.0
 11
13.15685004907716
 21
63.865152791003077
 31
0.0
  0
LINE
  5
EB8
  8
0
 62
     0
 10
10.378725049077159
 20
63.865152791003077
 30
0.0
 11
10.378725049077159
 21
63.865152791003077
 31
0.0
  0
LINE
  5
EB9
  8
0
 62
     0
 10
7.6006000490771646
 20
63.865152791003077
 30
0.0
 11
7.6006000490771646
 21
63.865152791003077
 31
0.0
  0
LINE
  5
EBA
  8
0
 62
     0
 10
4.8224750490771662
 20
63.865152791003077
 30
0.0
 11
4.8224750490771662
 21
63.865152791003077
 31
0.0
  0
LINE
  5
EBB
  8
0
 62
     0
 10
25.658412549077141
 20
66.643277791003072
 30
0.0
 11
25.658412549077141
 21
66.643277791003072
 31
0.0
  0
LINE
  5
EBC
  8
0
 62
     0
 10
22.880287549077138
 20
66.643277791003072
 30
0.0
 11
22.880287549077138
 21
66.643277791003072
 31
0.0
  0
LINE
  5
EBD
  8
0
 62
     0
 10
20.102162549077139
 20
66.643277791003072
 30
0.0
 11
20.102162549077139
 21
66.643277791003072
 31
0.0
  0
LINE
  5
EBE
  8
0
 62
     0
 10
17.32403754907714
 20
66.643277791003072
 30
0.0
 11
17.32403754907714
 21
66.643277791003072
 31
0.0
  0
LINE
  5
EBF
  8
0
 62
     0
 10
36.77091254907716
 20
66.643277791003072
 30
0.0
 11
36.77091254907716
 21
66.643277791003072
 31
0.0
  0
LINE
  5
EC0
  8
0
 62
     0
 10
33.992787549077157
 20
66.643277791003072
 30
0.0
 11
33.992787549077157
 21
66.643277791003072
 31
0.0
  0
LINE
  5
EC1
  8
0
 62
     0
 10
31.214662549077161
 20
66.643277791003072
 30
0.0
 11
31.214662549077161
 21
66.643277791003072
 31
0.0
  0
LINE
  5
EC2
  8
0
 62
     0
 10
28.436537549077158
 20
66.643277791003072
 30
0.0
 11
28.436537549077158
 21
66.643277791003072
 31
0.0
  0
LINE
  5
EC3
  8
0
 62
     0
 10
14.54591254907716
 20
66.643277791003072
 30
0.0
 11
14.54591254907716
 21
66.643277791003072
 31
0.0
  0
LINE
  5
EC4
  8
0
 62
     0
 10
11.767787549077161
 20
66.643277791003072
 30
0.0
 11
11.767787549077161
 21
66.643277791003072
 31
0.0
  0
LINE
  5
EC5
  8
0
 62
     0
 10
8.9896625490771598
 20
66.643277791003072
 30
0.0
 11
8.9896625490771598
 21
66.643277791003072
 31
0.0
  0
LINE
  5
EC6
  8
0
 62
     0
 10
6.2115375490771596
 20
66.643277791003072
 30
0.0
 11
6.2115375490771596
 21
66.643277791003072
 31
0.0
  0
ENDBLK
  5
EC8
  8
0
  0
BLOCK
  8
0
  2
*U46
 70
     1
 10
0.0
 20
0.0
 30
0.0
  3
*U46
  1

  0
TEXT
  5
ECA
  8
0
 62
     2
 10
17.750000002984859
 20
77.124925948734443
 30
0.0
 40
2.999999997612111
  1
43.3
  7
BYGG-024364$0$ISO
  0
ENDBLK
  5
ECC
  8
0
  0
BLOCK
  8
0
  2
*U47
 70
     1
 10
0.0
 20
0.0
 30
0.0
  3
*U47
  1

  0
TEXT
  5
ECE
  8
0
 62
     2
 10
-5.5843227993721474
 20
53.95000000262668
 30
0.0
 40
2.999999997612111
  1
21.5
 50
90.0
  7
BYGG-024364$0$ISO
  0
ENDBLK
  5
ED0
  8
0
  0
BLOCK
  8
0
  2
*U48
 70
     1
 10
0.0
 20
0.0
 30
0.0
  3
*U48
  1

  0
TEXT
  5
ED2
  8
0
 62
     2
 10
-5.5843227993721403
 20
3.4500000026266782
 30
0.0
 40
2.999999997612111
  1
13.5
 50
90.0
  7
BYGG-024364$0$ISO
  0
ENDBLK
  5
ED4
  8
0
  0
BLOCK
  8
0
  2
*U49
 70
     1
 10
0.0
 20
0.0
 30
0.0
  3
*U49
  1

  0
TEXT
  5
ED6
  8
0
 62
     2
 10
-12.365229340811389
 20
31.899999999999999
 30
0.0
 40
3.0
  1
68
 50
90.0
  7
BYGG-024364$0$ISO
  0
ENDBLK
  5
ED8
  8
0
  0
BLOCK
  8
0
  2
*U50
 70
     1
 10
0.0
 20
0.0
 30
0.0
  3
*U50
  1

  0
TEXT
  5
EDA
  8
0
 62
     2
 10
11.64999999999981
 20
-9.0914471506167729
 30
0.0
 40
3.0
  1
5.1
  7
BYGG-024364$0$ISO
  0
ENDBLK
  5
EDC
  8
0
  0
BLOCK
  8
0
  2
*U51
 70
     1
 10
0.0
 20
0.0
 30
0.0
  3
*U51
  1

  0
TEXT
  5
EDE
  8
0
 62
     2
 10
49.849999999999987
 20
-9.0914471506167729
 30
0.0
 40
3.0
  1
5.1
  7
BYGG-024364$0$ISO
  0
ENDBLK
  5
EE0
  8
0
  0
BLOCK
  8
0
  2
*U52
 70
     1
 10
0.0
 20
0.0
 30
0.0
  3
*U52
  1

  0
TEXT
  5
EFC
  8
0
 10
24.24252611647475
 20
1.202857514213918
 30
0.0
 40
3.0
  1
47.6
  7
BYGG-014357$0$ISO
  0
ENDBLK
  5
EFE
  8
0
  0
BLOCK
  8
0
  2
*U53
 70
     1
 10
0.0
 20
0.0
 30
0.0
  3
*U53
  1

  0
TEXT
  5
F00
  8
0
 62
     2
 10
24.251997977305521
 20
156.51002170970099
 30
0.0
 40
2.999999997612111
  1
43.3
  7
BYGG-024364$0$ISO
  0
ENDBLK
  5
F02
  8
0
  0
BLOCK
  8
0
  2
*U54
 70
     1
 10
0.0
 20
0.0
 30
0.0
  3
*U54
  1

  0
TEXT
  5
F04
  8
0
 62
     2
 10
0.9176751749484992
 20
133.33509576359319
 30
0.0
 40
2.999999997612111
  1
21.5
 50
90.0
  7
BYGG-024364$0$ISO
  0
ENDBLK
  5
F06
  8
0
  0
BLOCK
  8
0
  2
*U55
 70
     1
 10
0.0
 20
0.0
 30
0.0
  3
*U55
  1

  0
TEXT
  5
F08
  8
0
 62
     2
 10
0.9176751749485067
 20
82.835095763593259
 30
0.0
 40
2.999999997612111
  1
13.5
 50
90.0
  7
BYGG-024364$0$ISO
  0
ENDBLK
  5
F0A
  8
0
  0
BLOCK
  8
0
  2
*U56
 70
     1
 10
0.0
 20
0.0
 30
0.0
  3
*U56
  1

  0
TEXT
  5
F0C
  8
0
 62
     2
 10
-5.8632313664907398
 20
111.2850957609666
 30
0.0
 40
3.0
  1
68
 50
90.0
  7
BYGG-024364$0$ISO
  0
ENDBLK
  5
F0E
  8
0
  0
BLOCK
  8
0
  2
*U57
 70
     1
 10
0.0
 20
0.0
 30
0.0
  3
*U57
  1

  0
TEXT
  5
F10
  8
0
 62
     2
 10
18.151997974320469
 20
70.293648610349805
 30
0.0
 40
3.0
  1
5.1
  7
BYGG-024364$0$ISO
  0
ENDBLK
  5
F12
  8
0
  0
BLOCK
  8
0
  2
*U58
 70
     1
 10
0.0
 20
0.0
 30
0.0
  3
*U58
  1

  0
TEXT
  5
F14
  8
0
 62
     2
 10
56.351997974320653
 20
70.293648610349805
 30
0.0
 40
3.0
  1
5.1
  7
BYGG-024364$0$ISO
  0
ENDBLK
  5
F16
  8
0
  0
BLOCK
  8
0
  2
*U59
 70
     1
 10
0.0
 20
0.0
 30
0.0
  3
*U59
  1

  0
TEXT
  5
F18
  8
0
 62
     2
 10
-8.3451589435589177
 20
115.89727372708271
 30
0.0
 40
6.0
  1
100
 50
90.0
  7
BYGG-01482201$0$ISO
  0
ENDBLK
  5
F1A
  8
0
  0
BLOCK
  8
0
  2
*U60
 70
     1
 10
0.0
 20
0.0
 30
0.0
  3
*U60
  1

  0
TEXT
  5
F1C
  8
0
 62
     2
 10
23.864573360569072
 20
185.1090393659739
 30
0.0
 40
6.0
  1
50
  7
BYGG-01482201$0$ISO
  0
ENDBLK
  5
F1E
  8
0
  0
BLOCK
  8
0
  2
*U61
 70
     1
 10
0.0
 20
0.0
 30
0.0
  3
*U61
  1

  0
TEXT
  5
12DA
  8
0
 62
     2
 10
-6.7363844500485408
 20
6.5465926224208619
 30
0.0
 40
3.0
  1
18,5
 50
90.0
  7
BYGG-014279$0$ISO
  0
ENDBLK
  5
12DC
  8
0
  0
BLOCK
  8
0
  2
*U62
 70
     1
 10
0.0
 20
0.0
 30
0.0
  3
*U62
  1

  0
TEXT
  5
12DE
  8
0
 62
     2
 10
26.234258399939659
 20
-7.5737724240633026
 30
0.0
 40
3.0
  1
50
  7
BYGG-014279$0$ISO
  0
ENDBLK
  5
12E0
  8
0
  0
BLOCK
  8
0
  2
*X63
 70
     1
 10
0.0
 20
0.0
 30
0.0
  3
*X63
  1

  0
LINE
  5
130A
  8
0
 62
     0
 10
33.549473023397837
 20
82.131498551969685
 30
0.0
 11
33.549473023397837
 21
82.131498551969685
 31
0.0
  0
LINE
  5
130B
  8
0
 62
     0
 10
30.771348023397831
 20
82.131498551969685
 30
0.0
 11
30.771348023397831
 21
82.131498551969685
 31
0.0
  0
LINE
  5
130C
  8
0
 62
     0
 10
27.993223023397832
 20
82.131498551969685
 30
0.0
 11
27.993223023397832
 21
82.131498551969685
 31
0.0
  0
LINE
  5
130D
  8
0
 62
     0
 10
25.215098023397839
 20
82.131498551969685
 30
0.0
 11
25.215098023397839
 21
82.131498551969685
 31
0.0
  0
LINE
  5
130E
  8
0
 62
     0
 10
22.43697302339784
 20
82.131498551969685
 30
0.0
 11
22.43697302339784
 21
82.131498551969685
 31
0.0
  0
LINE
  5
130F
  8
0
 62
     0
 10
44.661973023397813
 20
82.131498551969685
 30
0.0
 11
44.661973023397813
 21
82.131498551969685
 31
0.0
  0
LINE
  5
1310
  8
0
 62
     0
 10
41.883848023397817
 20
82.131498551969685
 30
0.0
 11
41.883848023397817
 21
82.131498551969685
 31
0.0
  0
LINE
  5
1311
  8
0
 62
     0
 10
39.105723023397822
 20
82.131498551969685
 30
0.0
 11
39.105723023397822
 21
82.131498551969685
 31
0.0
  0
LINE
  5
1312
  8
0
 62
     0
 10
36.327598023397812
 20
82.131498551969685
 30
0.0
 11
36.327598023397812
 21
82.131498551969685
 31
0.0
  0
LINE
  5
1313
  8
0
 62
     0
 10
19.65884802339782
 20
82.131498551969685
 30
0.0
 11
19.65884802339782
 21
82.131498551969685
 31
0.0
  0
LINE
  5
1314
  8
0
 62
     0
 10
16.88072302339782
 20
82.131498551969685
 30
0.0
 11
16.88072302339782
 21
82.131498551969685
 31
0.0
  0
LINE
  5
1315
  8
0
 62
     0
 10
14.102598023397819
 20
82.131498551969685
 30
0.0
 11
14.102598023397819
 21
82.131498551969685
 31
0.0
  0
LINE
  5
1316
  8
0
 62
     0
 10
11.32447302339782
 20
82.131498551969685
 30
0.0
 11
11.32447302339782
 21
82.131498551969685
 31
0.0
  0
LINE
  5
1317
  8
0
 62
     0
 10
32.160410523397829
 20
84.909623551969673
 30
0.0
 11
32.160410523397829
 21
84.909623551969673
 31
0.0
  0
LINE
  5
1318
  8
0
 62
     0
 10
29.38228552339783
 20
84.909623551969673
 30
0.0
 11
29.38228552339783
 21
84.909623551969673
 31
0.0
  0
LINE
  5
1319
  8
0
 62
     0
 10
26.60416052339783
 20
84.909623551969673
 30
0.0
 11
26.60416052339783
 21
84.909623551969673
 31
0.0
  0
LINE
  5
131A
  8
0
 62
     0
 10
23.826035523397831
 20
84.909623551969673
 30
0.0
 11
23.826035523397831
 21
84.909623551969673
 31
0.0
  0
LINE
  5
131B
  8
0
 62
     0
 10
43.272910523397798
 20
84.909623551969673
 30
0.0
 11
43.272910523397798
 21
84.909623551969673
 31
0.0
  0
LINE
  5
131C
  8
0
 62
     0
 10
40.494785523397788
 20
84.909623551969673
 30
0.0
 11
40.494785523397788
 21
84.909623551969673
 31
0.0
  0
LINE
  5
131D
  8
0
 62
     0
 10
37.716660523397792
 20
84.909623551969673
 30
0.0
 11
37.716660523397792
 21
84.909623551969673
 31
0.0
  0
LINE
  5
131E
  8
0
 62
     0
 10
34.938535523397789
 20
84.909623551969673
 30
0.0
 11
34.938535523397789
 21
84.909623551969673
 31
0.0
  0
LINE
  5
131F
  8
0
 62
     0
 10
21.047910523397821
 20
84.909623551969673
 30
0.0
 11
21.047910523397821
 21
84.909623551969673
 31
0.0
  0
LINE
  5
1320
  8
0
 62
     0
 10
18.269785523397822
 20
84.909623551969673
 30
0.0
 11
18.269785523397822
 21
84.909623551969673
 31
0.0
  0
LINE
  5
1321
  8
0
 62
     0
 10
15.491660523397821
 20
84.909623551969673
 30
0.0
 11
15.491660523397821
 21
84.909623551969673
 31
0.0
  0
LINE
  5
1322
  8
0
 62
     0
 10
12.71353552339782
 20
84.909623551969673
 30
0.0
 11
12.71353552339782
 21
84.909623551969673
 31
0.0
  0
LINE
  5
1323
  8
0
 62
     0
 10
33.549473023397809
 20
87.687748551969662
 30
0.0
 11
33.549473023397809
 21
87.687748551969662
 31
0.0
  0
LINE
  5
1324
  8
0
 62
     0
 10
30.77134802339781
 20
87.687748551969662
 30
0.0
 11
30.77134802339781
 21
87.687748551969662
 31
0.0
  0
LINE
  5
1325
  8
0
 62
     0
 10
27.99322302339781
 20
87.687748551969662
 30
0.0
 11
27.99322302339781
 21
87.687748551969662
 31
0.0
  0
LINE
  5
1326
  8
0
 62
     0
 10
25.215098023397811
 20
87.687748551969662
 30
0.0
 11
25.215098023397811
 21
87.687748551969662
 31
0.0
  0
LINE
  5
1327
  8
0
 62
     0
 10
22.436973023397812
 20
87.687748551969662
 30
0.0
 11
22.436973023397812
 21
87.687748551969662
 31
0.0
  0
LINE
  5
1328
  8
0
 62
     0
 10
44.661973023397813
 20
87.687748551969662
 30
0.0
 11
44.661973023397813
 21
87.687748551969662
 31
0.0
  0
LINE
  5
1329
  8
0
 62
     0
 10
41.883848023397817
 20
87.687748551969662
 30
0.0
 11
41.883848023397817
 21
87.687748551969662
 31
0.0
  0
LINE
  5
132A
  8
0
 62
     0
 10
39.105723023397822
 20
87.687748551969662
 30
0.0
 11
39.105723023397822
 21
87.687748551969662
 31
0.0
  0
LINE
  5
132B
  8
0
 62
     0
 10
36.327598023397812
 20
87.687748551969662
 30
0.0
 11
36.327598023397812
 21
87.687748551969662
 31
0.0
  0
LINE
  5
132C
  8
0
 62
     0
 10
19.65884802339782
 20
87.687748551969662
 30
0.0
 11
19.65884802339782
 21
87.687748551969662
 31
0.0
  0
LINE
  5
132D
  8
0
 62
     0
 10
16.88072302339782
 20
87.687748551969662
 30
0.0
 11
16.88072302339782
 21
87.687748551969662
 31
0.0
  0
LINE
  5
132E
  8
0
 62
     0
 10
14.102598023397819
 20
87.687748551969662
 30
0.0
 11
14.102598023397819
 21
87.687748551969662
 31
0.0
  0
LINE
  5
132F
  8
0
 62
     0
 10
11.32447302339782
 20
87.687748551969662
 30
0.0
 11
11.32447302339782
 21
87.687748551969662
 31
0.0
  0
LINE
  5
1330
  8
0
 62
     0
 10
32.1604105233978
 20
90.465873551969651
 30
0.0
 11
32.1604105233978
 21
90.465873551969651
 31
0.0
  0
LINE
  5
1331
  8
0
 62
     0
 10
29.382285523397801
 20
90.465873551969651
 30
0.0
 11
29.382285523397801
 21
90.465873551969651
 31
0.0
  0
LINE
  5
1332
  8
0
 62
     0
 10
26.604160523397798
 20
90.465873551969651
 30
0.0
 11
26.604160523397798
 21
90.465873551969651
 31
0.0
  0
LINE
  5
1333
  8
0
 62
     0
 10
23.826035523397799
 20
90.465873551969651
 30
0.0
 11
23.826035523397799
 21
90.465873551969651
 31
0.0
  0
LINE
  5
1334
  8
0
 62
     0
 10
43.272910523397847
 20
90.465873551969651
 30
0.0
 11
43.272910523397847
 21
90.465873551969651
 31
0.0
  0
LINE
  5
1335
  8
0
 62
     0
 10
40.494785523397852
 20
90.465873551969651
 30
0.0
 11
40.494785523397852
 21
90.465873551969651
 31
0.0
  0
LINE
  5
1336
  8
0
 62
     0
 10
37.716660523397849
 20
90.465873551969651
 30
0.0
 11
37.716660523397849
 21
90.465873551969651
 31
0.0
  0
LINE
  5
1337
  8
0
 62
     0
 10
34.938535523397853
 20
90.465873551969651
 30
0.0
 11
34.938535523397853
 21
90.465873551969651
 31
0.0
  0
LINE
  5
1338
  8
0
 62
     0
 10
21.047910523397821
 20
90.465873551969651
 30
0.0
 11
21.047910523397821
 21
90.465873551969651
 31
0.0
  0
LINE
  5
1339
  8
0
 62
     0
 10
18.269785523397822
 20
90.465873551969651
 30
0.0
 11
18.269785523397822
 21
90.465873551969651
 31
0.0
  0
LINE
  5
133A
  8
0
 62
     0
 10
15.491660523397821
 20
90.465873551969651
 30
0.0
 11
15.491660523397821
 21
90.465873551969651
 31
0.0
  0
LINE
  5
133B
  8
0
 62
     0
 10
12.71353552339782
 20
90.465873551969651
 30
0.0
 11
12.71353552339782
 21
90.465873551969651
 31
0.0
  0
LINE
  5
133C
  8
0
 62
     0
 10
33.549473023397809
 20
93.243998551969625
 30
0.0
 11
33.549473023397809
 21
93.243998551969625
 31
0.0
  0
LINE
  5
133D
  8
0
 62
     0
 10
30.77134802339781
 20
93.243998551969625
 30
0.0
 11
30.77134802339781
 21
93.243998551969625
 31
0.0
  0
LINE
  5
133E
  8
0
 62
     0
 10
27.99322302339781
 20
93.243998551969625
 30
0.0
 11
27.99322302339781
 21
93.243998551969625
 31
0.0
  0
LINE
  5
133F
  8
0
 62
     0
 10
25.215098023397811
 20
93.243998551969625
 30
0.0
 11
25.215098023397811
 21
93.243998551969625
 31
0.0
  0
LINE
  5
1340
  8
0
 62
     0
 10
22.436973023397812
 20
93.243998551969625
 30
0.0
 11
22.436973023397812
 21
93.243998551969625
 31
0.0
  0
LINE
  5
1341
  8
0
 62
     0
 10
47.440098023397823
 20
93.243998551969625
 30
0.0
 11
47.440098023397823
 21
93.243998551969625
 31
0.0
  0
LINE
  5
1342
  8
0
 62
     0
 10
44.661973023397813
 20
93.243998551969625
 30
0.0
 11
44.661973023397813
 21
93.243998551969625
 31
0.0
  0
LINE
  5
1343
  8
0
 62
     0
 10
41.883848023397817
 20
93.243998551969625
 30
0.0
 11
41.883848023397817
 21
93.243998551969625
 31
0.0
  0
LINE
  5
1344
  8
0
 62
     0
 10
39.105723023397822
 20
93.243998551969625
 30
0.0
 11
39.105723023397822
 21
93.243998551969625
 31
0.0
  0
LINE
  5
1345
  8
0
 62
     0
 10
36.327598023397812
 20
93.243998551969625
 30
0.0
 11
36.327598023397812
 21
93.243998551969625
 31
0.0
  0
LINE
  5
1346
  8
0
 62
     0
 10
19.658848023397798
 20
93.243998551969625
 30
0.0
 11
19.658848023397798
 21
93.243998551969625
 31
0.0
  0
LINE
  5
1347
  8
0
 62
     0
 10
16.880723023397799
 20
93.243998551969625
 30
0.0
 11
16.880723023397799
 21
93.243998551969625
 31
0.0
  0
LINE
  5
1348
  8
0
 62
     0
 10
14.10259802339781
 20
93.243998551969625
 30
0.0
 11
14.10259802339781
 21
93.243998551969625
 31
0.0
  0
LINE
  5
1349
  8
0
 62
     0
 10
11.3244730233978
 20
93.243998551969625
 30
0.0
 11
11.3244730233978
 21
93.243998551969625
 31
0.0
  0
LINE
  5
134A
  8
0
 62
     0
 10
8.5463480233978082
 20
93.243998551969625
 30
0.0
 11
8.5463480233978082
 21
93.243998551969625
 31
0.0
  0
LINE
  5
134B
  8
0
 62
     0
 10
32.160410523397829
 20
96.022123551969685
 30
0.0
 11
32.160410523397829
 21
96.022123551969685
 31
0.0
  0
LINE
  5
134C
  8
0
 62
     0
 10
29.38228552339783
 20
96.022123551969685
 30
0.0
 11
29.38228552339783
 21
96.022123551969685
 31
0.0
  0
LINE
  5
134D
  8
0
 62
     0
 10
26.60416052339783
 20
96.022123551969685
 30
0.0
 11
26.60416052339783
 21
96.022123551969685
 31
0.0
  0
LINE
  5
134E
  8
0
 62
     0
 10
23.826035523397831
 20
96.022123551969685
 30
0.0
 11
23.826035523397831
 21
96.022123551969685
 31
0.0
  0
LINE
  5
134F
  8
0
 62
     0
 10
48.82916052339786
 20
96.022123551969685
 30
0.0
 11
48.82916052339786
 21
96.022123551969685
 31
0.0
  0
LINE
  5
1350
  8
0
 62
     0
 10
46.051035523397857
 20
96.022123551969685
 30
0.0
 11
46.051035523397857
 21
96.022123551969685
 31
0.0
  0
LINE
  5
1351
  8
0
 62
     0
 10
43.272910523397847
 20
96.022123551969685
 30
0.0
 11
43.272910523397847
 21
96.022123551969685
 31
0.0
  0
LINE
  5
1352
  8
0
 62
     0
 10
40.494785523397852
 20
96.022123551969685
 30
0.0
 11
40.494785523397852
 21
96.022123551969685
 31
0.0
  0
LINE
  5
1353
  8
0
 62
     0
 10
37.716660523397849
 20
96.022123551969685
 30
0.0
 11
37.716660523397849
 21
96.022123551969685
 31
0.0
  0
LINE
  5
1354
  8
0
 62
     0
 10
34.938535523397853
 20
96.022123551969685
 30
0.0
 11
34.938535523397853
 21
96.022123551969685
 31
0.0
  0
LINE
  5
1355
  8
0
 62
     0
 10
21.047910523397839
 20
96.022123551969685
 30
0.0
 11
21.047910523397839
 21
96.022123551969685
 31
0.0
  0
LINE
  5
1356
  8
0
 62
     0
 10
18.269785523397839
 20
96.022123551969685
 30
0.0
 11
18.269785523397839
 21
96.022123551969685
 31
0.0
  0
LINE
  5
1357
  8
0
 62
     0
 10
15.49166052339784
 20
96.022123551969685
 30
0.0
 11
15.49166052339784
 21
96.022123551969685
 31
0.0
  0
LINE
  5
1358
  8
0
 62
     0
 10
12.713535523397841
 20
96.022123551969685
 30
0.0
 11
12.713535523397841
 21
96.022123551969685
 31
0.0
  0
LINE
  5
1359
  8
0
 62
     0
 10
9.9354105233978416
 20
96.022123551969685
 30
0.0
 11
9.9354105233978416
 21
96.022123551969685
 31
0.0
  0
LINE
  5
135A
  8
0
 62
     0
 10
7.1572855233978423
 20
96.022123551969685
 30
0.0
 11
7.1572855233978423
 21
96.022123551969685
 31
0.0
  0
LINE
  5
135B
  8
0
 62
     0
 10
33.549473023397837
 20
98.800248551969673
 30
0.0
 11
33.549473023397837
 21
98.800248551969673
 31
0.0
  0
LINE
  5
135C
  8
0
 62
     0
 10
30.771348023397831
 20
98.800248551969673
 30
0.0
 11
30.771348023397831
 21
98.800248551969673
 31
0.0
  0
LINE
  5
135D
  8
0
 62
     0
 10
27.993223023397832
 20
98.800248551969673
 30
0.0
 11
27.993223023397832
 21
98.800248551969673
 31
0.0
  0
LINE
  5
135E
  8
0
 62
     0
 10
25.215098023397839
 20
98.800248551969673
 30
0.0
 11
25.215098023397839
 21
98.800248551969673
 31
0.0
  0
LINE
  5
135F
  8
0
 62
     0
 10
22.43697302339784
 20
98.800248551969673
 30
0.0
 11
22.43697302339784
 21
98.800248551969673
 31
0.0
  0
LINE
  5
1360
  8
0
 62
     0
 10
47.440098023397837
 20
98.800248551969673
 30
0.0
 11
47.440098023397837
 21
98.800248551969673
 31
0.0
  0
LINE
  5
1361
  8
0
 62
     0
 10
44.661973023397849
 20
98.800248551969673
 30
0.0
 11
44.661973023397849
 21
98.800248551969673
 31
0.0
  0
LINE
  5
1362
  8
0
 62
     0
 10
41.883848023397839
 20
98.800248551969673
 30
0.0
 11
41.883848023397839
 21
98.800248551969673
 31
0.0
  0
LINE
  5
1363
  8
0
 62
     0
 10
39.10572302339785
 20
98.800248551969673
 30
0.0
 11
39.10572302339785
 21
98.800248551969673
 31
0.0
  0
LINE
  5
1364
  8
0
 62
     0
 10
36.32759802339784
 20
98.800248551969673
 30
0.0
 11
36.32759802339784
 21
98.800248551969673
 31
0.0
  0
LINE
  5
1365
  8
0
 62
     0
 10
19.65884802339783
 20
98.800248551969673
 30
0.0
 11
19.65884802339783
 21
98.800248551969673
 31
0.0
  0
LINE
  5
1366
  8
0
 62
     0
 10
16.880723023397831
 20
98.800248551969673
 30
0.0
 11
16.880723023397831
 21
98.800248551969673
 31
0.0
  0
LINE
  5
1367
  8
0
 62
     0
 10
14.10259802339783
 20
98.800248551969673
 30
0.0
 11
14.10259802339783
 21
98.800248551969673
 31
0.0
  0
LINE
  5
1368
  8
0
 62
     0
 10
11.324473023397831
 20
98.800248551969673
 30
0.0
 11
11.324473023397831
 21
98.800248551969673
 31
0.0
  0
LINE
  5
1369
  8
0
 62
     0
 10
8.5463480233978366
 20
98.800248551969673
 30
0.0
 11
8.5463480233978366
 21
98.800248551969673
 31
0.0
  0
LINE
  5
136A
  8
0
 62
     0
 10
32.160410523397829
 20
101.57837355196961
 30
0.0
 11
32.160410523397829
 21
101.57837355196961
 31
0.0
  0
LINE
  5
136B
  8
0
 62
     0
 10
29.38228552339783
 20
101.57837355196961
 30
0.0
 11
29.38228552339783
 21
101.57837355196961
 31
0.0
  0
LINE
  5
136C
  8
0
 62
     0
 10
26.60416052339783
 20
101.57837355196961
 30
0.0
 11
26.60416052339783
 21
101.57837355196961
 31
0.0
  0
LINE
  5
136D
  8
0
 62
     0
 10
23.826035523397831
 20
101.57837355196961
 30
0.0
 11
23.826035523397831
 21
101.57837355196961
 31
0.0
  0
LINE
  5
136E
  8
0
 62
     0
 10
48.829160523397832
 20
101.57837355196961
 30
0.0
 11
48.829160523397832
 21
101.57837355196961
 31
0.0
  0
LINE
  5
136F
  8
0
 62
     0
 10
46.051035523397829
 20
101.57837355196961
 30
0.0
 11
46.051035523397829
 21
101.57837355196961
 31
0.0
  0
LINE
  5
1370
  8
0
 62
     0
 10
43.272910523397819
 20
101.57837355196961
 30
0.0
 11
43.272910523397819
 21
101.57837355196961
 31
0.0
  0
LINE
  5
1371
  8
0
 62
     0
 10
40.494785523397823
 20
101.57837355196961
 30
0.0
 11
40.494785523397823
 21
101.57837355196961
 31
0.0
  0
LINE
  5
1372
  8
0
 62
     0
 10
37.71666052339782
 20
101.57837355196961
 30
0.0
 11
37.71666052339782
 21
101.57837355196961
 31
0.0
  0
LINE
  5
1373
  8
0
 62
     0
 10
34.938535523397817
 20
101.57837355196961
 30
0.0
 11
34.938535523397817
 21
101.57837355196961
 31
0.0
  0
LINE
  5
1374
  8
0
 62
     0
 10
21.04791052339781
 20
101.57837355196961
 30
0.0
 11
21.04791052339781
 21
101.57837355196961
 31
0.0
  0
LINE
  5
1375
  8
0
 62
     0
 10
18.269785523397811
 20
101.57837355196961
 30
0.0
 11
18.269785523397811
 21
101.57837355196961
 31
0.0
  0
LINE
  5
1376
  8
0
 62
     0
 10
15.49166052339781
 20
101.57837355196961
 30
0.0
 11
15.49166052339781
 21
101.57837355196961
 31
0.0
  0
LINE
  5
1377
  8
0
 62
     0
 10
12.713535523397811
 20
101.57837355196961
 30
0.0
 11
12.713535523397811
 21
101.57837355196961
 31
0.0
  0
LINE
  5
1378
  8
0
 62
     0
 10
9.9354105233978132
 20
101.57837355196961
 30
0.0
 11
9.9354105233978132
 21
101.57837355196961
 31
0.0
  0
LINE
  5
1379
  8
0
 62
     0
 10
7.157285523397813
 20
101.57837355196961
 30
0.0
 11
7.157285523397813
 21
101.57837355196961
 31
0.0
  0
LINE
  5
137A
  8
0
 62
     0
 10
33.549473023397809
 20
104.35649855196959
 30
0.0
 11
33.549473023397809
 21
104.35649855196959
 31
0.0
  0
LINE
  5
137B
  8
0
 62
     0
 10
30.77134802339781
 20
104.35649855196959
 30
0.0
 11
30.77134802339781
 21
104.35649855196959
 31
0.0
  0
LINE
  5
137C
  8
0
 62
     0
 10
27.99322302339781
 20
104.35649855196959
 30
0.0
 11
27.99322302339781
 21
104.35649855196959
 31
0.0
  0
LINE
  5
137D
  8
0
 62
     0
 10
25.215098023397811
 20
104.35649855196959
 30
0.0
 11
25.215098023397811
 21
104.35649855196959
 31
0.0
  0
LINE
  5
137E
  8
0
 62
     0
 10
22.436973023397812
 20
104.35649855196959
 30
0.0
 11
22.436973023397812
 21
104.35649855196959
 31
0.0
  0
LINE
  5
137F
  8
0
 62
     0
 10
47.440098023397823
 20
104.35649855196959
 30
0.0
 11
47.440098023397823
 21
104.35649855196959
 31
0.0
  0
LINE
  5
1380
  8
0
 62
     0
 10
44.661973023397813
 20
104.35649855196959
 30
0.0
 11
44.661973023397813
 21
104.35649855196959
 31
0.0
  0
LINE
  5
1381
  8
0
 62
     0
 10
41.883848023397817
 20
104.35649855196959
 30
0.0
 11
41.883848023397817
 21
104.35649855196959
 31
0.0
  0
LINE
  5
1382
  8
0
 62
     0
 10
39.105723023397822
 20
104.35649855196959
 30
0.0
 11
39.105723023397822
 21
104.35649855196959
 31
0.0
  0
LINE
  5
1383
  8
0
 62
     0
 10
36.327598023397812
 20
104.35649855196959
 30
0.0
 11
36.327598023397812
 21
104.35649855196959
 31
0.0
  0
LINE
  5
1384
  8
0
 62
     0
 10
19.658848023397798
 20
104.35649855196959
 30
0.0
 11
19.658848023397798
 21
104.35649855196959
 31
0.0
  0
LINE
  5
1385
  8
0
 62
     0
 10
16.880723023397799
 20
104.35649855196959
 30
0.0
 11
16.880723023397799
 21
104.35649855196959
 31
0.0
  0
LINE
  5
1386
  8
0
 62
     0
 10
14.10259802339781
 20
104.35649855196959
 30
0.0
 11
14.10259802339781
 21
104.35649855196959
 31
0.0
  0
LINE
  5
1387
  8
0
 62
     0
 10
11.3244730233978
 20
104.35649855196959
 30
0.0
 11
11.3244730233978
 21
104.35649855196959
 31
0.0
  0
LINE
  5
1388
  8
0
 62
     0
 10
8.5463480233978082
 20
104.35649855196959
 30
0.0
 11
8.5463480233978082
 21
104.35649855196959
 31
0.0
  0
LINE
  5
1389
  8
0
 62
     0
 10
32.1604105233978
 20
107.1346235519696
 30
0.0
 11
32.1604105233978
 21
107.1346235519696
 31
0.0
  0
LINE
  5
138A
  8
0
 62
     0
 10
29.382285523397801
 20
107.1346235519696
 30
0.0
 11
29.382285523397801
 21
107.1346235519696
 31
0.0
  0
LINE
  5
138B
  8
0
 62
     0
 10
26.604160523397798
 20
107.1346235519696
 30
0.0
 11
26.604160523397798
 21
107.1346235519696
 31
0.0
  0
LINE
  5
138C
  8
0
 62
     0
 10
23.826035523397799
 20
107.1346235519696
 30
0.0
 11
23.826035523397799
 21
107.1346235519696
 31
0.0
  0
LINE
  5
138D
  8
0
 62
     0
 10
48.829160523397832
 20
107.1346235519696
 30
0.0
 11
48.829160523397832
 21
107.1346235519696
 31
0.0
  0
LINE
  5
138E
  8
0
 62
     0
 10
46.051035523397829
 20
107.1346235519696
 30
0.0
 11
46.051035523397829
 21
107.1346235519696
 31
0.0
  0
LINE
  5
138F
  8
0
 62
     0
 10
43.272910523397819
 20
107.1346235519696
 30
0.0
 11
43.272910523397819
 21
107.1346235519696
 31
0.0
  0
LINE
  5
1390
  8
0
 62
     0
 10
40.494785523397823
 20
107.1346235519696
 30
0.0
 11
40.494785523397823
 21
107.1346235519696
 31
0.0
  0
LINE
  5
1391
  8
0
 62
     0
 10
37.71666052339782
 20
107.1346235519696
 30
0.0
 11
37.71666052339782
 21
107.1346235519696
 31
0.0
  0
LINE
  5
1392
  8
0
 62
     0
 10
34.938535523397817
 20
107.1346235519696
 30
0.0
 11
34.938535523397817
 21
107.1346235519696
 31
0.0
  0
LINE
  5
1393
  8
0
 62
     0
 10
21.04791052339781
 20
107.1346235519696
 30
0.0
 11
21.04791052339781
 21
107.1346235519696
 31
0.0
  0
LINE
  5
1394
  8
0
 62
     0
 10
18.269785523397811
 20
107.1346235519696
 30
0.0
 11
18.269785523397811
 21
107.1346235519696
 31
0.0
  0
LINE
  5
1395
  8
0
 62
     0
 10
15.49166052339781
 20
107.1346235519696
 30
0.0
 11
15.49166052339781
 21
107.1346235519696
 31
0.0
  0
LINE
  5
1396
  8
0
 62
     0
 10
12.713535523397811
 20
107.1346235519696
 30
0.0
 11
12.713535523397811
 21
107.1346235519696
 31
0.0
  0
LINE
  5
1397
  8
0
 62
     0
 10
9.9354105233978132
 20
107.1346235519696
 30
0.0
 11
9.9354105233978132
 21
107.1346235519696
 31
0.0
  0
LINE
  5
1398
  8
0
 62
     0
 10
7.157285523397813
 20
107.1346235519696
 30
0.0
 11
7.157285523397813
 21
107.1346235519696
 31
0.0
  0
LINE
  5
1399
  8
0
 62
     0
 10
33.549473023397837
 20
109.9127485519697
 30
0.0
 11
33.549473023397837
 21
109.9127485519697
 31
0.0
  0
LINE
  5
139A
  8
0
 62
     0
 10
30.771348023397831
 20
109.9127485519697
 30
0.0
 11
30.771348023397831
 21
109.9127485519697
 31
0.0
  0
LINE
  5
139B
  8
0
 62
     0
 10
27.993223023397832
 20
109.9127485519697
 30
0.0
 11
27.993223023397832
 21
109.9127485519697
 31
0.0
  0
LINE
  5
139C
  8
0
 62
     0
 10
25.215098023397839
 20
109.9127485519697
 30
0.0
 11
25.215098023397839
 21
109.9127485519697
 31
0.0
  0
LINE
  5
139D
  8
0
 62
     0
 10
22.43697302339784
 20
109.9127485519697
 30
0.0
 11
22.43697302339784
 21
109.9127485519697
 31
0.0
  0
LINE
  5
139E
  8
0
 62
     0
 10
47.440098023397837
 20
109.9127485519697
 30
0.0
 11
47.440098023397837
 21
109.9127485519697
 31
0.0
  0
LINE
  5
139F
  8
0
 62
     0
 10
44.661973023397849
 20
109.9127485519697
 30
0.0
 11
44.661973023397849
 21
109.9127485519697
 31
0.0
  0
LINE
  5
13A0
  8
0
 62
     0
 10
41.883848023397839
 20
109.9127485519697
 30
0.0
 11
41.883848023397839
 21
109.9127485519697
 31
0.0
  0
LINE
  5
13A1
  8
0
 62
     0
 10
39.10572302339785
 20
109.9127485519697
 30
0.0
 11
39.10572302339785
 21
109.9127485519697
 31
0.0
  0
LINE
  5
13A2
  8
0
 62
     0
 10
36.32759802339784
 20
109.9127485519697
 30
0.0
 11
36.32759802339784
 21
109.9127485519697
 31
0.0
  0
LINE
  5
13A3
  8
0
 62
     0
 10
19.65884802339783
 20
109.9127485519697
 30
0.0
 11
19.65884802339783
 21
109.9127485519697
 31
0.0
  0
LINE
  5
13A4
  8
0
 62
     0
 10
16.880723023397831
 20
109.9127485519697
 30
0.0
 11
16.880723023397831
 21
109.9127485519697
 31
0.0
  0
LINE
  5
13A5
  8
0
 62
     0
 10
14.10259802339783
 20
109.9127485519697
 30
0.0
 11
14.10259802339783
 21
109.9127485519697
 31
0.0
  0
LINE
  5
13A6
  8
0
 62
     0
 10
11.324473023397831
 20
109.9127485519697
 30
0.0
 11
11.324473023397831
 21
109.9127485519697
 31
0.0
  0
LINE
  5
13A7
  8
0
 62
     0
 10
8.5463480233978366
 20
109.9127485519697
 30
0.0
 11
8.5463480233978366
 21
109.9127485519697
 31
0.0
  0
LINE
  5
13A8
  8
0
 62
     0
 10
32.160410523397829
 20
112.6908735519696
 30
0.0
 11
32.160410523397829
 21
112.6908735519696
 31
0.0
  0
LINE
  5
13A9
  8
0
 62
     0
 10
29.38228552339783
 20
112.6908735519696
 30
0.0
 11
29.38228552339783
 21
112.6908735519696
 31
0.0
  0
LINE
  5
13AA
  8
0
 62
     0
 10
26.60416052339783
 20
112.6908735519696
 30
0.0
 11
26.60416052339783
 21
112.6908735519696
 31
0.0
  0
LINE
  5
13AB
  8
0
 62
     0
 10
23.826035523397831
 20
112.6908735519696
 30
0.0
 11
23.826035523397831
 21
112.6908735519696
 31
0.0
  0
LINE
  5
13AC
  8
0
 62
     0
 10
48.829160523397832
 20
112.6908735519696
 30
0.0
 11
48.829160523397832
 21
112.6908735519696
 31
0.0
  0
LINE
  5
13AD
  8
0
 62
     0
 10
46.051035523397829
 20
112.6908735519696
 30
0.0
 11
46.051035523397829
 21
112.6908735519696
 31
0.0
  0
LINE
  5
13AE
  8
0
 62
     0
 10
43.272910523397819
 20
112.6908735519696
 30
0.0
 11
43.272910523397819
 21
112.6908735519696
 31
0.0
  0
LINE
  5
13AF
  8
0
 62
     0
 10
40.494785523397823
 20
112.6908735519696
 30
0.0
 11
40.494785523397823
 21
112.6908735519696
 31
0.0
  0
LINE
  5
13B0
  8
0
 62
     0
 10
37.71666052339782
 20
112.6908735519696
 30
0.0
 11
37.71666052339782
 21
112.6908735519696
 31
0.0
  0
LINE
  5
13B1
  8
0
 62
     0
 10
34.938535523397817
 20
112.6908735519696
 30
0.0
 11
34.938535523397817
 21
112.6908735519696
 31
0.0
  0
LINE
  5
13B2
  8
0
 62
     0
 10
21.04791052339781
 20
112.6908735519696
 30
0.0
 11
21.04791052339781
 21
112.6908735519696
 31
0.0
  0
LINE
  5
13B3
  8
0
 62
     0
 10
18.269785523397811
 20
112.6908735519696
 30
0.0
 11
18.269785523397811
 21
112.6908735519696
 31
0.0
  0
LINE
  5
13B4
  8
0
 62
     0
 10
15.49166052339781
 20
112.6908735519696
 30
0.0
 11
15.49166052339781
 21
112.6908735519696
 31
0.0
  0
LINE
  5
13B5
  8
0
 62
     0
 10
12.713535523397811
 20
112.6908735519696
 30
0.0
 11
12.713535523397811
 21
112.6908735519696
 31
0.0
  0
LINE
  5
13B6
  8
0
 62
     0
 10
9.9354105233978132
 20
112.6908735519696
 30
0.0
 11
9.9354105233978132
 21
112.6908735519696
 31
0.0
  0
LINE
  5
13B7
  8
0
 62
     0
 10
7.157285523397813
 20
112.6908735519696
 30
0.0
 11
7.157285523397813
 21
112.6908735519696
 31
0.0
  0
LINE
  5
13B8
  8
0
 62
     0
 10
33.549473023397809
 20
115.46899855196961
 30
0.0
 11
33.549473023397809
 21
115.46899855196961
 31
0.0
  0
LINE
  5
13B9
  8
0
 62
     0
 10
30.77134802339781
 20
115.46899855196961
 30
0.0
 11
30.77134802339781
 21
115.46899855196961
 31
0.0
  0
LINE
  5
13BA
  8
0
 62
     0
 10
27.99322302339781
 20
115.46899855196961
 30
0.0
 11
27.99322302339781
 21
115.46899855196961
 31
0.0
  0
LINE
  5
13BB
  8
0
 62
     0
 10
25.215098023397811
 20
115.46899855196961
 30
0.0
 11
25.215098023397811
 21
115.46899855196961
 31
0.0
  0
LINE
  5
13BC
  8
0
 62
     0
 10
22.436973023397812
 20
115.46899855196961
 30
0.0
 11
22.436973023397812
 21
115.46899855196961
 31
0.0
  0
LINE
  5
13BD
  8
0
 62
     0
 10
47.440098023397823
 20
115.46899855196961
 30
0.0
 11
47.440098023397823
 21
115.46899855196961
 31
0.0
  0
LINE
  5
13BE
  8
0
 62
     0
 10
44.661973023397813
 20
115.46899855196961
 30
0.0
 11
44.661973023397813
 21
115.46899855196961
 31
0.0
  0
LINE
  5
13BF
  8
0
 62
     0
 10
41.883848023397817
 20
115.46899855196961
 30
0.0
 11
41.883848023397817
 21
115.46899855196961
 31
0.0
  0
LINE
  5
13C0
  8
0
 62
     0
 10
39.105723023397822
 20
115.46899855196961
 30
0.0
 11
39.105723023397822
 21
115.46899855196961
 31
0.0
  0
LINE
  5
13C1
  8
0
 62
     0
 10
36.327598023397812
 20
115.46899855196961
 30
0.0
 11
36.327598023397812
 21
115.46899855196961
 31
0.0
  0
LINE
  5
13C2
  8
0
 62
     0
 10
19.658848023397798
 20
115.46899855196961
 30
0.0
 11
19.658848023397798
 21
115.46899855196961
 31
0.0
  0
LINE
  5
13C3
  8
0
 62
     0
 10
16.880723023397799
 20
115.46899855196961
 30
0.0
 11
16.880723023397799
 21
115.46899855196961
 31
0.0
  0
LINE
  5
13C4
  8
0
 62
     0
 10
14.10259802339781
 20
115.46899855196961
 30
0.0
 11
14.10259802339781
 21
115.46899855196961
 31
0.0
  0
LINE
  5
13C5
  8
0
 62
     0
 10
11.3244730233978
 20
115.46899855196961
 30
0.0
 11
11.3244730233978
 21
115.46899855196961
 31
0.0
  0
LINE
  5
13C6
  8
0
 62
     0
 10
8.5463480233978082
 20
115.46899855196961
 30
0.0
 11
8.5463480233978082
 21
115.46899855196961
 31
0.0
  0
LINE
  5
13C7
  8
0
 62
     0
 10
32.1604105233978
 20
118.24712355196959
 30
0.0
 11
32.1604105233978
 21
118.24712355196959
 31
0.0
  0
LINE
  5
13C8
  8
0
 62
     0
 10
29.382285523397801
 20
118.24712355196959
 30
0.0
 11
29.382285523397801
 21
118.24712355196959
 31
0.0
  0
LINE
  5
13C9
  8
0
 62
     0
 10
26.604160523397798
 20
118.24712355196959
 30
0.0
 11
26.604160523397798
 21
118.24712355196959
 31
0.0
  0
LINE
  5
13CA
  8
0
 62
     0
 10
23.826035523397799
 20
118.24712355196959
 30
0.0
 11
23.826035523397799
 21
118.24712355196959
 31
0.0
  0
LINE
  5
13CB
  8
0
 62
     0
 10
48.829160523397832
 20
118.24712355196959
 30
0.0
 11
48.829160523397832
 21
118.24712355196959
 31
0.0
  0
LINE
  5
13CC
  8
0
 62
     0
 10
46.051035523397829
 20
118.24712355196959
 30
0.0
 11
46.051035523397829
 21
118.24712355196959
 31
0.0
  0
LINE
  5
13CD
  8
0
 62
     0
 10
43.272910523397819
 20
118.24712355196959
 30
0.0
 11
43.272910523397819
 21
118.24712355196959
 31
0.0
  0
LINE
  5
13CE
  8
0
 62
     0
 10
40.494785523397823
 20
118.24712355196959
 30
0.0
 11
40.494785523397823
 21
118.24712355196959
 31
0.0
  0
LINE
  5
13CF
  8
0
 62
     0
 10
37.71666052339782
 20
118.24712355196959
 30
0.0
 11
37.71666052339782
 21
118.24712355196959
 31
0.0
  0
LINE
  5
13D0
  8
0
 62
     0
 10
34.938535523397817
 20
118.24712355196959
 30
0.0
 11
34.938535523397817
 21
118.24712355196959
 31
0.0
  0
LINE
  5
13D1
  8
0
 62
     0
 10
21.04791052339781
 20
118.24712355196959
 30
0.0
 11
21.04791052339781
 21
118.24712355196959
 31
0.0
  0
LINE
  5
13D2
  8
0
 62
     0
 10
18.269785523397811
 20
118.24712355196959
 30
0.0
 11
18.269785523397811
 21
118.24712355196959
 31
0.0
  0
LINE
  5
13D3
  8
0
 62
     0
 10
15.49166052339781
 20
118.24712355196959
 30
0.0
 11
15.49166052339781
 21
118.24712355196959
 31
0.0
  0
LINE
  5
13D4
  8
0
 62
     0
 10
12.713535523397811
 20
118.24712355196959
 30
0.0
 11
12.713535523397811
 21
118.24712355196959
 31
0.0
  0
LINE
  5
13D5
  8
0
 62
     0
 10
9.9354105233978132
 20
118.24712355196959
 30
0.0
 11
9.9354105233978132
 21
118.24712355196959
 31
0.0
  0
LINE
  5
13D6
  8
0
 62
     0
 10
7.157285523397813
 20
118.24712355196959
 30
0.0
 11
7.157285523397813
 21
118.24712355196959
 31
0.0
  0
LINE
  5
13D7
  8
0
 62
     0
 10
33.549473023397809
 20
121.0252485519696
 30
0.0
 11
33.549473023397809
 21
121.0252485519696
 31
0.0
  0
LINE
  5
13D8
  8
0
 62
     0
 10
30.77134802339781
 20
121.0252485519696
 30
0.0
 11
30.77134802339781
 21
121.0252485519696
 31
0.0
  0
LINE
  5
13D9
  8
0
 62
     0
 10
27.99322302339781
 20
121.0252485519696
 30
0.0
 11
27.99322302339781
 21
121.0252485519696
 31
0.0
  0
LINE
  5
13DA
  8
0
 62
     0
 10
25.215098023397811
 20
121.0252485519696
 30
0.0
 11
25.215098023397811
 21
121.0252485519696
 31
0.0
  0
LINE
  5
13DB
  8
0
 62
     0
 10
22.436973023397812
 20
121.0252485519696
 30
0.0
 11
22.436973023397812
 21
121.0252485519696
 31
0.0
  0
LINE
  5
13DC
  8
0
 62
     0
 10
47.440098023397823
 20
121.0252485519696
 30
0.0
 11
47.440098023397823
 21
121.0252485519696
 31
0.0
  0
LINE
  5
13DD
  8
0
 62
     0
 10
44.661973023397813
 20
121.0252485519696
 30
0.0
 11
44.661973023397813
 21
121.0252485519696
 31
0.0
  0
LINE
  5
13DE
  8
0
 62
     0
 10
41.883848023397817
 20
121.0252485519696
 30
0.0
 11
41.883848023397817
 21
121.0252485519696
 31
0.0
  0
LINE
  5
13DF
  8
0
 62
     0
 10
39.105723023397822
 20
121.0252485519696
 30
0.0
 11
39.105723023397822
 21
121.0252485519696
 31
0.0
  0
LINE
  5
13E0
  8
0
 62
     0
 10
36.327598023397812
 20
121.0252485519696
 30
0.0
 11
36.327598023397812
 21
121.0252485519696
 31
0.0
  0
LINE
  5
13E1
  8
0
 62
     0
 10
19.658848023397798
 20
121.0252485519696
 30
0.0
 11
19.658848023397798
 21
121.0252485519696
 31
0.0
  0
LINE
  5
13E2
  8
0
 62
     0
 10
16.880723023397799
 20
121.0252485519696
 30
0.0
 11
16.880723023397799
 21
121.0252485519696
 31
0.0
  0
LINE
  5
13E3
  8
0
 62
     0
 10
14.10259802339781
 20
121.0252485519696
 30
0.0
 11
14.10259802339781
 21
121.0252485519696
 31
0.0
  0
LINE
  5
13E4
  8
0
 62
     0
 10
11.3244730233978
 20
121.0252485519696
 30
0.0
 11
11.3244730233978
 21
121.0252485519696
 31
0.0
  0
LINE
  5
13E5
  8
0
 62
     0
 10
8.5463480233978082
 20
121.0252485519696
 30
0.0
 11
8.5463480233978082
 21
121.0252485519696
 31
0.0
  0
LINE
  5
13E6
  8
0
 62
     0
 10
32.160410523397829
 20
123.8033735519697
 30
0.0
 11
32.160410523397829
 21
123.8033735519697
 31
0.0
  0
LINE
  5
13E7
  8
0
 62
     0
 10
29.38228552339783
 20
123.8033735519697
 30
0.0
 11
29.38228552339783
 21
123.8033735519697
 31
0.0
  0
LINE
  5
13E8
  8
0
 62
     0
 10
26.60416052339783
 20
123.8033735519697
 30
0.0
 11
26.60416052339783
 21
123.8033735519697
 31
0.0
  0
LINE
  5
13E9
  8
0
 62
     0
 10
23.826035523397831
 20
123.8033735519697
 30
0.0
 11
23.826035523397831
 21
123.8033735519697
 31
0.0
  0
LINE
  5
13EA
  8
0
 62
     0
 10
48.82916052339786
 20
123.8033735519697
 30
0.0
 11
48.82916052339786
 21
123.8033735519697
 31
0.0
  0
LINE
  5
13EB
  8
0
 62
     0
 10
46.051035523397857
 20
123.8033735519697
 30
0.0
 11
46.051035523397857
 21
123.8033735519697
 31
0.0
  0
LINE
  5
13EC
  8
0
 62
     0
 10
43.272910523397847
 20
123.8033735519697
 30
0.0
 11
43.272910523397847
 21
123.8033735519697
 31
0.0
  0
LINE
  5
13ED
  8
0
 62
     0
 10
40.494785523397852
 20
123.8033735519697
 30
0.0
 11
40.494785523397852
 21
123.8033735519697
 31
0.0
  0
LINE
  5
13EE
  8
0
 62
     0
 10
37.716660523397849
 20
123.8033735519697
 30
0.0
 11
37.716660523397849
 21
123.8033735519697
 31
0.0
  0
LINE
  5
13EF
  8
0
 62
     0
 10
34.938535523397853
 20
123.8033735519697
 30
0.0
 11
34.938535523397853
 21
123.8033735519697
 31
0.0
  0
LINE
  5
13F0
  8
0
 62
     0
 10
21.047910523397839
 20
123.8033735519697
 30
0.0
 11
21.047910523397839
 21
123.8033735519697
 31
0.0
  0
LINE
  5
13F1
  8
0
 62
     0
 10
18.269785523397839
 20
123.8033735519697
 30
0.0
 11
18.269785523397839
 21
123.8033735519697
 31
0.0
  0
LINE
  5
13F2
  8
0
 62
     0
 10
15.49166052339784
 20
123.8033735519697
 30
0.0
 11
15.49166052339784
 21
123.8033735519697
 31
0.0
  0
LINE
  5
13F3
  8
0
 62
     0
 10
12.713535523397841
 20
123.8033735519697
 30
0.0
 11
12.713535523397841
 21
123.8033735519697
 31
0.0
  0
LINE
  5
13F4
  8
0
 62
     0
 10
9.9354105233978416
 20
123.8033735519697
 30
0.0
 11
9.9354105233978416
 21
123.8033735519697
 31
0.0
  0
LINE
  5
13F5
  8
0
 62
     0
 10
7.1572855233978423
 20
123.8033735519697
 30
0.0
 11
7.1572855233978423
 21
123.8033735519697
 31
0.0
  0
LINE
  5
13F6
  8
0
 62
     0
 10
33.549473023397837
 20
126.5814985519696
 30
0.0
 11
33.549473023397837
 21
126.5814985519696
 31
0.0
  0
LINE
  5
13F7
  8
0
 62
     0
 10
30.771348023397831
 20
126.5814985519696
 30
0.0
 11
30.771348023397831
 21
126.5814985519696
 31
0.0
  0
LINE
  5
13F8
  8
0
 62
     0
 10
27.993223023397832
 20
126.5814985519696
 30
0.0
 11
27.993223023397832
 21
126.5814985519696
 31
0.0
  0
LINE
  5
13F9
  8
0
 62
     0
 10
25.215098023397839
 20
126.5814985519696
 30
0.0
 11
25.215098023397839
 21
126.5814985519696
 31
0.0
  0
LINE
  5
13FA
  8
0
 62
     0
 10
22.43697302339784
 20
126.5814985519696
 30
0.0
 11
22.43697302339784
 21
126.5814985519696
 31
0.0
  0
LINE
  5
13FB
  8
0
 62
     0
 10
44.661973023397849
 20
126.5814985519696
 30
0.0
 11
44.661973023397849
 21
126.5814985519696
 31
0.0
  0
LINE
  5
13FC
  8
0
 62
     0
 10
41.883848023397839
 20
126.5814985519696
 30
0.0
 11
41.883848023397839
 21
126.5814985519696
 31
0.0
  0
LINE
  5
13FD
  8
0
 62
     0
 10
39.10572302339785
 20
126.5814985519696
 30
0.0
 11
39.10572302339785
 21
126.5814985519696
 31
0.0
  0
LINE
  5
13FE
  8
0
 62
     0
 10
36.32759802339784
 20
126.5814985519696
 30
0.0
 11
36.32759802339784
 21
126.5814985519696
 31
0.0
  0
LINE
  5
13FF
  8
0
 62
     0
 10
19.65884802339782
 20
126.5814985519696
 30
0.0
 11
19.65884802339782
 21
126.5814985519696
 31
0.0
  0
LINE
  5
1400
  8
0
 62
     0
 10
16.88072302339782
 20
126.5814985519696
 30
0.0
 11
16.88072302339782
 21
126.5814985519696
 31
0.0
  0
LINE
  5
1401
  8
0
 62
     0
 10
14.102598023397819
 20
126.5814985519696
 30
0.0
 11
14.102598023397819
 21
126.5814985519696
 31
0.0
  0
LINE
  5
1402
  8
0
 62
     0
 10
11.32447302339782
 20
126.5814985519696
 30
0.0
 11
11.32447302339782
 21
126.5814985519696
 31
0.0
  0
LINE
  5
1403
  8
0
 62
     0
 10
32.160410523397829
 20
129.35962355196961
 30
0.0
 11
32.160410523397829
 21
129.35962355196961
 31
0.0
  0
LINE
  5
1404
  8
0
 62
     0
 10
29.38228552339783
 20
129.35962355196961
 30
0.0
 11
29.38228552339783
 21
129.35962355196961
 31
0.0
  0
LINE
  5
1405
  8
0
 62
     0
 10
26.60416052339783
 20
129.35962355196961
 30
0.0
 11
26.60416052339783
 21
129.35962355196961
 31
0.0
  0
LINE
  5
1406
  8
0
 62
     0
 10
23.826035523397831
 20
129.35962355196961
 30
0.0
 11
23.826035523397831
 21
129.35962355196961
 31
0.0
  0
LINE
  5
1407
  8
0
 62
     0
 10
43.272910523397819
 20
129.35962355196961
 30
0.0
 11
43.272910523397819
 21
129.35962355196961
 31
0.0
  0
LINE
  5
1408
  8
0
 62
     0
 10
40.494785523397823
 20
129.35962355196961
 30
0.0
 11
40.494785523397823
 21
129.35962355196961
 31
0.0
  0
LINE
  5
1409
  8
0
 62
     0
 10
37.71666052339782
 20
129.35962355196961
 30
0.0
 11
37.71666052339782
 21
129.35962355196961
 31
0.0
  0
LINE
  5
140A
  8
0
 62
     0
 10
34.938535523397817
 20
129.35962355196961
 30
0.0
 11
34.938535523397817
 21
129.35962355196961
 31
0.0
  0
LINE
  5
140B
  8
0
 62
     0
 10
21.047910523397821
 20
129.35962355196961
 30
0.0
 11
21.047910523397821
 21
129.35962355196961
 31
0.0
  0
LINE
  5
140C
  8
0
 62
     0
 10
18.269785523397822
 20
129.35962355196961
 30
0.0
 11
18.269785523397822
 21
129.35962355196961
 31
0.0
  0
LINE
  5
140D
  8
0
 62
     0
 10
15.491660523397821
 20
129.35962355196961
 30
0.0
 11
15.491660523397821
 21
129.35962355196961
 31
0.0
  0
LINE
  5
140E
  8
0
 62
     0
 10
12.71353552339782
 20
129.35962355196961
 30
0.0
 11
12.71353552339782
 21
129.35962355196961
 31
0.0
  0
LINE
  5
140F
  8
0
 62
     0
 10
33.549473023397809
 20
132.13774855196959
 30
0.0
 11
33.549473023397809
 21
132.13774855196959
 31
0.0
  0
LINE
  5
1410
  8
0
 62
     0
 10
30.77134802339781
 20
132.13774855196959
 30
0.0
 11
30.77134802339781
 21
132.13774855196959
 31
0.0
  0
LINE
  5
1411
  8
0
 62
     0
 10
27.99322302339781
 20
132.13774855196959
 30
0.0
 11
27.99322302339781
 21
132.13774855196959
 31
0.0
  0
LINE
  5
1412
  8
0
 62
     0
 10
25.215098023397811
 20
132.13774855196959
 30
0.0
 11
25.215098023397811
 21
132.13774855196959
 31
0.0
  0
LINE
  5
1413
  8
0
 62
     0
 10
22.436973023397812
 20
132.13774855196959
 30
0.0
 11
22.436973023397812
 21
132.13774855196959
 31
0.0
  0
LINE
  5
1414
  8
0
 62
     0
 10
44.661973023397813
 20
132.13774855196959
 30
0.0
 11
44.661973023397813
 21
132.13774855196959
 31
0.0
  0
LINE
  5
1415
  8
0
 62
     0
 10
41.883848023397817
 20
132.13774855196959
 30
0.0
 11
41.883848023397817
 21
132.13774855196959
 31
0.0
  0
LINE
  5
1416
  8
0
 62
     0
 10
39.105723023397822
 20
132.13774855196959
 30
0.0
 11
39.105723023397822
 21
132.13774855196959
 31
0.0
  0
LINE
  5
1417
  8
0
 62
     0
 10
36.327598023397812
 20
132.13774855196959
 30
0.0
 11
36.327598023397812
 21
132.13774855196959
 31
0.0
  0
LINE
  5
1418
  8
0
 62
     0
 10
19.65884802339782
 20
132.13774855196959
 30
0.0
 11
19.65884802339782
 21
132.13774855196959
 31
0.0
  0
LINE
  5
1419
  8
0
 62
     0
 10
16.88072302339782
 20
132.13774855196959
 30
0.0
 11
16.88072302339782
 21
132.13774855196959
 31
0.0
  0
LINE
  5
141A
  8
0
 62
     0
 10
14.102598023397819
 20
132.13774855196959
 30
0.0
 11
14.102598023397819
 21
132.13774855196959
 31
0.0
  0
LINE
  5
141B
  8
0
 62
     0
 10
11.32447302339782
 20
132.13774855196959
 30
0.0
 11
11.32447302339782
 21
132.13774855196959
 31
0.0
  0
LINE
  5
141C
  8
0
 62
     0
 10
32.1604105233978
 20
134.91587355196961
 30
0.0
 11
32.1604105233978
 21
134.91587355196961
 31
0.0
  0
LINE
  5
141D
  8
0
 62
     0
 10
29.382285523397801
 20
134.91587355196961
 30
0.0
 11
29.382285523397801
 21
134.91587355196961
 31
0.0
  0
LINE
  5
141E
  8
0
 62
     0
 10
26.604160523397798
 20
134.91587355196961
 30
0.0
 11
26.604160523397798
 21
134.91587355196961
 31
0.0
  0
LINE
  5
141F
  8
0
 62
     0
 10
23.826035523397799
 20
134.91587355196961
 30
0.0
 11
23.826035523397799
 21
134.91587355196961
 31
0.0
  0
LINE
  5
1420
  8
0
 62
     0
 10
43.272910523397819
 20
134.91587355196961
 30
0.0
 11
43.272910523397819
 21
134.91587355196961
 31
0.0
  0
LINE
  5
1421
  8
0
 62
     0
 10
40.494785523397823
 20
134.91587355196961
 30
0.0
 11
40.494785523397823
 21
134.91587355196961
 31
0.0
  0
LINE
  5
1422
  8
0
 62
     0
 10
37.71666052339782
 20
134.91587355196961
 30
0.0
 11
37.71666052339782
 21
134.91587355196961
 31
0.0
  0
LINE
  5
1423
  8
0
 62
     0
 10
34.938535523397817
 20
134.91587355196961
 30
0.0
 11
34.938535523397817
 21
134.91587355196961
 31
0.0
  0
LINE
  5
1424
  8
0
 62
     0
 10
21.047910523397821
 20
134.91587355196961
 30
0.0
 11
21.047910523397821
 21
134.91587355196961
 31
0.0
  0
LINE
  5
1425
  8
0
 62
     0
 10
18.269785523397822
 20
134.91587355196961
 30
0.0
 11
18.269785523397822
 21
134.91587355196961
 31
0.0
  0
LINE
  5
1426
  8
0
 62
     0
 10
15.491660523397821
 20
134.91587355196961
 30
0.0
 11
15.491660523397821
 21
134.91587355196961
 31
0.0
  0
LINE
  5
1427
  8
0
 62
     0
 10
12.71353552339782
 20
134.91587355196961
 30
0.0
 11
12.71353552339782
 21
134.91587355196961
 31
0.0
  0
LINE
  5
1428
  8
0
 62
     0
 10
33.549473023397837
 20
137.69399855196971
 30
0.0
 11
33.549473023397837
 21
137.69399855196971
 31
0.0
  0
LINE
  5
1429
  8
0
 62
     0
 10
30.771348023397831
 20
137.69399855196971
 30
0.0
 11
30.771348023397831
 21
137.69399855196971
 31
0.0
  0
LINE
  5
142A
  8
0
 62
     0
 10
27.993223023397832
 20
137.69399855196971
 30
0.0
 11
27.993223023397832
 21
137.69399855196971
 31
0.0
  0
LINE
  5
142B
  8
0
 62
     0
 10
25.215098023397839
 20
137.69399855196971
 30
0.0
 11
25.215098023397839
 21
137.69399855196971
 31
0.0
  0
LINE
  5
142C
  8
0
 62
     0
 10
22.43697302339784
 20
137.69399855196971
 30
0.0
 11
22.43697302339784
 21
137.69399855196971
 31
0.0
  0
LINE
  5
142D
  8
0
 62
     0
 10
44.661973023397849
 20
137.69399855196971
 30
0.0
 11
44.661973023397849
 21
137.69399855196971
 31
0.0
  0
LINE
  5
142E
  8
0
 62
     0
 10
41.883848023397839
 20
137.69399855196971
 30
0.0
 11
41.883848023397839
 21
137.69399855196971
 31
0.0
  0
LINE
  5
142F
  8
0
 62
     0
 10
39.10572302339785
 20
137.69399855196971
 30
0.0
 11
39.10572302339785
 21
137.69399855196971
 31
0.0
  0
LINE
  5
1430
  8
0
 62
     0
 10
36.32759802339784
 20
137.69399855196971
 30
0.0
 11
36.32759802339784
 21
137.69399855196971
 31
0.0
  0
LINE
  5
1431
  8
0
 62
     0
 10
19.65884802339782
 20
137.69399855196971
 30
0.0
 11
19.65884802339782
 21
137.69399855196971
 31
0.0
  0
LINE
  5
1432
  8
0
 62
     0
 10
16.88072302339782
 20
137.69399855196971
 30
0.0
 11
16.88072302339782
 21
137.69399855196971
 31
0.0
  0
LINE
  5
1433
  8
0
 62
     0
 10
14.102598023397819
 20
137.69399855196971
 30
0.0
 11
14.102598023397819
 21
137.69399855196971
 31
0.0
  0
LINE
  5
1434
  8
0
 62
     0
 10
11.32447302339782
 20
137.69399855196971
 30
0.0
 11
11.32447302339782
 21
137.69399855196971
 31
0.0
  0
LINE
  5
1435
  8
0
 62
     0
 10
32.160410523397829
 20
140.47212355196959
 30
0.0
 11
32.160410523397829
 21
140.47212355196959
 31
0.0
  0
LINE
  5
1436
  8
0
 62
     0
 10
29.38228552339783
 20
140.47212355196959
 30
0.0
 11
29.38228552339783
 21
140.47212355196959
 31
0.0
  0
LINE
  5
1437
  8
0
 62
     0
 10
26.60416052339783
 20
140.47212355196959
 30
0.0
 11
26.60416052339783
 21
140.47212355196959
 31
0.0
  0
LINE
  5
1438
  8
0
 62
     0
 10
23.826035523397831
 20
140.47212355196959
 30
0.0
 11
23.826035523397831
 21
140.47212355196959
 31
0.0
  0
LINE
  5
1439
  8
0
 62
     0
 10
43.272910523397819
 20
140.47212355196959
 30
0.0
 11
43.272910523397819
 21
140.47212355196959
 31
0.0
  0
LINE
  5
143A
  8
0
 62
     0
 10
40.494785523397823
 20
140.47212355196959
 30
0.0
 11
40.494785523397823
 21
140.47212355196959
 31
0.0
  0
LINE
  5
143B
  8
0
 62
     0
 10
37.71666052339782
 20
140.47212355196959
 30
0.0
 11
37.71666052339782
 21
140.47212355196959
 31
0.0
  0
LINE
  5
143C
  8
0
 62
     0
 10
34.938535523397817
 20
140.47212355196959
 30
0.0
 11
34.938535523397817
 21
140.47212355196959
 31
0.0
  0
LINE
  5
143D
  8
0
 62
     0
 10
21.047910523397821
 20
140.47212355196959
 30
0.0
 11
21.047910523397821
 21
140.47212355196959
 31
0.0
  0
LINE
  5
143E
  8
0
 62
     0
 10
18.269785523397822
 20
140.47212355196959
 30
0.0
 11
18.269785523397822
 21
140.47212355196959
 31
0.0
  0
LINE
  5
143F
  8
0
 62
     0
 10
15.491660523397821
 20
140.47212355196959
 30
0.0
 11
15.491660523397821
 21
140.47212355196959
 31
0.0
  0
LINE
  5
1440
  8
0
 62
     0
 10
12.71353552339782
 20
140.47212355196959
 30
0.0
 11
12.71353552339782
 21
140.47212355196959
 31
0.0
  0
LINE
  5
1441
  8
0
 62
     0
 10
33.549473023397809
 20
143.25024855196961
 30
0.0
 11
33.549473023397809
 21
143.25024855196961
 31
0.0
  0
LINE
  5
1442
  8
0
 62
     0
 10
30.77134802339781
 20
143.25024855196961
 30
0.0
 11
30.77134802339781
 21
143.25024855196961
 31
0.0
  0
LINE
  5
1443
  8
0
 62
     0
 10
27.99322302339781
 20
143.25024855196961
 30
0.0
 11
27.99322302339781
 21
143.25024855196961
 31
0.0
  0
LINE
  5
1444
  8
0
 62
     0
 10
25.215098023397811
 20
143.25024855196961
 30
0.0
 11
25.215098023397811
 21
143.25024855196961
 31
0.0
  0
LINE
  5
1445
  8
0
 62
     0
 10
22.436973023397812
 20
143.25024855196961
 30
0.0
 11
22.436973023397812
 21
143.25024855196961
 31
0.0
  0
LINE
  5
1446
  8
0
 62
     0
 10
44.661973023397813
 20
143.25024855196961
 30
0.0
 11
44.661973023397813
 21
143.25024855196961
 31
0.0
  0
LINE
  5
1447
  8
0
 62
     0
 10
41.883848023397817
 20
143.25024855196961
 30
0.0
 11
41.883848023397817
 21
143.25024855196961
 31
0.0
  0
LINE
  5
1448
  8
0
 62
     0
 10
39.105723023397822
 20
143.25024855196961
 30
0.0
 11
39.105723023397822
 21
143.25024855196961
 31
0.0
  0
LINE
  5
1449
  8
0
 62
     0
 10
36.327598023397812
 20
143.25024855196961
 30
0.0
 11
36.327598023397812
 21
143.25024855196961
 31
0.0
  0
LINE
  5
144A
  8
0
 62
     0
 10
19.65884802339782
 20
143.25024855196961
 30
0.0
 11
19.65884802339782
 21
143.25024855196961
 31
0.0
  0
LINE
  5
144B
  8
0
 62
     0
 10
16.88072302339782
 20
143.25024855196961
 30
0.0
 11
16.88072302339782
 21
143.25024855196961
 31
0.0
  0
LINE
  5
144C
  8
0
 62
     0
 10
14.102598023397819
 20
143.25024855196961
 30
0.0
 11
14.102598023397819
 21
143.25024855196961
 31
0.0
  0
LINE
  5
144D
  8
0
 62
     0
 10
11.32447302339782
 20
143.25024855196961
 30
0.0
 11
11.32447302339782
 21
143.25024855196961
 31
0.0
  0
LINE
  5
144E
  8
0
 62
     0
 10
32.1604105233978
 20
146.02837355196959
 30
0.0
 11
32.1604105233978
 21
146.02837355196959
 31
0.0
  0
LINE
  5
144F
  8
0
 62
     0
 10
29.382285523397801
 20
146.02837355196959
 30
0.0
 11
29.382285523397801
 21
146.02837355196959
 31
0.0
  0
LINE
  5
1450
  8
0
 62
     0
 10
26.604160523397798
 20
146.02837355196959
 30
0.0
 11
26.604160523397798
 21
146.02837355196959
 31
0.0
  0
LINE
  5
1451
  8
0
 62
     0
 10
23.826035523397799
 20
146.02837355196959
 30
0.0
 11
23.826035523397799
 21
146.02837355196959
 31
0.0
  0
LINE
  5
1452
  8
0
 62
     0
 10
43.272910523397819
 20
146.02837355196959
 30
0.0
 11
43.272910523397819
 21
146.02837355196959
 31
0.0
  0
LINE
  5
1453
  8
0
 62
     0
 10
40.494785523397823
 20
146.02837355196959
 30
0.0
 11
40.494785523397823
 21
146.02837355196959
 31
0.0
  0
LINE
  5
1454
  8
0
 62
     0
 10
37.71666052339782
 20
146.02837355196959
 30
0.0
 11
37.71666052339782
 21
146.02837355196959
 31
0.0
  0
LINE
  5
1455
  8
0
 62
     0
 10
34.938535523397817
 20
146.02837355196959
 30
0.0
 11
34.938535523397817
 21
146.02837355196959
 31
0.0
  0
LINE
  5
1456
  8
0
 62
     0
 10
21.047910523397821
 20
146.02837355196959
 30
0.0
 11
21.047910523397821
 21
146.02837355196959
 31
0.0
  0
LINE
  5
1457
  8
0
 62
     0
 10
18.269785523397822
 20
146.02837355196959
 30
0.0
 11
18.269785523397822
 21
146.02837355196959
 31
0.0
  0
LINE
  5
1458
  8
0
 62
     0
 10
15.491660523397821
 20
146.02837355196959
 30
0.0
 11
15.491660523397821
 21
146.02837355196959
 31
0.0
  0
LINE
  5
1459
  8
0
 62
     0
 10
12.71353552339782
 20
146.02837355196959
 30
0.0
 11
12.71353552339782
 21
146.02837355196959
 31
0.0
  0
ENDBLK
  5
145B
  8
0
  0
BLOCK
  8
0
  2
*X64
 70
     1
 10
0.0
 20
0.0
 30
0.0
  3
*X64
  1

  0
LINE
  5
145D
  8
0
 62
     0
 10
33.549473023397837
 20
82.131498551969685
 30
0.0
 11
33.549473023397837
 21
82.131498551969685
 31
0.0
  0
LINE
  5
145E
  8
0
 62
     0
 10
30.771348023397831
 20
82.131498551969685
 30
0.0
 11
30.771348023397831
 21
82.131498551969685
 31
0.0
  0
LINE
  5
145F
  8
0
 62
     0
 10
27.993223023397832
 20
82.131498551969685
 30
0.0
 11
27.993223023397832
 21
82.131498551969685
 31
0.0
  0
LINE
  5
1460
  8
0
 62
     0
 10
25.215098023397839
 20
82.131498551969685
 30
0.0
 11
25.215098023397839
 21
82.131498551969685
 31
0.0
  0
LINE
  5
1461
  8
0
 62
     0
 10
22.43697302339784
 20
82.131498551969685
 30
0.0
 11
22.43697302339784
 21
82.131498551969685
 31
0.0
  0
LINE
  5
1462
  8
0
 62
     0
 10
44.661973023397813
 20
82.131498551969685
 30
0.0
 11
44.661973023397813
 21
82.131498551969685
 31
0.0
  0
LINE
  5
1463
  8
0
 62
     0
 10
41.883848023397817
 20
82.131498551969685
 30
0.0
 11
41.883848023397817
 21
82.131498551969685
 31
0.0
  0
LINE
  5
1464
  8
0
 62
     0
 10
39.105723023397822
 20
82.131498551969685
 30
0.0
 11
39.105723023397822
 21
82.131498551969685
 31
0.0
  0
LINE
  5
1465
  8
0
 62
     0
 10
36.327598023397812
 20
82.131498551969685
 30
0.0
 11
36.327598023397812
 21
82.131498551969685
 31
0.0
  0
LINE
  5
1466
  8
0
 62
     0
 10
19.65884802339782
 20
82.131498551969685
 30
0.0
 11
19.65884802339782
 21
82.131498551969685
 31
0.0
  0
LINE
  5
1467
  8
0
 62
     0
 10
16.88072302339782
 20
82.131498551969685
 30
0.0
 11
16.88072302339782
 21
82.131498551969685
 31
0.0
  0
LINE
  5
1468
  8
0
 62
     0
 10
14.102598023397819
 20
82.131498551969685
 30
0.0
 11
14.102598023397819
 21
82.131498551969685
 31
0.0
  0
LINE
  5
1469
  8
0
 62
     0
 10
11.32447302339782
 20
82.131498551969685
 30
0.0
 11
11.32447302339782
 21
82.131498551969685
 31
0.0
  0
LINE
  5
146A
  8
0
 62
     0
 10
32.160410523397829
 20
84.909623551969673
 30
0.0
 11
32.160410523397829
 21
84.909623551969673
 31
0.0
  0
LINE
  5
146B
  8
0
 62
     0
 10
29.38228552339783
 20
84.909623551969673
 30
0.0
 11
29.38228552339783
 21
84.909623551969673
 31
0.0
  0
LINE
  5
146C
  8
0
 62
     0
 10
26.60416052339783
 20
84.909623551969673
 30
0.0
 11
26.60416052339783
 21
84.909623551969673
 31
0.0
  0
LINE
  5
146D
  8
0
 62
     0
 10
23.826035523397831
 20
84.909623551969673
 30
0.0
 11
23.826035523397831
 21
84.909623551969673
 31
0.0
  0
LINE
  5
146E
  8
0
 62
     0
 10
43.272910523397798
 20
84.909623551969673
 30
0.0
 11
43.272910523397798
 21
84.909623551969673
 31
0.0
  0
LINE
  5
146F
  8
0
 62
     0
 10
40.494785523397788
 20
84.909623551969673
 30
0.0
 11
40.494785523397788
 21
84.909623551969673
 31
0.0
  0
LINE
  5
1470
  8
0
 62
     0
 10
37.716660523397792
 20
84.909623551969673
 30
0.0
 11
37.716660523397792
 21
84.909623551969673
 31
0.0
  0
LINE
  5
1471
  8
0
 62
     0
 10
34.938535523397789
 20
84.909623551969673
 30
0.0
 11
34.938535523397789
 21
84.909623551969673
 31
0.0
  0
LINE
  5
1472
  8
0
 62
     0
 10
21.047910523397821
 20
84.909623551969673
 30
0.0
 11
21.047910523397821
 21
84.909623551969673
 31
0.0
  0
LINE
  5
1473
  8
0
 62
     0
 10
18.269785523397822
 20
84.909623551969673
 30
0.0
 11
18.269785523397822
 21
84.909623551969673
 31
0.0
  0
LINE
  5
1474
  8
0
 62
     0
 10
15.491660523397821
 20
84.909623551969673
 30
0.0
 11
15.491660523397821
 21
84.909623551969673
 31
0.0
  0
LINE
  5
1475
  8
0
 62
     0
 10
12.71353552339782
 20
84.909623551969673
 30
0.0
 11
12.71353552339782
 21
84.909623551969673
 31
0.0
  0
LINE
  5
1476
  8
0
 62
     0
 10
33.549473023397809
 20
87.687748551969662
 30
0.0
 11
33.549473023397809
 21
87.687748551969662
 31
0.0
  0
LINE
  5
1477
  8
0
 62
     0
 10
30.77134802339781
 20
87.687748551969662
 30
0.0
 11
30.77134802339781
 21
87.687748551969662
 31
0.0
  0
LINE
  5
1478
  8
0
 62
     0
 10
27.99322302339781
 20
87.687748551969662
 30
0.0
 11
27.99322302339781
 21
87.687748551969662
 31
0.0
  0
LINE
  5
1479
  8
0
 62
     0
 10
25.215098023397811
 20
87.687748551969662
 30
0.0
 11
25.215098023397811
 21
87.687748551969662
 31
0.0
  0
LINE
  5
147A
  8
0
 62
     0
 10
22.436973023397812
 20
87.687748551969662
 30
0.0
 11
22.436973023397812
 21
87.687748551969662
 31
0.0
  0
LINE
  5
147B
  8
0
 62
     0
 10
44.661973023397813
 20
87.687748551969662
 30
0.0
 11
44.661973023397813
 21
87.687748551969662
 31
0.0
  0
LINE
  5
147C
  8
0
 62
     0
 10
41.883848023397817
 20
87.687748551969662
 30
0.0
 11
41.883848023397817
 21
87.687748551969662
 31
0.0
  0
LINE
  5
147D
  8
0
 62
     0
 10
39.105723023397822
 20
87.687748551969662
 30
0.0
 11
39.105723023397822
 21
87.687748551969662
 31
0.0
  0
LINE
  5
147E
  8
0
 62
     0
 10
36.327598023397812
 20
87.687748551969662
 30
0.0
 11
36.327598023397812
 21
87.687748551969662
 31
0.0
  0
LINE
  5
147F
  8
0
 62
     0
 10
19.65884802339782
 20
87.687748551969662
 30
0.0
 11
19.65884802339782
 21
87.687748551969662
 31
0.0
  0
LINE
  5
1480
  8
0
 62
     0
 10
16.88072302339782
 20
87.687748551969662
 30
0.0
 11
16.88072302339782
 21
87.687748551969662
 31
0.0
  0
LINE
  5
1481
  8
0
 62
     0
 10
14.102598023397819
 20
87.687748551969662
 30
0.0
 11
14.102598023397819
 21
87.687748551969662
 31
0.0
  0
LINE
  5
1482
  8
0
 62
     0
 10
11.32447302339782
 20
87.687748551969662
 30
0.0
 11
11.32447302339782
 21
87.687748551969662
 31
0.0
  0
LINE
  5
1483
  8
0
 62
     0
 10
32.1604105233978
 20
90.465873551969651
 30
0.0
 11
32.1604105233978
 21
90.465873551969651
 31
0.0
  0
LINE
  5
1484
  8
0
 62
     0
 10
29.382285523397801
 20
90.465873551969651
 30
0.0
 11
29.382285523397801
 21
90.465873551969651
 31
0.0
  0
LINE
  5
1485
  8
0
 62
     0
 10
26.604160523397798
 20
90.465873551969651
 30
0.0
 11
26.604160523397798
 21
90.465873551969651
 31
0.0
  0
LINE
  5
1486
  8
0
 62
     0
 10
23.826035523397799
 20
90.465873551969651
 30
0.0
 11
23.826035523397799
 21
90.465873551969651
 31
0.0
  0
LINE
  5
1487
  8
0
 62
     0
 10
43.272910523397847
 20
90.465873551969651
 30
0.0
 11
43.272910523397847
 21
90.465873551969651
 31
0.0
  0
LINE
  5
1488
  8
0
 62
     0
 10
40.494785523397852
 20
90.465873551969651
 30
0.0
 11
40.494785523397852
 21
90.465873551969651
 31
0.0
  0
LINE
  5
1489
  8
0
 62
     0
 10
37.716660523397849
 20
90.465873551969651
 30
0.0
 11
37.716660523397849
 21
90.465873551969651
 31
0.0
  0
LINE
  5
148A
  8
0
 62
     0
 10
34.938535523397853
 20
90.465873551969651
 30
0.0
 11
34.938535523397853
 21
90.465873551969651
 31
0.0
  0
LINE
  5
148B
  8
0
 62
     0
 10
21.047910523397821
 20
90.465873551969651
 30
0.0
 11
21.047910523397821
 21
90.465873551969651
 31
0.0
  0
LINE
  5
148C
  8
0
 62
     0
 10
18.269785523397822
 20
90.465873551969651
 30
0.0
 11
18.269785523397822
 21
90.465873551969651
 31
0.0
  0
LINE
  5
148D
  8
0
 62
     0
 10
15.491660523397821
 20
90.465873551969651
 30
0.0
 11
15.491660523397821
 21
90.465873551969651
 31
0.0
  0
LINE
  5
148E
  8
0
 62
     0
 10
12.71353552339782
 20
90.465873551969651
 30
0.0
 11
12.71353552339782
 21
90.465873551969651
 31
0.0
  0
LINE
  5
148F
  8
0
 62
     0
 10
33.549473023397809
 20
93.243998551969625
 30
0.0
 11
33.549473023397809
 21
93.243998551969625
 31
0.0
  0
LINE
  5
1490
  8
0
 62
     0
 10
30.77134802339781
 20
93.243998551969625
 30
0.0
 11
30.77134802339781
 21
93.243998551969625
 31
0.0
  0
LINE
  5
1491
  8
0
 62
     0
 10
27.99322302339781
 20
93.243998551969625
 30
0.0
 11
27.99322302339781
 21
93.243998551969625
 31
0.0
  0
LINE
  5
1492
  8
0
 62
     0
 10
25.215098023397811
 20
93.243998551969625
 30
0.0
 11
25.215098023397811
 21
93.243998551969625
 31
0.0
  0
LINE
  5
1493
  8
0
 62
     0
 10
22.436973023397812
 20
93.243998551969625
 30
0.0
 11
22.436973023397812
 21
93.243998551969625
 31
0.0
  0
LINE
  5
1494
  8
0
 62
     0
 10
47.440098023397823
 20
93.243998551969625
 30
0.0
 11
47.440098023397823
 21
93.243998551969625
 31
0.0
  0
LINE
  5
1495
  8
0
 62
     0
 10
44.661973023397813
 20
93.243998551969625
 30
0.0
 11
44.661973023397813
 21
93.243998551969625
 31
0.0
  0
LINE
  5
1496
  8
0
 62
     0
 10
41.883848023397817
 20
93.243998551969625
 30
0.0
 11
41.883848023397817
 21
93.243998551969625
 31
0.0
  0
LINE
  5
1497
  8
0
 62
     0
 10
39.105723023397822
 20
93.243998551969625
 30
0.0
 11
39.105723023397822
 21
93.243998551969625
 31
0.0
  0
LINE
  5
1498
  8
0
 62
     0
 10
36.327598023397812
 20
93.243998551969625
 30
0.0
 11
36.327598023397812
 21
93.243998551969625
 31
0.0
  0
LINE
  5
1499
  8
0
 62
     0
 10
19.658848023397798
 20
93.243998551969625
 30
0.0
 11
19.658848023397798
 21
93.243998551969625
 31
0.0
  0
LINE
  5
149A
  8
0
 62
     0
 10
16.880723023397799
 20
93.243998551969625
 30
0.0
 11
16.880723023397799
 21
93.243998551969625
 31
0.0
  0
LINE
  5
149B
  8
0
 62
     0
 10
14.10259802339781
 20
93.243998551969625
 30
0.0
 11
14.10259802339781
 21
93.243998551969625
 31
0.0
  0
LINE
  5
149C
  8
0
 62
     0
 10
11.3244730233978
 20
93.243998551969625
 30
0.0
 11
11.3244730233978
 21
93.243998551969625
 31
0.0
  0
LINE
  5
149D
  8
0
 62
     0
 10
8.5463480233978082
 20
93.243998551969625
 30
0.0
 11
8.5463480233978082
 21
93.243998551969625
 31
0.0
  0
LINE
  5
149E
  8
0
 62
     0
 10
32.160410523397829
 20
96.022123551969685
 30
0.0
 11
32.160410523397829
 21
96.022123551969685
 31
0.0
  0
LINE
  5
149F
  8
0
 62
     0
 10
29.38228552339783
 20
96.022123551969685
 30
0.0
 11
29.38228552339783
 21
96.022123551969685
 31
0.0
  0
LINE
  5
14A0
  8
0
 62
     0
 10
26.60416052339783
 20
96.022123551969685
 30
0.0
 11
26.60416052339783
 21
96.022123551969685
 31
0.0
  0
LINE
  5
14A1
  8
0
 62
     0
 10
23.826035523397831
 20
96.022123551969685
 30
0.0
 11
23.826035523397831
 21
96.022123551969685
 31
0.0
  0
LINE
  5
14A2
  8
0
 62
     0
 10
48.82916052339786
 20
96.022123551969685
 30
0.0
 11
48.82916052339786
 21
96.022123551969685
 31
0.0
  0
LINE
  5
14A3
  8
0
 62
     0
 10
46.051035523397857
 20
96.022123551969685
 30
0.0
 11
46.051035523397857
 21
96.022123551969685
 31
0.0
  0
LINE
  5
14A4
  8
0
 62
     0
 10
43.272910523397847
 20
96.022123551969685
 30
0.0
 11
43.272910523397847
 21
96.022123551969685
 31
0.0
  0
LINE
  5
14A5
  8
0
 62
     0
 10
40.494785523397852
 20
96.022123551969685
 30
0.0
 11
40.494785523397852
 21
96.022123551969685
 31
0.0
  0
LINE
  5
14A6
  8
0
 62
     0
 10
37.716660523397849
 20
96.022123551969685
 30
0.0
 11
37.716660523397849
 21
96.022123551969685
 31
0.0
  0
LINE
  5
14A7
  8
0
 62
     0
 10
34.938535523397853
 20
96.022123551969685
 30
0.0
 11
34.938535523397853
 21
96.022123551969685
 31
0.0
  0
LINE
  5
14A8
  8
0
 62
     0
 10
21.047910523397839
 20
96.022123551969685
 30
0.0
 11
21.047910523397839
 21
96.022123551969685
 31
0.0
  0
LINE
  5
14A9
  8
0
 62
     0
 10
18.269785523397839
 20
96.022123551969685
 30
0.0
 11
18.269785523397839
 21
96.022123551969685
 31
0.0
  0
LINE
  5
14AA
  8
0
 62
     0
 10
15.49166052339784
 20
96.022123551969685
 30
0.0
 11
15.49166052339784
 21
96.022123551969685
 31
0.0
  0
LINE
  5
14AB
  8
0
 62
     0
 10
12.713535523397841
 20
96.022123551969685
 30
0.0
 11
12.713535523397841
 21
96.022123551969685
 31
0.0
  0
LINE
  5
14AC
  8
0
 62
     0
 10
9.9354105233978416
 20
96.022123551969685
 30
0.0
 11
9.9354105233978416
 21
96.022123551969685
 31
0.0
  0
LINE
  5
14AD
  8
0
 62
     0
 10
7.1572855233978423
 20
96.022123551969685
 30
0.0
 11
7.1572855233978423
 21
96.022123551969685
 31
0.0
  0
LINE
  5
14AE
  8
0
 62
     0
 10
33.549473023397837
 20
98.800248551969673
 30
0.0
 11
33.549473023397837
 21
98.800248551969673
 31
0.0
  0
LINE
  5
14AF
  8
0
 62
     0
 10
30.771348023397831
 20
98.800248551969673
 30
0.0
 11
30.771348023397831
 21
98.800248551969673
 31
0.0
  0
LINE
  5
14B0
  8
0
 62
     0
 10
27.993223023397832
 20
98.800248551969673
 30
0.0
 11
27.993223023397832
 21
98.800248551969673
 31
0.0
  0
LINE
  5
14B1
  8
0
 62
     0
 10
25.215098023397839
 20
98.800248551969673
 30
0.0
 11
25.215098023397839
 21
98.800248551969673
 31
0.0
  0
LINE
  5
14B2
  8
0
 62
     0
 10
22.43697302339784
 20
98.800248551969673
 30
0.0
 11
22.43697302339784
 21
98.800248551969673
 31
0.0
  0
LINE
  5
14B3
  8
0
 62
     0
 10
47.440098023397837
 20
98.800248551969673
 30
0.0
 11
47.440098023397837
 21
98.800248551969673
 31
0.0
  0
LINE
  5
14B4
  8
0
 62
     0
 10
44.661973023397849
 20
98.800248551969673
 30
0.0
 11
44.661973023397849
 21
98.800248551969673
 31
0.0
  0
LINE
  5
14B5
  8
0
 62
     0
 10
41.883848023397839
 20
98.800248551969673
 30
0.0
 11
41.883848023397839
 21
98.800248551969673
 31
0.0
  0
LINE
  5
14B6
  8
0
 62
     0
 10
39.10572302339785
 20
98.800248551969673
 30
0.0
 11
39.10572302339785
 21
98.800248551969673
 31
0.0
  0
LINE
  5
14B7
  8
0
 62
     0
 10
36.32759802339784
 20
98.800248551969673
 30
0.0
 11
36.32759802339784
 21
98.800248551969673
 31
0.0
  0
LINE
  5
14B8
  8
0
 62
     0
 10
19.65884802339783
 20
98.800248551969673
 30
0.0
 11
19.65884802339783
 21
98.800248551969673
 31
0.0
  0
LINE
  5
14B9
  8
0
 62
     0
 10
16.880723023397831
 20
98.800248551969673
 30
0.0
 11
16.880723023397831
 21
98.800248551969673
 31
0.0
  0
LINE
  5
14BA
  8
0
 62
     0
 10
14.10259802339783
 20
98.800248551969673
 30
0.0
 11
14.10259802339783
 21
98.800248551969673
 31
0.0
  0
LINE
  5
14BB
  8
0
 62
     0
 10
11.324473023397831
 20
98.800248551969673
 30
0.0
 11
11.324473023397831
 21
98.800248551969673
 31
0.0
  0
LINE
  5
14BC
  8
0
 62
     0
 10
8.5463480233978366
 20
98.800248551969673
 30
0.0
 11
8.5463480233978366
 21
98.800248551969673
 31
0.0
  0
LINE
  5
14BD
  8
0
 62
     0
 10
32.160410523397829
 20
101.57837355196961
 30
0.0
 11
32.160410523397829
 21
101.57837355196961
 31
0.0
  0
LINE
  5
14BE
  8
0
 62
     0
 10
29.38228552339783
 20
101.57837355196961
 30
0.0
 11
29.38228552339783
 21
101.57837355196961
 31
0.0
  0
LINE
  5
14BF
  8
0
 62
     0
 10
26.60416052339783
 20
101.57837355196961
 30
0.0
 11
26.60416052339783
 21
101.57837355196961
 31
0.0
  0
LINE
  5
14C0
  8
0
 62
     0
 10
23.826035523397831
 20
101.57837355196961
 30
0.0
 11
23.826035523397831
 21
101.57837355196961
 31
0.0
  0
LINE
  5
14C1
  8
0
 62
     0
 10
48.829160523397832
 20
101.57837355196961
 30
0.0
 11
48.829160523397832
 21
101.57837355196961
 31
0.0
  0
LINE
  5
14C2
  8
0
 62
     0
 10
46.051035523397829
 20
101.57837355196961
 30
0.0
 11
46.051035523397829
 21
101.57837355196961
 31
0.0
  0
LINE
  5
14C3
  8
0
 62
     0
 10
43.272910523397819
 20
101.57837355196961
 30
0.0
 11
43.272910523397819
 21
101.57837355196961
 31
0.0
  0
LINE
  5
14C4
  8
0
 62
     0
 10
40.494785523397823
 20
101.57837355196961
 30
0.0
 11
40.494785523397823
 21
101.57837355196961
 31
0.0
  0
LINE
  5
14C5
  8
0
 62
     0
 10
37.71666052339782
 20
101.57837355196961
 30
0.0
 11
37.71666052339782
 21
101.57837355196961
 31
0.0
  0
LINE
  5
14C6
  8
0
 62
     0
 10
34.938535523397817
 20
101.57837355196961
 30
0.0
 11
34.938535523397817
 21
101.57837355196961
 31
0.0
  0
LINE
  5
14C7
  8
0
 62
     0
 10
21.04791052339781
 20
101.57837355196961
 30
0.0
 11
21.04791052339781
 21
101.57837355196961
 31
0.0
  0
LINE
  5
14C8
  8
0
 62
     0
 10
18.269785523397811
 20
101.57837355196961
 30
0.0
 11
18.269785523397811
 21
101.57837355196961
 31
0.0
  0
LINE
  5
14C9
  8
0
 62
     0
 10
15.49166052339781
 20
101.57837355196961
 30
0.0
 11
15.49166052339781
 21
101.57837355196961
 31
0.0
  0
LINE
  5
14CA
  8
0
 62
     0
 10
12.713535523397811
 20
101.57837355196961
 30
0.0
 11
12.713535523397811
 21
101.57837355196961
 31
0.0
  0
LINE
  5
14CB
  8
0
 62
     0
 10
9.9354105233978132
 20
101.57837355196961
 30
0.0
 11
9.9354105233978132
 21
101.57837355196961
 31
0.0
  0
LINE
  5
14CC
  8
0
 62
     0
 10
7.157285523397813
 20
101.57837355196961
 30
0.0
 11
7.157285523397813
 21
101.57837355196961
 31
0.0
  0
LINE
  5
14CD
  8
0
 62
     0
 10
33.549473023397809
 20
104.35649855196959
 30
0.0
 11
33.549473023397809
 21
104.35649855196959
 31
0.0
  0
LINE
  5
14CE
  8
0
 62
     0
 10
30.77134802339781
 20
104.35649855196959
 30
0.0
 11
30.77134802339781
 21
104.35649855196959
 31
0.0
  0
LINE
  5
14CF
  8
0
 62
     0
 10
27.99322302339781
 20
104.35649855196959
 30
0.0
 11
27.99322302339781
 21
104.35649855196959
 31
0.0
  0
LINE
  5
14D0
  8
0
 62
     0
 10
25.215098023397811
 20
104.35649855196959
 30
0.0
 11
25.215098023397811
 21
104.35649855196959
 31
0.0
  0
LINE
  5
14D1
  8
0
 62
     0
 10
22.436973023397812
 20
104.35649855196959
 30
0.0
 11
22.436973023397812
 21
104.35649855196959
 31
0.0
  0
LINE
  5
14D2
  8
0
 62
     0
 10
47.440098023397823
 20
104.35649855196959
 30
0.0
 11
47.440098023397823
 21
104.35649855196959
 31
0.0
  0
LINE
  5
14D3
  8
0
 62
     0
 10
44.661973023397813
 20
104.35649855196959
 30
0.0
 11
44.661973023397813
 21
104.35649855196959
 31
0.0
  0
LINE
  5
14D4
  8
0
 62
     0
 10
41.883848023397817
 20
104.35649855196959
 30
0.0
 11
41.883848023397817
 21
104.35649855196959
 31
0.0
  0
LINE
  5
14D5
  8
0
 62
     0
 10
39.105723023397822
 20
104.35649855196959
 30
0.0
 11
39.105723023397822
 21
104.35649855196959
 31
0.0
  0
LINE
  5
14D6
  8
0
 62
     0
 10
36.327598023397812
 20
104.35649855196959
 30
0.0
 11
36.327598023397812
 21
104.35649855196959
 31
0.0
  0
LINE
  5
14D7
  8
0
 62
     0
 10
19.658848023397798
 20
104.35649855196959
 30
0.0
 11
19.658848023397798
 21
104.35649855196959
 31
0.0
  0
LINE
  5
14D8
  8
0
 62
     0
 10
16.880723023397799
 20
104.35649855196959
 30
0.0
 11
16.880723023397799
 21
104.35649855196959
 31
0.0
  0
LINE
  5
14D9
  8
0
 62
     0
 10
14.10259802339781
 20
104.35649855196959
 30
0.0
 11
14.10259802339781
 21
104.35649855196959
 31
0.0
  0
LINE
  5
14DA
  8
0
 62
     0
 10
11.3244730233978
 20
104.35649855196959
 30
0.0
 11
11.3244730233978
 21
104.35649855196959
 31
0.0
  0
LINE
  5
14DB
  8
0
 62
     0
 10
8.5463480233978082
 20
104.35649855196959
 30
0.0
 11
8.5463480233978082
 21
104.35649855196959
 31
0.0
  0
LINE
  5
14DC
  8
0
 62
     0
 10
32.1604105233978
 20
107.1346235519696
 30
0.0
 11
32.1604105233978
 21
107.1346235519696
 31
0.0
  0
LINE
  5
14DD
  8
0
 62
     0
 10
29.382285523397801
 20
107.1346235519696
 30
0.0
 11
29.382285523397801
 21
107.1346235519696
 31
0.0
  0
LINE
  5
14DE
  8
0
 62
     0
 10
26.604160523397798
 20
107.1346235519696
 30
0.0
 11
26.604160523397798
 21
107.1346235519696
 31
0.0
  0
LINE
  5
14DF
  8
0
 62
     0
 10
23.826035523397799
 20
107.1346235519696
 30
0.0
 11
23.826035523397799
 21
107.1346235519696
 31
0.0
  0
LINE
  5
14E0
  8
0
 62
     0
 10
48.829160523397832
 20
107.1346235519696
 30
0.0
 11
48.829160523397832
 21
107.1346235519696
 31
0.0
  0
LINE
  5
14E1
  8
0
 62
     0
 10
46.051035523397829
 20
107.1346235519696
 30
0.0
 11
46.051035523397829
 21
107.1346235519696
 31
0.0
  0
LINE
  5
14E2
  8
0
 62
     0
 10
43.272910523397819
 20
107.1346235519696
 30
0.0
 11
43.272910523397819
 21
107.1346235519696
 31
0.0
  0
LINE
  5
14E3
  8
0
 62
     0
 10
40.494785523397823
 20
107.1346235519696
 30
0.0
 11
40.494785523397823
 21
107.1346235519696
 31
0.0
  0
LINE
  5
14E4
  8
0
 62
     0
 10
37.71666052339782
 20
107.1346235519696
 30
0.0
 11
37.71666052339782
 21
107.1346235519696
 31
0.0
  0
LINE
  5
14E5
  8
0
 62
     0
 10
34.938535523397817
 20
107.1346235519696
 30
0.0
 11
34.938535523397817
 21
107.1346235519696
 31
0.0
  0
LINE
  5
14E6
  8
0
 62
     0
 10
21.04791052339781
 20
107.1346235519696
 30
0.0
 11
21.04791052339781
 21
107.1346235519696
 31
0.0
  0
LINE
  5
14E7
  8
0
 62
     0
 10
18.269785523397811
 20
107.1346235519696
 30
0.0
 11
18.269785523397811
 21
107.1346235519696
 31
0.0
  0
LINE
  5
14E8
  8
0
 62
     0
 10
15.49166052339781
 20
107.1346235519696
 30
0.0
 11
15.49166052339781
 21
107.1346235519696
 31
0.0
  0
LINE
  5
14E9
  8
0
 62
     0
 10
12.713535523397811
 20
107.1346235519696
 30
0.0
 11
12.713535523397811
 21
107.1346235519696
 31
0.0
  0
LINE
  5
14EA
  8
0
 62
     0
 10
9.9354105233978132
 20
107.1346235519696
 30
0.0
 11
9.9354105233978132
 21
107.1346235519696
 31
0.0
  0
LINE
  5
14EB
  8
0
 62
     0
 10
7.157285523397813
 20
107.1346235519696
 30
0.0
 11
7.157285523397813
 21
107.1346235519696
 31
0.0
  0
LINE
  5
14EC
  8
0
 62
     0
 10
33.549473023397837
 20
109.9127485519697
 30
0.0
 11
33.549473023397837
 21
109.9127485519697
 31
0.0
  0
LINE
  5
14ED
  8
0
 62
     0
 10
30.771348023397831
 20
109.9127485519697
 30
0.0
 11
30.771348023397831
 21
109.9127485519697
 31
0.0
  0
LINE
  5
14EE
  8
0
 62
     0
 10
27.993223023397832
 20
109.9127485519697
 30
0.0
 11
27.993223023397832
 21
109.9127485519697
 31
0.0
  0
LINE
  5
14EF
  8
0
 62
     0
 10
25.215098023397839
 20
109.9127485519697
 30
0.0
 11
25.215098023397839
 21
109.9127485519697
 31
0.0
  0
LINE
  5
14F0
  8
0
 62
     0
 10
22.43697302339784
 20
109.9127485519697
 30
0.0
 11
22.43697302339784
 21
109.9127485519697
 31
0.0
  0
LINE
  5
14F1
  8
0
 62
     0
 10
47.440098023397837
 20
109.9127485519697
 30
0.0
 11
47.440098023397837
 21
109.9127485519697
 31
0.0
  0
LINE
  5
14F2
  8
0
 62
     0
 10
44.661973023397849
 20
109.9127485519697
 30
0.0
 11
44.661973023397849
 21
109.9127485519697
 31
0.0
  0
LINE
  5
14F3
  8
0
 62
     0
 10
41.883848023397839
 20
109.9127485519697
 30
0.0
 11
41.883848023397839
 21
109.9127485519697
 31
0.0
  0
LINE
  5
14F4
  8
0
 62
     0
 10
39.10572302339785
 20
109.9127485519697
 30
0.0
 11
39.10572302339785
 21
109.9127485519697
 31
0.0
  0
LINE
  5
14F5
  8
0
 62
     0
 10
36.32759802339784
 20
109.9127485519697
 30
0.0
 11
36.32759802339784
 21
109.9127485519697
 31
0.0
  0
LINE
  5
14F6
  8
0
 62
     0
 10
19.65884802339783
 20
109.9127485519697
 30
0.0
 11
19.65884802339783
 21
109.9127485519697
 31
0.0
  0
LINE
  5
14F7
  8
0
 62
     0
 10
16.880723023397831
 20
109.9127485519697
 30
0.0
 11
16.880723023397831
 21
109.9127485519697
 31
0.0
  0
LINE
  5
14F8
  8
0
 62
     0
 10
14.10259802339783
 20
109.9127485519697
 30
0.0
 11
14.10259802339783
 21
109.9127485519697
 31
0.0
  0
LINE
  5
14F9
  8
0
 62
     0
 10
11.324473023397831
 20
109.9127485519697
 30
0.0
 11
11.324473023397831
 21
109.9127485519697
 31
0.0
  0
LINE
  5
14FA
  8
0
 62
     0
 10
8.5463480233978366
 20
109.9127485519697
 30
0.0
 11
8.5463480233978366
 21
109.9127485519697
 31
0.0
  0
LINE
  5
14FB
  8
0
 62
     0
 10
32.160410523397829
 20
112.6908735519696
 30
0.0
 11
32.160410523397829
 21
112.6908735519696
 31
0.0
  0
LINE
  5
14FC
  8
0
 62
     0
 10
29.38228552339783
 20
112.6908735519696
 30
0.0
 11
29.38228552339783
 21
112.6908735519696
 31
0.0
  0
LINE
  5
14FD
  8
0
 62
     0
 10
26.60416052339783
 20
112.6908735519696
 30
0.0
 11
26.60416052339783
 21
112.6908735519696
 31
0.0
  0
LINE
  5
14FE
  8
0
 62
     0
 10
23.826035523397831
 20
112.6908735519696
 30
0.0
 11
23.826035523397831
 21
112.6908735519696
 31
0.0
  0
LINE
  5
14FF
  8
0
 62
     0
 10
48.829160523397832
 20
112.6908735519696
 30
0.0
 11
48.829160523397832
 21
112.6908735519696
 31
0.0
  0
LINE
  5
1500
  8
0
 62
     0
 10
46.051035523397829
 20
112.6908735519696
 30
0.0
 11
46.051035523397829
 21
112.6908735519696
 31
0.0
  0
LINE
  5
1501
  8
0
 62
     0
 10
43.272910523397819
 20
112.6908735519696
 30
0.0
 11
43.272910523397819
 21
112.6908735519696
 31
0.0
  0
LINE
  5
1502
  8
0
 62
     0
 10
40.494785523397823
 20
112.6908735519696
 30
0.0
 11
40.494785523397823
 21
112.6908735519696
 31
0.0
  0
LINE
  5
1503
  8
0
 62
     0
 10
37.71666052339782
 20
112.6908735519696
 30
0.0
 11
37.71666052339782
 21
112.6908735519696
 31
0.0
  0
LINE
  5
1504
  8
0
 62
     0
 10
34.938535523397817
 20
112.6908735519696
 30
0.0
 11
34.938535523397817
 21
112.6908735519696
 31
0.0
  0
LINE
  5
1505
  8
0
 62
     0
 10
21.04791052339781
 20
112.6908735519696
 30
0.0
 11
21.04791052339781
 21
112.6908735519696
 31
0.0
  0
LINE
  5
1506
  8
0
 62
     0
 10
18.269785523397811
 20
112.6908735519696
 30
0.0
 11
18.269785523397811
 21
112.6908735519696
 31
0.0
  0
LINE
  5
1507
  8
0
 62
     0
 10
15.49166052339781
 20
112.6908735519696
 30
0.0
 11
15.49166052339781
 21
112.6908735519696
 31
0.0
  0
LINE
  5
1508
  8
0
 62
     0
 10
12.713535523397811
 20
112.6908735519696
 30
0.0
 11
12.713535523397811
 21
112.6908735519696
 31
0.0
  0
LINE
  5
1509
  8
0
 62
     0
 10
9.9354105233978132
 20
112.6908735519696
 30
0.0
 11
9.9354105233978132
 21
112.6908735519696
 31
0.0
  0
LINE
  5
150A
  8
0
 62
     0
 10
7.157285523397813
 20
112.6908735519696
 30
0.0
 11
7.157285523397813
 21
112.6908735519696
 31
0.0
  0
LINE
  5
150B
  8
0
 62
     0
 10
33.549473023397809
 20
115.46899855196961
 30
0.0
 11
33.549473023397809
 21
115.46899855196961
 31
0.0
  0
LINE
  5
150C
  8
0
 62
     0
 10
30.77134802339781
 20
115.46899855196961
 30
0.0
 11
30.77134802339781
 21
115.46899855196961
 31
0.0
  0
LINE
  5
150D
  8
0
 62
     0
 10
27.99322302339781
 20
115.46899855196961
 30
0.0
 11
27.99322302339781
 21
115.46899855196961
 31
0.0
  0
LINE
  5
150E
  8
0
 62
     0
 10
25.215098023397811
 20
115.46899855196961
 30
0.0
 11
25.215098023397811
 21
115.46899855196961
 31
0.0
  0
LINE
  5
150F
  8
0
 62
     0
 10
22.436973023397812
 20
115.46899855196961
 30
0.0
 11
22.436973023397812
 21
115.46899855196961
 31
0.0
  0
LINE
  5
1510
  8
0
 62
     0
 10
47.440098023397823
 20
115.46899855196961
 30
0.0
 11
47.440098023397823
 21
115.46899855196961
 31
0.0
  0
LINE
  5
1511
  8
0
 62
     0
 10
44.661973023397813
 20
115.46899855196961
 30
0.0
 11
44.661973023397813
 21
115.46899855196961
 31
0.0
  0
LINE
  5
1512
  8
0
 62
     0
 10
41.883848023397817
 20
115.46899855196961
 30
0.0
 11
41.883848023397817
 21
115.46899855196961
 31
0.0
  0
LINE
  5
1513
  8
0
 62
     0
 10
39.105723023397822
 20
115.46899855196961
 30
0.0
 11
39.105723023397822
 21
115.46899855196961
 31
0.0
  0
LINE
  5
1514
  8
0
 62
     0
 10
36.327598023397812
 20
115.46899855196961
 30
0.0
 11
36.327598023397812
 21
115.46899855196961
 31
0.0
  0
LINE
  5
1515
  8
0
 62
     0
 10
19.658848023397798
 20
115.46899855196961
 30
0.0
 11
19.658848023397798
 21
115.46899855196961
 31
0.0
  0
LINE
  5
1516
  8
0
 62
     0
 10
16.880723023397799
 20
115.46899855196961
 30
0.0
 11
16.880723023397799
 21
115.46899855196961
 31
0.0
  0
LINE
  5
1517
  8
0
 62
     0
 10
14.10259802339781
 20
115.46899855196961
 30
0.0
 11
14.10259802339781
 21
115.46899855196961
 31
0.0
  0
LINE
  5
1518
  8
0
 62
     0
 10
11.3244730233978
 20
115.46899855196961
 30
0.0
 11
11.3244730233978
 21
115.46899855196961
 31
0.0
  0
LINE
  5
1519
  8
0
 62
     0
 10
8.5463480233978082
 20
115.46899855196961
 30
0.0
 11
8.5463480233978082
 21
115.46899855196961
 31
0.0
  0
LINE
  5
151A
  8
0
 62
     0
 10
32.1604105233978
 20
118.24712355196959
 30
0.0
 11
32.1604105233978
 21
118.24712355196959
 31
0.0
  0
LINE
  5
151B
  8
0
 62
     0
 10
29.382285523397801
 20
118.24712355196959
 30
0.0
 11
29.382285523397801
 21
118.24712355196959
 31
0.0
  0
LINE
  5
151C
  8
0
 62
     0
 10
26.604160523397798
 20
118.24712355196959
 30
0.0
 11
26.604160523397798
 21
118.24712355196959
 31
0.0
  0
LINE
  5
151D
  8
0
 62
     0
 10
23.826035523397799
 20
118.24712355196959
 30
0.0
 11
23.826035523397799
 21
118.24712355196959
 31
0.0
  0
LINE
  5
151E
  8
0
 62
     0
 10
48.829160523397832
 20
118.24712355196959
 30
0.0
 11
48.829160523397832
 21
118.24712355196959
 31
0.0
  0
LINE
  5
151F
  8
0
 62
     0
 10
46.051035523397829
 20
118.24712355196959
 30
0.0
 11
46.051035523397829
 21
118.24712355196959
 31
0.0
  0
LINE
  5
1520
  8
0
 62
     0
 10
43.272910523397819
 20
118.24712355196959
 30
0.0
 11
43.272910523397819
 21
118.24712355196959
 31
0.0
  0
LINE
  5
1521
  8
0
 62
     0
 10
40.494785523397823
 20
118.24712355196959
 30
0.0
 11
40.494785523397823
 21
118.24712355196959
 31
0.0
  0
LINE
  5
1522
  8
0
 62
     0
 10
37.71666052339782
 20
118.24712355196959
 30
0.0
 11
37.71666052339782
 21
118.24712355196959
 31
0.0
  0
LINE
  5
1523
  8
0
 62
     0
 10
34.938535523397817
 20
118.24712355196959
 30
0.0
 11
34.938535523397817
 21
118.24712355196959
 31
0.0
  0
LINE
  5
1524
  8
0
 62
     0
 10
21.04791052339781
 20
118.24712355196959
 30
0.0
 11
21.04791052339781
 21
118.24712355196959
 31
0.0
  0
LINE
  5
1525
  8
0
 62
     0
 10
18.269785523397811
 20
118.24712355196959
 30
0.0
 11
18.269785523397811
 21
118.24712355196959
 31
0.0
  0
LINE
  5
1526
  8
0
 62
     0
 10
15.49166052339781
 20
118.24712355196959
 30
0.0
 11
15.49166052339781
 21
118.24712355196959
 31
0.0
  0
LINE
  5
1527
  8
0
 62
     0
 10
12.713535523397811
 20
118.24712355196959
 30
0.0
 11
12.713535523397811
 21
118.24712355196959
 31
0.0
  0
LINE
  5
1528
  8
0
 62
     0
 10
9.9354105233978132
 20
118.24712355196959
 30
0.0
 11
9.9354105233978132
 21
118.24712355196959
 31
0.0
  0
LINE
  5
1529
  8
0
 62
     0
 10
7.157285523397813
 20
118.24712355196959
 30
0.0
 11
7.157285523397813
 21
118.24712355196959
 31
0.0
  0
LINE
  5
152A
  8
0
 62
     0
 10
33.549473023397809
 20
121.0252485519696
 30
0.0
 11
33.549473023397809
 21
121.0252485519696
 31
0.0
  0
LINE
  5
152B
  8
0
 62
     0
 10
30.77134802339781
 20
121.0252485519696
 30
0.0
 11
30.77134802339781
 21
121.0252485519696
 31
0.0
  0
LINE
  5
152C
  8
0
 62
     0
 10
27.99322302339781
 20
121.0252485519696
 30
0.0
 11
27.99322302339781
 21
121.0252485519696
 31
0.0
  0
LINE
  5
152D
  8
0
 62
     0
 10
25.215098023397811
 20
121.0252485519696
 30
0.0
 11
25.215098023397811
 21
121.0252485519696
 31
0.0
  0
LINE
  5
152E
  8
0
 62
     0
 10
22.436973023397812
 20
121.0252485519696
 30
0.0
 11
22.436973023397812
 21
121.0252485519696
 31
0.0
  0
LINE
  5
152F
  8
0
 62
     0
 10
47.440098023397823
 20
121.0252485519696
 30
0.0
 11
47.440098023397823
 21
121.0252485519696
 31
0.0
  0
LINE
  5
1530
  8
0
 62
     0
 10
44.661973023397813
 20
121.0252485519696
 30
0.0
 11
44.661973023397813
 21
121.0252485519696
 31
0.0
  0
LINE
  5
1531
  8
0
 62
     0
 10
41.883848023397817
 20
121.0252485519696
 30
0.0
 11
41.883848023397817
 21
121.0252485519696
 31
0.0
  0
LINE
  5
1532
  8
0
 62
     0
 10
39.105723023397822
 20
121.0252485519696
 30
0.0
 11
39.105723023397822
 21
121.0252485519696
 31
0.0
  0
LINE
  5
1533
  8
0
 62
     0
 10
36.327598023397812
 20
121.0252485519696
 30
0.0
 11
36.327598023397812
 21
121.0252485519696
 31
0.0
  0
LINE
  5
1534
  8
0
 62
     0
 10
19.658848023397798
 20
121.0252485519696
 30
0.0
 11
19.658848023397798
 21
121.0252485519696
 31
0.0
  0
LINE
  5
1535
  8
0
 62
     0
 10
16.880723023397799
 20
121.0252485519696
 30
0.0
 11
16.880723023397799
 21
121.0252485519696
 31
0.0
  0
LINE
  5
1536
  8
0
 62
     0
 10
14.10259802339781
 20
121.0252485519696
 30
0.0
 11
14.10259802339781
 21
121.0252485519696
 31
0.0
  0
LINE
  5
1537
  8
0
 62
     0
 10
11.3244730233978
 20
121.0252485519696
 30
0.0
 11
11.3244730233978
 21
121.0252485519696
 31
0.0
  0
LINE
  5
1538
  8
0
 62
     0
 10
8.5463480233978082
 20
121.0252485519696
 30
0.0
 11
8.5463480233978082
 21
121.0252485519696
 31
0.0
  0
LINE
  5
1539
  8
0
 62
     0
 10
32.160410523397829
 20
123.8033735519697
 30
0.0
 11
32.160410523397829
 21
123.8033735519697
 31
0.0
  0
LINE
  5
153A
  8
0
 62
     0
 10
29.38228552339783
 20
123.8033735519697
 30
0.0
 11
29.38228552339783
 21
123.8033735519697
 31
0.0
  0
LINE
  5
153B
  8
0
 62
     0
 10
26.60416052339783
 20
123.8033735519697
 30
0.0
 11
26.60416052339783
 21
123.8033735519697
 31
0.0
  0
LINE
  5
153C
  8
0
 62
     0
 10
23.826035523397831
 20
123.8033735519697
 30
0.0
 11
23.826035523397831
 21
123.8033735519697
 31
0.0
  0
LINE
  5
153D
  8
0
 62
     0
 10
48.82916052339786
 20
123.8033735519697
 30
0.0
 11
48.82916052339786
 21
123.8033735519697
 31
0.0
  0
LINE
  5
153E
  8
0
 62
     0
 10
46.051035523397857
 20
123.8033735519697
 30
0.0
 11
46.051035523397857
 21
123.8033735519697
 31
0.0
  0
LINE
  5
153F
  8
0
 62
     0
 10
43.272910523397847
 20
123.8033735519697
 30
0.0
 11
43.272910523397847
 21
123.8033735519697
 31
0.0
  0
LINE
  5
1540
  8
0
 62
     0
 10
40.494785523397852
 20
123.8033735519697
 30
0.0
 11
40.494785523397852
 21
123.8033735519697
 31
0.0
  0
LINE
  5
1541
  8
0
 62
     0
 10
37.716660523397849
 20
123.8033735519697
 30
0.0
 11
37.716660523397849
 21
123.8033735519697
 31
0.0
  0
LINE
  5
1542
  8
0
 62
     0
 10
34.938535523397853
 20
123.8033735519697
 30
0.0
 11
34.938535523397853
 21
123.8033735519697
 31
0.0
  0
LINE
  5
1543
  8
0
 62
     0
 10
21.047910523397839
 20
123.8033735519697
 30
0.0
 11
21.047910523397839
 21
123.8033735519697
 31
0.0
  0
LINE
  5
1544
  8
0
 62
     0
 10
18.269785523397839
 20
123.8033735519697
 30
0.0
 11
18.269785523397839
 21
123.8033735519697
 31
0.0
  0
LINE
  5
1545
  8
0
 62
     0
 10
15.49166052339784
 20
123.8033735519697
 30
0.0
 11
15.49166052339784
 21
123.8033735519697
 31
0.0
  0
LINE
  5
1546
  8
0
 62
     0
 10
12.713535523397841
 20
123.8033735519697
 30
0.0
 11
12.713535523397841
 21
123.8033735519697
 31
0.0
  0
LINE
  5
1547
  8
0
 62
     0
 10
9.9354105233978416
 20
123.8033735519697
 30
0.0
 11
9.9354105233978416
 21
123.8033735519697
 31
0.0
  0
LINE
  5
1548
  8
0
 62
     0
 10
7.1572855233978423
 20
123.8033735519697
 30
0.0
 11
7.1572855233978423
 21
123.8033735519697
 31
0.0
  0
LINE
  5
1549
  8
0
 62
     0
 10
33.549473023397837
 20
126.5814985519696
 30
0.0
 11
33.549473023397837
 21
126.5814985519696
 31
0.0
  0
LINE
  5
154A
  8
0
 62
     0
 10
30.771348023397831
 20
126.5814985519696
 30
0.0
 11
30.771348023397831
 21
126.5814985519696
 31
0.0
  0
LINE
  5
154B
  8
0
 62
     0
 10
27.993223023397832
 20
126.5814985519696
 30
0.0
 11
27.993223023397832
 21
126.5814985519696
 31
0.0
  0
LINE
  5
154C
  8
0
 62
     0
 10
25.215098023397839
 20
126.5814985519696
 30
0.0
 11
25.215098023397839
 21
126.5814985519696
 31
0.0
  0
LINE
  5
154D
  8
0
 62
     0
 10
22.43697302339784
 20
126.5814985519696
 30
0.0
 11
22.43697302339784
 21
126.5814985519696
 31
0.0
  0
LINE
  5
154E
  8
0
 62
     0
 10
44.661973023397849
 20
126.5814985519696
 30
0.0
 11
44.661973023397849
 21
126.5814985519696
 31
0.0
  0
LINE
  5
154F
  8
0
 62
     0
 10
41.883848023397839
 20
126.5814985519696
 30
0.0
 11
41.883848023397839
 21
126.5814985519696
 31
0.0
  0
LINE
  5
1550
  8
0
 62
     0
 10
39.10572302339785
 20
126.5814985519696
 30
0.0
 11
39.10572302339785
 21
126.5814985519696
 31
0.0
  0
LINE
  5
1551
  8
0
 62
     0
 10
36.32759802339784
 20
126.5814985519696
 30
0.0
 11
36.32759802339784
 21
126.5814985519696
 31
0.0
  0
LINE
  5
1552
  8
0
 62
     0
 10
19.65884802339782
 20
126.5814985519696
 30
0.0
 11
19.65884802339782
 21
126.5814985519696
 31
0.0
  0
LINE
  5
1553
  8
0
 62
     0
 10
16.88072302339782
 20
126.5814985519696
 30
0.0
 11
16.88072302339782
 21
126.5814985519696
 31
0.0
  0
LINE
  5
1554
  8
0
 62
     0
 10
14.102598023397819
 20
126.5814985519696
 30
0.0
 11
14.102598023397819
 21
126.5814985519696
 31
0.0
  0
LINE
  5
1555
  8
0
 62
     0
 10
11.32447302339782
 20
126.5814985519696
 30
0.0
 11
11.32447302339782
 21
126.5814985519696
 31
0.0
  0
LINE
  5
1556
  8
0
 62
     0
 10
32.160410523397829
 20
129.35962355196961
 30
0.0
 11
32.160410523397829
 21
129.35962355196961
 31
0.0
  0
LINE
  5
1557
  8
0
 62
     0
 10
29.38228552339783
 20
129.35962355196961
 30
0.0
 11
29.38228552339783
 21
129.35962355196961
 31
0.0
  0
LINE
  5
1558
  8
0
 62
     0
 10
26.60416052339783
 20
129.35962355196961
 30
0.0
 11
26.60416052339783
 21
129.35962355196961
 31
0.0
  0
LINE
  5
1559
  8
0
 62
     0
 10
23.826035523397831
 20
129.35962355196961
 30
0.0
 11
23.826035523397831
 21
129.35962355196961
 31
0.0
  0
LINE
  5
155A
  8
0
 62
     0
 10
43.272910523397819
 20
129.35962355196961
 30
0.0
 11
43.272910523397819
 21
129.35962355196961
 31
0.0
  0
LINE
  5
155B
  8
0
 62
     0
 10
40.494785523397823
 20
129.35962355196961
 30
0.0
 11
40.494785523397823
 21
129.35962355196961
 31
0.0
  0
LINE
  5
155C
  8
0
 62
     0
 10
37.71666052339782
 20
129.35962355196961
 30
0.0
 11
37.71666052339782
 21
129.35962355196961
 31
0.0
  0
LINE
  5
155D
  8
0
 62
     0
 10
34.938535523397817
 20
129.35962355196961
 30
0.0
 11
34.938535523397817
 21
129.35962355196961
 31
0.0
  0
LINE
  5
155E
  8
0
 62
     0
 10
21.047910523397821
 20
129.35962355196961
 30
0.0
 11
21.047910523397821
 21
129.35962355196961
 31
0.0
  0
LINE
  5
155F
  8
0
 62
     0
 10
18.269785523397822
 20
129.35962355196961
 30
0.0
 11
18.269785523397822
 21
129.35962355196961
 31
0.0
  0
LINE
  5
1560
  8
0
 62
     0
 10
15.491660523397821
 20
129.35962355196961
 30
0.0
 11
15.491660523397821
 21
129.35962355196961
 31
0.0
  0
LINE
  5
1561
  8
0
 62
     0
 10
12.71353552339782
 20
129.35962355196961
 30
0.0
 11
12.71353552339782
 21
129.35962355196961
 31
0.0
  0
LINE
  5
1562
  8
0
 62
     0
 10
33.549473023397809
 20
132.13774855196959
 30
0.0
 11
33.549473023397809
 21
132.13774855196959
 31
0.0
  0
LINE
  5
1563
  8
0
 62
     0
 10
30.77134802339781
 20
132.13774855196959
 30
0.0
 11
30.77134802339781
 21
132.13774855196959
 31
0.0
  0
LINE
  5
1564
  8
0
 62
     0
 10
27.99322302339781
 20
132.13774855196959
 30
0.0
 11
27.99322302339781
 21
132.13774855196959
 31
0.0
  0
LINE
  5
1565
  8
0
 62
     0
 10
25.215098023397811
 20
132.13774855196959
 30
0.0
 11
25.215098023397811
 21
132.13774855196959
 31
0.0
  0
LINE
  5
1566
  8
0
 62
     0
 10
22.436973023397812
 20
132.13774855196959
 30
0.0
 11
22.436973023397812
 21
132.13774855196959
 31
0.0
  0
LINE
  5
1567
  8
0
 62
     0
 10
44.661973023397813
 20
132.13774855196959
 30
0.0
 11
44.661973023397813
 21
132.13774855196959
 31
0.0
  0
LINE
  5
1568
  8
0
 62
     0
 10
41.883848023397817
 20
132.13774855196959
 30
0.0
 11
41.883848023397817
 21
132.13774855196959
 31
0.0
  0
LINE
  5
1569
  8
0
 62
     0
 10
39.105723023397822
 20
132.13774855196959
 30
0.0
 11
39.105723023397822
 21
132.13774855196959
 31
0.0
  0
LINE
  5
156A
  8
0
 62
     0
 10
36.327598023397812
 20
132.13774855196959
 30
0.0
 11
36.327598023397812
 21
132.13774855196959
 31
0.0
  0
LINE
  5
156B
  8
0
 62
     0
 10
19.65884802339782
 20
132.13774855196959
 30
0.0
 11
19.65884802339782
 21
132.13774855196959
 31
0.0
  0
LINE
  5
156C
  8
0
 62
     0
 10
16.88072302339782
 20
132.13774855196959
 30
0.0
 11
16.88072302339782
 21
132.13774855196959
 31
0.0
  0
LINE
  5
156D
  8
0
 62
     0
 10
14.102598023397819
 20
132.13774855196959
 30
0.0
 11
14.102598023397819
 21
132.13774855196959
 31
0.0
  0
LINE
  5
156E
  8
0
 62
     0
 10
11.32447302339782
 20
132.13774855196959
 30
0.0
 11
11.32447302339782
 21
132.13774855196959
 31
0.0
  0
LINE
  5
156F
  8
0
 62
     0
 10
32.1604105233978
 20
134.91587355196961
 30
0.0
 11
32.1604105233978
 21
134.91587355196961
 31
0.0
  0
LINE
  5
1570
  8
0
 62
     0
 10
29.382285523397801
 20
134.91587355196961
 30
0.0
 11
29.382285523397801
 21
134.91587355196961
 31
0.0
  0
LINE
  5
1571
  8
0
 62
     0
 10
26.604160523397798
 20
134.91587355196961
 30
0.0
 11
26.604160523397798
 21
134.91587355196961
 31
0.0
  0
LINE
  5
1572
  8
0
 62
     0
 10
23.826035523397799
 20
134.91587355196961
 30
0.0
 11
23.826035523397799
 21
134.91587355196961
 31
0.0
  0
LINE
  5
1573
  8
0
 62
     0
 10
43.272910523397819
 20
134.91587355196961
 30
0.0
 11
43.272910523397819
 21
134.91587355196961
 31
0.0
  0
LINE
  5
1574
  8
0
 62
     0
 10
40.494785523397823
 20
134.91587355196961
 30
0.0
 11
40.494785523397823
 21
134.91587355196961
 31
0.0
  0
LINE
  5
1575
  8
0
 62
     0
 10
37.71666052339782
 20
134.91587355196961
 30
0.0
 11
37.71666052339782
 21
134.91587355196961
 31
0.0
  0
LINE
  5
1576
  8
0
 62
     0
 10
34.938535523397817
 20
134.91587355196961
 30
0.0
 11
34.938535523397817
 21
134.91587355196961
 31
0.0
  0
LINE
  5
1577
  8
0
 62
     0
 10
21.047910523397821
 20
134.91587355196961
 30
0.0
 11
21.047910523397821
 21
134.91587355196961
 31
0.0
  0
LINE
  5
1578
  8
0
 62
     0
 10
18.269785523397822
 20
134.91587355196961
 30
0.0
 11
18.269785523397822
 21
134.91587355196961
 31
0.0
  0
LINE
  5
1579
  8
0
 62
     0
 10
15.491660523397821
 20
134.91587355196961
 30
0.0
 11
15.491660523397821
 21
134.91587355196961
 31
0.0
  0
LINE
  5
157A
  8
0
 62
     0
 10
12.71353552339782
 20
134.91587355196961
 30
0.0
 11
12.71353552339782
 21
134.91587355196961
 31
0.0
  0
LINE
  5
157B
  8
0
 62
     0
 10
33.549473023397837
 20
137.69399855196971
 30
0.0
 11
33.549473023397837
 21
137.69399855196971
 31
0.0
  0
LINE
  5
157C
  8
0
 62
     0
 10
30.771348023397831
 20
137.69399855196971
 30
0.0
 11
30.771348023397831
 21
137.69399855196971
 31
0.0
  0
LINE
  5
157D
  8
0
 62
     0
 10
27.993223023397832
 20
137.69399855196971
 30
0.0
 11
27.993223023397832
 21
137.69399855196971
 31
0.0
  0
LINE
  5
157E
  8
0
 62
     0
 10
25.215098023397839
 20
137.69399855196971
 30
0.0
 11
25.215098023397839
 21
137.69399855196971
 31
0.0
  0
LINE
  5
157F
  8
0
 62
     0
 10
22.43697302339784
 20
137.69399855196971
 30
0.0
 11
22.43697302339784
 21
137.69399855196971
 31
0.0
  0
LINE
  5
1580
  8
0
 62
     0
 10
44.661973023397849
 20
137.69399855196971
 30
0.0
 11
44.661973023397849
 21
137.69399855196971
 31
0.0
  0
LINE
  5
1581
  8
0
 62
     0
 10
41.883848023397839
 20
137.69399855196971
 30
0.0
 11
41.883848023397839
 21
137.69399855196971
 31
0.0
  0
LINE
  5
1582
  8
0
 62
     0
 10
39.10572302339785
 20
137.69399855196971
 30
0.0
 11
39.10572302339785
 21
137.69399855196971
 31
0.0
  0
LINE
  5
1583
  8
0
 62
     0
 10
36.32759802339784
 20
137.69399855196971
 30
0.0
 11
36.32759802339784
 21
137.69399855196971
 31
0.0
  0
LINE
  5
1584
  8
0
 62
     0
 10
19.65884802339782
 20
137.69399855196971
 30
0.0
 11
19.65884802339782
 21
137.69399855196971
 31
0.0
  0
LINE
  5
1585
  8
0
 62
     0
 10
16.88072302339782
 20
137.69399855196971
 30
0.0
 11
16.88072302339782
 21
137.69399855196971
 31
0.0
  0
LINE
  5
1586
  8
0
 62
     0
 10
14.102598023397819
 20
137.69399855196971
 30
0.0
 11
14.102598023397819
 21
137.69399855196971
 31
0.0
  0
LINE
  5
1587
  8
0
 62
     0
 10
11.32447302339782
 20
137.69399855196971
 30
0.0
 11
11.32447302339782
 21
137.69399855196971
 31
0.0
  0
LINE
  5
1588
  8
0
 62
     0
 10
32.160410523397829
 20
140.47212355196959
 30
0.0
 11
32.160410523397829
 21
140.47212355196959
 31
0.0
  0
LINE
  5
1589
  8
0
 62
     0
 10
29.38228552339783
 20
140.47212355196959
 30
0.0
 11
29.38228552339783
 21
140.47212355196959
 31
0.0
  0
LINE
  5
158A
  8
0
 62
     0
 10
26.60416052339783
 20
140.47212355196959
 30
0.0
 11
26.60416052339783
 21
140.47212355196959
 31
0.0
  0
LINE
  5
158B
  8
0
 62
     0
 10
23.826035523397831
 20
140.47212355196959
 30
0.0
 11
23.826035523397831
 21
140.47212355196959
 31
0.0
  0
LINE
  5
158C
  8
0
 62
     0
 10
43.272910523397819
 20
140.47212355196959
 30
0.0
 11
43.272910523397819
 21
140.47212355196959
 31
0.0
  0
LINE
  5
158D
  8
0
 62
     0
 10
40.494785523397823
 20
140.47212355196959
 30
0.0
 11
40.494785523397823
 21
140.47212355196959
 31
0.0
  0
LINE
  5
158E
  8
0
 62
     0
 10
37.71666052339782
 20
140.47212355196959
 30
0.0
 11
37.71666052339782
 21
140.47212355196959
 31
0.0
  0
LINE
  5
158F
  8
0
 62
     0
 10
34.938535523397817
 20
140.47212355196959
 30
0.0
 11
34.938535523397817
 21
140.47212355196959
 31
0.0
  0
LINE
  5
1590
  8
0
 62
     0
 10
21.047910523397821
 20
140.47212355196959
 30
0.0
 11
21.047910523397821
 21
140.47212355196959
 31
0.0
  0
LINE
  5
1591
  8
0
 62
     0
 10
18.269785523397822
 20
140.47212355196959
 30
0.0
 11
18.269785523397822
 21
140.47212355196959
 31
0.0
  0
LINE
  5
1592
  8
0
 62
     0
 10
15.491660523397821
 20
140.47212355196959
 30
0.0
 11
15.491660523397821
 21
140.47212355196959
 31
0.0
  0
LINE
  5
1593
  8
0
 62
     0
 10
12.71353552339782
 20
140.47212355196959
 30
0.0
 11
12.71353552339782
 21
140.47212355196959
 31
0.0
  0
LINE
  5
1594
  8
0
 62
     0
 10
33.549473023397809
 20
143.25024855196961
 30
0.0
 11
33.549473023397809
 21
143.25024855196961
 31
0.0
  0
LINE
  5
1595
  8
0
 62
     0
 10
30.77134802339781
 20
143.25024855196961
 30
0.0
 11
30.77134802339781
 21
143.25024855196961
 31
0.0
  0
LINE
  5
1596
  8
0
 62
     0
 10
27.99322302339781
 20
143.25024855196961
 30
0.0
 11
27.99322302339781
 21
143.25024855196961
 31
0.0
  0
LINE
  5
1597
  8
0
 62
     0
 10
25.215098023397811
 20
143.25024855196961
 30
0.0
 11
25.215098023397811
 21
143.25024855196961
 31
0.0
  0
LINE
  5
1598
  8
0
 62
     0
 10
22.436973023397812
 20
143.25024855196961
 30
0.0
 11
22.436973023397812
 21
143.25024855196961
 31
0.0
  0
LINE
  5
1599
  8
0
 62
     0
 10
44.661973023397813
 20
143.25024855196961
 30
0.0
 11
44.661973023397813
 21
143.25024855196961
 31
0.0
  0
LINE
  5
159A
  8
0
 62
     0
 10
41.883848023397817
 20
143.25024855196961
 30
0.0
 11
41.883848023397817
 21
143.25024855196961
 31
0.0
  0
LINE
  5
159B
  8
0
 62
     0
 10
39.105723023397822
 20
143.25024855196961
 30
0.0
 11
39.105723023397822
 21
143.25024855196961
 31
0.0
  0
LINE
  5
159C
  8
0
 62
     0
 10
36.327598023397812
 20
143.25024855196961
 30
0.0
 11
36.327598023397812
 21
143.25024855196961
 31
0.0
  0
LINE
  5
159D
  8
0
 62
     0
 10
19.65884802339782
 20
143.25024855196961
 30
0.0
 11
19.65884802339782
 21
143.25024855196961
 31
0.0
  0
LINE
  5
159E
  8
0
 62
     0
 10
16.88072302339782
 20
143.25024855196961
 30
0.0
 11
16.88072302339782
 21
143.25024855196961
 31
0.0
  0
LINE
  5
159F
  8
0
 62
     0
 10
14.102598023397819
 20
143.25024855196961
 30
0.0
 11
14.102598023397819
 21
143.25024855196961
 31
0.0
  0
LINE
  5
15A0
  8
0
 62
     0
 10
11.32447302339782
 20
143.25024855196961
 30
0.0
 11
11.32447302339782
 21
143.25024855196961
 31
0.0
  0
LINE
  5
15A1
  8
0
 62
     0
 10
32.1604105233978
 20
146.02837355196959
 30
0.0
 11
32.1604105233978
 21
146.02837355196959
 31
0.0
  0
LINE
  5
15A2
  8
0
 62
     0
 10
29.382285523397801
 20
146.02837355196959
 30
0.0
 11
29.382285523397801
 21
146.02837355196959
 31
0.0
  0
LINE
  5
15A3
  8
0
 62
     0
 10
26.604160523397798
 20
146.02837355196959
 30
0.0
 11
26.604160523397798
 21
146.02837355196959
 31
0.0
  0
LINE
  5
15A4
  8
0
 62
     0
 10
23.826035523397799
 20
146.02837355196959
 30
0.0
 11
23.826035523397799
 21
146.02837355196959
 31
0.0
  0
LINE
  5
15A5
  8
0
 62
     0
 10
43.272910523397819
 20
146.02837355196959
 30
0.0
 11
43.272910523397819
 21
146.02837355196959
 31
0.0
  0
LINE
  5
15A6
  8
0
 62
     0
 10
40.494785523397823
 20
146.02837355196959
 30
0.0
 11
40.494785523397823
 21
146.02837355196959
 31
0.0
  0
LINE
  5
15A7
  8
0
 62
     0
 10
37.71666052339782
 20
146.02837355196959
 30
0.0
 11
37.71666052339782
 21
146.02837355196959
 31
0.0
  0
LINE
  5
15A8
  8
0
 62
     0
 10
34.938535523397817
 20
146.02837355196959
 30
0.0
 11
34.938535523397817
 21
146.02837355196959
 31
0.0
  0
LINE
  5
15A9
  8
0
 62
     0
 10
21.047910523397821
 20
146.02837355196959
 30
0.0
 11
21.047910523397821
 21
146.02837355196959
 31
0.0
  0
LINE
  5
15AA
  8
0
 62
     0
 10
18.269785523397822
 20
146.02837355196959
 30
0.0
 11
18.269785523397822
 21
146.02837355196959
 31
0.0
  0
LINE
  5
15AB
  8
0
 62
     0
 10
15.491660523397821
 20
146.02837355196959
 30
0.0
 11
15.491660523397821
 21
146.02837355196959
 31
0.0
  0
LINE
  5
15AC
  8
0
 62
     0
 10
12.71353552339782
 20
146.02837355196959
 30
0.0
 11
12.71353552339782
 21
146.02837355196959
 31
0.0
  0
ENDBLK
  5
15AE
  8
0
  0
ENDSEC
  0
SECTION
  2
ENTITIES
  0
POLYLINE
  5
52
  8
SAPA_ANSLUTNING
 66
     1
 10
0.0
 20
0.0
 30
0.0
 70
     1
  0
VERTEX
  5
8BB
  8
SAPA_ANSLUTNING
 10
22.994194876364869
 20
22.80463112575524
 30
0.0
  0
VERTEX
  5
8BC
  8
SAPA_ANSLUTNING
 10
2.994194876364872
 20
22.96490768797139
 30
0.0
  0
VERTEX
  5
8BD
  8
SAPA_ANSLUTNING
 10
2.994194876364872
 20
71.599635931807143
 30
0.0
  0
VERTEX
  5
8BE
  8
SAPA_ANSLUTNING
 10
22.994194876364869
 20
71.599635931807143
 30
0.0
  0
SEQEND
  5
8BF
  8
SAPA_ANSLUTNING
  0
INSERT
  5
318
  8
SAPA_ANSLUTNING
  6
CONTINUOUS
  2
*X37
 10
0.0
 20
0.0
 30
0.0
1001
ACAD
1000
HATCH
1002
{
1070
    19
1000
ANSI37
1040
0.5
1040
1.5707963267948959
1000
R14_HATCH_DATA
1000
318
1011
1.0
1021
0.0
1031
0.0
1021
0.0
1031
0.0
1011
0.0
1021
0.0
1031
0.0
1021
1.0
1031
0.0
1011
0.0
1021
0.0
1031
0.0
1021
0.0
1031
1.0
1040
0.0
1010
0.0
1020
0.0
1030
1.0
1000
ANSI37
1070
     0
1070
     0
1071
        2
1071
        7
1070
     0
1070
     1
1071
        4
1040
33.066935938829381
1040
60.564829879159788
1040
33.066935938829381
1040
48.922144945892342
1040
35.066935938829381
1040
48.922144945892342
1040
35.066935938829381
1040
60.564829879159788
1071
        0
1071
        7
1070
     0
1070
     1
1071
        4
1040
33.066935938829381
1040
48.922144945892342
1040
33.066935938829381
1040
40.564829879159788
1040
35.066935938829381
1040
40.564829879159788
1040
35.066935938829381
1040
48.922144945892342
1071
        0
1070
     0
1070
     1
1040
1.5707963267948959
1040
0.5
1070
     0
1070
     2
1040
2.3561944901923439
1040
-175.50253586883761
1040
-650.91558579131424
1040
-1.122532015133644
1040
-1.1225320151336431
1070
     0
1040
3.926990816987241
1040
-175.50253586883761
1040
-650.91558579131424
1040
1.1225320151336431
1040
-1.122532015133644
1070
     0
1040
0.1575343371151407
1071
        2
1040
34.536166771986238
1040
51.224336268336167
1040
0.0
1040
34.378630890750628
1040
45.707521789457587
1040
0.0
1002
}
  0
POLYLINE
  5
412
  8
SAPA_ANSLUTNING
 66
     1
 10
0.0
 20
0.0
 30
0.0
  0
VERTEX
  5
8D9
  8
SAPA_ANSLUTNING
 10
22.994194876364869
 20
71.599635931807143
 30
0.0
  0
VERTEX
  5
8DA
  8
SAPA_ANSLUTNING
 10
2.994194876364872
 20
58.71301685392632
 30
0.0
  0
VERTEX
  5
8DB
  8
SAPA_ANSLUTNING
 10
22.994194876364869
 20
48.890116642696967
 30
0.0
  0
VERTEX
  5
8DC
  8
SAPA_ANSLUTNING
 10
2.994194876364872
 20
36.498149281233282
 30
0.0
  0
VERTEX
  5
8DD
  8
SAPA_ANSLUTNING
 10
22.994194876364869
 20
22.80463112575524
 30
0.0
  0
SEQEND
  5
8DE
  8
SAPA_ANSLUTNING
  0
POLYLINE
  5
439
  8
SAPA_LIGHT
 66
     1
 10
0.0
 20
0.0
 30
0.0
  0
VERTEX
  5
8DF
  8
SAPA_LIGHT
 10
53.066935565293527
 20
24.974172781274621
 30
0.0
  0
VERTEX
  5
8E0
  8
SAPA_LIGHT
 10
53.066935565293527
 20
0.5996359327977672
 30
0.0
  0
VERTEX
  5
8E1
  8
SAPA_LIGHT
 10
3.0669355652935328
 20
0.5996359327977672
 30
0.0
  0
VERTEX
  5
8E2
  8
SAPA_LIGHT
 10
3.0669355652935328
 20
171.5996359318072
 30
0.0
  0
VERTEX
  5
8E3
  8
SAPA_LIGHT
 10
53.066935565293527
 20
171.59963593180709
 30
0.0
  0
VERTEX
  5
8E4
  8
SAPA_LIGHT
 10
53.066935565293527
 20
60.959633590084501
 30
0.0
  0
VERTEX
  5
8E5
  8
SAPA_LIGHT
 10
39.52143787683827
 20
60.959633590084309
 30
0.0
  0
VERTEX
  5
8E6
  8
SAPA_LIGHT
 10
39.501092021215761
 20
24.974172781274628
 30
0.0
  0
VERTEX
  5
8E7
  8
SAPA_LIGHT
 10
53.066935565293527
 20
24.974172781274621
 30
0.0
  0
SEQEND
  5
8E8
  8
SAPA_LIGHT
  0
POLYLINE
  5
446
  8
SAPA_LIGHT
 66
     1
 10
0.0
 20
0.0
 30
0.0
  0
VERTEX
  5
8E9
  8
SAPA_LIGHT
 10
69.436801768052646
 20
24.974172781274628
 30
0.0
  0
VERTEX
  5
8EA
  8
SAPA_LIGHT
 10
39.457147623674693
 20
24.974172781274628
 30
0.0
  0
VERTEX
  5
8EB
  8
SAPA_LIGHT
 10
39.457147623674693
 20
60.959633590084501
 30
0.0
  0
VERTEX
  5
8EC
  8
SAPA_LIGHT
 10
69.436801768052646
 20
60.959633590084493
 30
0.0
  0
SEQEND
  5
8ED
  8
SAPA_LIGHT
  0
INSERT
  5
56E
  8
SAPA_ANSLUTNING
  6
CONTINUOUS
  2
*X38
 10
0.0
 20
0.0
 30
0.0
1001
ACAD
1000
HATCH
1002
{
1070
    19
1000
ANSI37
1040
0.25
1040
1.5707963267948959
1000
R14_HATCH_DATA
1000
56E
1011
1.0
1021
0.0
1031
0.0
1021
0.0
1031
0.0
1011
0.0
1021
0.0
1031
0.0
1021
1.0
1031
0.0
1011
0.0
1021
0.0
1031
0.0
1021
0.0
1031
1.0
1040
0.0
1010
0.0
1020
0.0
1030
1.0
1000
ANSI37
1070
     0
1070
     0
1071
        1
1071
        7
1070
     1
1070
     1
1071
        6
1040
-17.070212449305242
1040
172.19441577318551
1040
0.0
1040
-17.070212449305242
1040
153.0040993172062
1040
-0.4106900922479825
1040
-7.0709378323297178
1040
162.8836537514558
1040
-0.4142526731220444
1040
2.9290620785181991
1040
152.8823184454296
1040
0.0
1040
2.9297871771568671
1040
152.88231844542949
1040
0.0
1040
2.9297871771568671
1040
171.69441577318551
1040
-0.1949441560822363
1071
        0
1070
     0
1070
     1
1040
1.5707963267948959
1040
0.25
1070
     0
1070
     2
1040
2.3561944901923439
1040
58.49672311598988
1040
-1.905220158621364
1040
-0.5612660075668221
1040
-0.5612660075668221
1070
     0
1040
3.926990816987241
1040
58.49672311598988
1040
-1.905220158621364
1040
0.5612660075668221
1040
-0.5612660075668221
1070
     0
1040
0.2539267194203041
1071
        1
1040
-8.4373467847086658
1040
166.69029496259861
1040
0.0
1002
}
  0
INSERT
  5
56F
  8
SAPA_ANSLUTNING
  6
CONTINUOUS
  2
*X39
 10
0.0
 20
0.0
 30
0.0
1001
ACAD
1000
HATCH
1002
{
1070
    19
1000
HEX
1040
0.25
1040
1.5707963267948959
1000
ASC_BOUNDS
1070
     1
1070
     1
1070
     3
1005
574
1005
571
1005
570
1000
ASC_SEEDPOINT
1011
-7.9294930639065342
1021
0.0
1031
0.0
1021
152.97194290694509
1031
0.0
1000
R14_HATCH_DATA
1000
56F
1011
1.0
1021
0.0
1031
0.0
1021
0.0
1031
0.0
1011
0.0
1021
0.0
1031
0.0
1021
1.0
1031
0.0
1011
0.0
1021
0.0
1031
0.0
1021
0.0
1031
1.0
1040
0.0
1010
0.0
1020
0.0
1030
1.0
1000
HEX
1070
     0
1070
     1
1071
        1
1071
        7
1070
     1
1070
     1
1071
        5
1040
-17.070212449305242
1040
153.00409931720631
1040
0.0
1040
-17.070212449305242
1040
152.76320818570539
1040
0.3638516913262429
1040
-8.6928098256533168
1040
143.0160536766011
1040
0.0
1040
-5.4490658390061188
1040
143.0160536766011
1040
0.3672653021558343
1040
2.9290621676702808
1040
152.8836537514558
1040
0.993995638350556
1071
        3
1005
570
1005
571
1005
574
1070
     0
1070
     1
1040
1.5707963267948959
1040
0.25
1070
     0
1070
     3
1040
1.5707963267948959
1040
58.49672311598988
1040
-1.905220158621364
1040
-1.374814999999999
1040
0.0000000000000001
1070
     2
1040
0.79375
1040
-1.587499999999999
1040
3.6651914291880909
1040
58.49672311598988
1040
-1.905220158621364
1040
0.6874074999999995
1040
-1.190624715503902
1070
     2
1040
0.7937499999999995
1040
-1.587499999999999
1040
2.6179938779914931
1040
58.49672311598988
1040
-1.111470158621362
1040
-0.6874075000000002
1040
-1.190624715503902
1070
     2
1040
0.79375
1040
-1.587499999999999
1040
0.2539267194203041
1071
        1
1040
-7.9294930639065342
1040
152.97194290694509
1040
0.0
1002
}
  0
POLYLINE
  5
570
  8
SAPA_ANSLUTNING
 62
     7
 66
     1
 10
0.0
 20
0.0
 30
0.0
1001
ACAD
1000
ASC_BOUNDS
1002
{
1070
    19
1005
56F
1002
}
  0
VERTEX
  5
A73
  8
SAPA_ANSLUTNING
 62
     7
 10
-44.431284411979959
 20
188.22416356301031
 30
0.0
  0
VERTEX
  5
A74
  8
SAPA_ANSLUTNING
 62
     7
 10
-17.070212449305242
 20
188.22416356301031
 30
0.0
  0
VERTEX
  5
A75
  8
SAPA_ANSLUTNING
 62
     7
 10
-17.070212449305242
 20
-44.481575982826413
 30
0.0
  0
VERTEX
  5
A76
  8
SAPA_ANSLUTNING
 62
     7
 10
-44.431284411979959
 20
-44.481575982826399
 30
0.0
  0
SEQEND
  5
A77
  8
SAPA_ANSLUTNING
 62
     7
  0
CIRCLE
  5
571
  8
SAPA_ANSLUTNING
 10
-7.0709378323297178
 20
152.8836537514558
 30
0.0
 40
10.0
1001
ACAD
1000
ASC_BOUNDS
1002
{
1070
    19
1005
56F
1002
}
  0
ARC
  5
572
  8
SAPA_ANSLUTNING
 10
-6.4533713856473014
 20
196.61806532943231
 30
0.0
 40
26.631409497383419
 50
246.5056506714273
 51
290.6301569067727
  0
POLYLINE
  5
574
  8
SAPA_ANSLUTNING
 66
     1
 10
0.0
 20
0.0
 30
0.0
1001
ACAD
1000
ASC_BOUNDS
1002
{
1070
    19
1005
56F
1002
}
  0
VERTEX
  5
A78
  8
SAPA_ANSLUTNING
 10
2.9813155006644361
 20
145.0160557833068
 30
0.0
 42
-0.4142132538525825
  0
VERTEX
  5
A79
  8
SAPA_ANSLUTNING
 10
0.9813197140856573
 20
143.0160536766011
 30
0.0
  0
VERTEX
  5
A7A
  8
SAPA_ANSLUTNING
 10
-14.171485824058429
 20
143.0160536766011
 30
0.0
  0
VERTEX
  5
A7B
  8
SAPA_ANSLUTNING
 10
-15.07021244930519
 20
143.0160536766011
 30
0.0
 42
1.0
  0
VERTEX
  5
A7C
  8
SAPA_ANSLUTNING
 10
-15.07021244930513
 20
139.0160536766011
 30
0.0
  0
VERTEX
  5
A7D
  8
SAPA_ANSLUTNING
 10
0.9813155006654596
 20
139.0160536766013
 30
0.0
 42
-0.9999989466455055
  0
VERTEX
  5
A7E
  8
SAPA_ANSLUTNING
 10
0.9813197140856573
 20
135.01605367660559
 30
0.0
  0
VERTEX
  5
A7F
  8
SAPA_ANSLUTNING
 10
-14.171485824058321
 20
135.01605367660571
 30
0.0
  0
VERTEX
  5
A80
  8
SAPA_ANSLUTNING
 10
-15.070212449305069
 20
135.01605367660571
 30
0.0
 42
0.9999999999999998
  0
VERTEX
  5
A81
  8
SAPA_ANSLUTNING
 10
-15.070212449305069
 20
131.01605367660571
 30
0.0
  0
VERTEX
  5
A82
  8
SAPA_ANSLUTNING
 10
-14.171485824058321
 20
131.01605367660571
 30
0.0
  0
VERTEX
  5
A83
  8
SAPA_ANSLUTNING
 10
0.9813223458638731
 20
131.01605367660579
 30
0.0
 42
-0.9999974985601646
  0
VERTEX
  5
A84
  8
SAPA_ANSLUTNING
 10
0.9813223458638731
 20
127.0160536766183
 30
0.0
  0
VERTEX
  5
A85
  8
SAPA_ANSLUTNING
 10
-14.171485824058321
 20
127.0160536766184
 30
0.0
  0
VERTEX
  5
A86
  8
SAPA_ANSLUTNING
 10
-15.17148582405826
 20
127.0160536766184
 30
0.0
 42
0.9999999999999998
  0
VERTEX
  5
A87
  8
SAPA_ANSLUTNING
 10
-15.17148582405826
 20
123.0160536766184
 30
0.0
  0
VERTEX
  5
A88
  8
SAPA_ANSLUTNING
 10
-14.171485824058321
 20
123.0160536766184
 30
0.0
  0
VERTEX
  5
A89
  8
SAPA_ANSLUTNING
 10
0.9813197140856573
 20
123.0160536766184
 30
0.0
 42
-0.9999989466455052
  0
VERTEX
  5
A8A
  8
SAPA_ANSLUTNING
 10
0.9813155006654596
 20
119.0160536766227
 30
0.0
  0
VERTEX
  5
A8B
  8
SAPA_ANSLUTNING
 10
-15.353455251647571
 20
119.016053676623
 30
0.0
 42
0.9999999999999998
  0
VERTEX
  5
A8C
  8
SAPA_ANSLUTNING
 10
-15.353455251647571
 20
115.016053676623
 30
0.0
  0
VERTEX
  5
A8D
  8
SAPA_ANSLUTNING
 10
0.9813155006654596
 20
115.0160536766232
 30
0.0
 42
-0.4142132538525737
  0
VERTEX
  5
A8E
  8
SAPA_ANSLUTNING
 10
2.9813155006643788
 20
113.0160557833332
 30
0.0
 42
-0.4142132538525811
  0
VERTEX
  5
A8F
  8
SAPA_ANSLUTNING
 10
0.9813197140856004
 20
111.01605367662749
 30
0.0
  0
VERTEX
  5
A90
  8
SAPA_ANSLUTNING
 10
-14.17148582405849
 20
111.01605367662749
 30
0.0
  0
VERTEX
  5
A91
  8
SAPA_ANSLUTNING
 10
-15.07021244930524
 20
111.01605367662749
 30
0.0
 42
1.0
  0
VERTEX
  5
A92
  8
SAPA_ANSLUTNING
 10
-15.07021244930519
 20
107.01605367662749
 30
0.0
  0
VERTEX
  5
A93
  8
SAPA_ANSLUTNING
 10
0.9813155006654029
 20
107.01605367662771
 30
0.0
 42
-0.9999989466455055
  0
VERTEX
  5
A94
  8
SAPA_ANSLUTNING
 10
0.9813197140856004
 20
103.016053676632
 30
0.0
  0
VERTEX
  5
A95
  8
SAPA_ANSLUTNING
 10
-14.171485824058379
 20
103.016053676632
 30
0.0
  0
VERTEX
  5
A96
  8
SAPA_ANSLUTNING
 10
-15.07021244930513
 20
103.016053676632
 30
0.0
 42
0.9999999999999998
  0
VERTEX
  5
A97
  8
SAPA_ANSLUTNING
 10
-15.07021244930513
 20
99.016053676632083
 30
0.0
  0
VERTEX
  5
A98
  8
SAPA_ANSLUTNING
 10
-14.171485824058379
 20
99.016053676632083
 30
0.0
  0
VERTEX
  5
A99
  8
SAPA_ANSLUTNING
 10
0.9813223458638162
 20
99.016053676632183
 30
0.0
 42
-0.9999974985601646
  0
VERTEX
  5
A9A
  8
SAPA_ANSLUTNING
 10
0.9813223458638162
 20
95.016053676644688
 30
0.0
  0
VERTEX
  5
A9B
  8
SAPA_ANSLUTNING
 10
-14.171485824058379
 20
95.016053676644745
 30
0.0
  0
VERTEX
  5
A9C
  8
SAPA_ANSLUTNING
 10
-15.171485824058321
 20
95.016053676644745
 30
0.0
 42
0.9999999999999998
  0
VERTEX
  5
A9D
  8
SAPA_ANSLUTNING
 10
-15.171485824058321
 20
91.016053676644674
 30
0.0
  0
VERTEX
  5
A9E
  8
SAPA_ANSLUTNING
 10
-14.171485824058379
 20
91.016053676644745
 30
0.0
  0
VERTEX
  5
A9F
  8
SAPA_ANSLUTNING
 10
0.9813197140856004
 20
91.016053676644816
 30
0.0
 42
-0.9999989466455052
  0
VERTEX
  5
AA0
  8
SAPA_ANSLUTNING
 10
0.9813155006654029
 20
87.016053676649122
 30
0.0
  0
VERTEX
  5
AA1
  8
SAPA_ANSLUTNING
 10
-15.353455251647629
 20
87.016053676649349
 30
0.0
 42
0.9999999999999998
  0
VERTEX
  5
AA2
  8
SAPA_ANSLUTNING
 10
-15.353455251647629
 20
83.016053676649349
 30
0.0
  0
VERTEX
  5
AA3
  8
SAPA_ANSLUTNING
 10
0.9813155006654029
 20
83.016053676649577
 30
0.0
 42
-0.4142132538525737
  0
VERTEX
  5
AA4
  8
SAPA_ANSLUTNING
 10
2.9813155006643219
 20
81.016055783359604
 30
0.0
 42
-0.4142132538525745
  0
VERTEX
  5
AA5
  8
SAPA_ANSLUTNING
 10
0.9813197140856004
 20
79.016053676653897
 30
0.0
  0
VERTEX
  5
AA6
  8
SAPA_ANSLUTNING
 10
-14.17148582405849
 20
79.016053676653897
 30
0.0
  0
VERTEX
  5
AA7
  8
SAPA_ANSLUTNING
 10
-15.07021244930524
 20
79.016053676653897
 30
0.0
 42
1.0
  0
VERTEX
  5
AA8
  8
SAPA_ANSLUTNING
 10
-15.07021244930519
 20
75.016053676653897
 30
0.0
  0
VERTEX
  5
AA9
  8
SAPA_ANSLUTNING
 10
0.9813155006654029
 20
75.016053676654067
 30
0.0
 42
-0.9999989466455055
  0
VERTEX
  5
AAA
  8
SAPA_ANSLUTNING
 10
0.9813197140856004
 20
71.016053676658387
 30
0.0
  0
VERTEX
  5
AAB
  8
SAPA_ANSLUTNING
 10
-14.171485824058379
 20
71.016053676658444
 30
0.0
  0
VERTEX
  5
AAC
  8
SAPA_ANSLUTNING
 10
-15.07021244930513
 20
71.016053676658444
 30
0.0
 42
0.9999999999999998
  0
VERTEX
  5
AAD
  8
SAPA_ANSLUTNING
 10
-15.07021244930513
 20
67.016053676658444
 30
0.0
  0
VERTEX
  5
AAE
  8
SAPA_ANSLUTNING
 10
-14.171485824058379
 20
67.016053676658444
 30
0.0
  0
VERTEX
  5
AAF
  8
SAPA_ANSLUTNING
 10
0.9813223458638162
 20
67.016053676658501
 30
0.0
 42
-0.9999974985601646
  0
VERTEX
  5
AB0
  8
SAPA_ANSLUTNING
 10
0.9813223458638162
 20
63.016053676671
 30
0.0
  0
VERTEX
  5
AB1
  8
SAPA_ANSLUTNING
 10
-14.171485824058379
 20
63.01605367667112
 30
0.0
  0
VERTEX
  5
AB2
  8
SAPA_ANSLUTNING
 10
-15.171485824058321
 20
63.01605367667112
 30
0.0
 42
0.9999999999999998
  0
VERTEX
  5
AB3
  8
SAPA_ANSLUTNING
 10
-15.171485824058321
 20
59.016053676671063
 30
0.0
  0
VERTEX
  5
AB4
  8
SAPA_ANSLUTNING
 10
-14.171485824058379
 20
59.01605367667112
 30
0.0
  0
VERTEX
  5
AB5
  8
SAPA_ANSLUTNING
 10
0.9813197140856004
 20
59.01605367667112
 30
0.0
 42
-0.9999989466455052
  0
VERTEX
  5
AB6
  8
SAPA_ANSLUTNING
 10
0.9813155006654029
 20
55.01605367667544
 30
0.0
  0
VERTEX
  5
AB7
  8
SAPA_ANSLUTNING
 10
-15.353455251647629
 20
55.016053676675668
 30
0.0
 42
0.9999999999999998
  0
VERTEX
  5
AB8
  8
SAPA_ANSLUTNING
 10
-15.353455251647629
 20
51.016053676675661
 30
0.0
  0
VERTEX
  5
AB9
  8
SAPA_ANSLUTNING
 10
0.9813155006654029
 20
51.016053676675888
 30
0.0
 42
-0.4142132538525779
  0
VERTEX
  5
ABA
  8
SAPA_ANSLUTNING
 10
2.9813155006643219
 20
49.01605578338593
 30
0.0
 42
-0.4142132538525811
  0
VERTEX
  5
ABB
  8
SAPA_ANSLUTNING
 10
0.9813197140855436
 20
47.016053676680222
 30
0.0
  0
VERTEX
  5
ABC
  8
SAPA_ANSLUTNING
 10
-14.17148582405855
 20
47.016053676680222
 30
0.0
  0
VERTEX
  5
ABD
  8
SAPA_ANSLUTNING
 10
-15.07021244930527
 20
47.016053676680222
 30
0.0
 42
1.0
  0
VERTEX
  5
ABE
  8
SAPA_ANSLUTNING
 10
-15.07021244930522
 20
43.016053676680208
 30
0.0
  0
VERTEX
  5
ABF
  8
SAPA_ANSLUTNING
 10
0.981315500665346
 20
43.016053676680443
 30
0.0
 42
-0.9999989466455055
  0
VERTEX
  5
AC0
  8
SAPA_ANSLUTNING
 10
0.9813197140855436
 20
39.016053676684763
 30
0.0
  0
VERTEX
  5
AC1
  8
SAPA_ANSLUTNING
 10
-14.171485824058429
 20
39.016053676684763
 30
0.0
  0
VERTEX
  5
AC2
  8
SAPA_ANSLUTNING
 10
-15.07021244930516
 20
39.016053676684763
 30
0.0
 42
0.9999999999999998
  0
VERTEX
  5
AC3
  8
SAPA_ANSLUTNING
 10
-15.07021244930516
 20
35.01605367668477
 30
0.0
  0
VERTEX
  5
AC4
  8
SAPA_ANSLUTNING
 10
-14.171485824058429
 20
35.01605367668477
 30
0.0
  0
VERTEX
  5
AC5
  8
SAPA_ANSLUTNING
 10
0.9813223458637594
 20
35.016053676684876
 30
0.0
 42
-0.5222532818178279
  0
VERTEX
  5
AC6
  8
SAPA_ANSLUTNING
 10
2.8570468617660931
 20
32.322051679326258
 30
0.0
 42
-0.5222532818178279
  0
SEQEND
  5
AC7
  8
SAPA_ANSLUTNING
  0
POLYLINE
  5
577
  8
SAPA_ANSLUTNING
 62
     1
 66
     1
 10
0.0
 20
0.0
 30
0.0
  0
VERTEX
  5
AC8
  8
SAPA_ANSLUTNING
 62
     1
 10
-13.32695329997477
 20
-37.287328967290179
 30
0.0
  0
VERTEX
  5
AC9
  8
SAPA_ANSLUTNING
 62
     1
 10
-8.870338503535379
 20
21.21584509966517
 30
0.0
  0
VERTEX
  5
ACA
  8
SAPA_ANSLUTNING
 62
     1
 10
18.44593233204932
 20
21.21584509966517
 30
0.0
  0
VERTEX
  5
ACB
  8
SAPA_ANSLUTNING
 62
     1
 10
18.44593233204932
 20
22.96502171252526
 30
0.0
  0
VERTEX
  5
ACC
  8
SAPA_ANSLUTNING
 62
     1
 10
-10.85712773367743
 20
22.96502171252526
 30
0.0
  0
VERTEX
  5
ACD
  8
SAPA_ANSLUTNING
 62
     1
 10
-15.413742851767889
 20
-37.287328967290179
 30
0.0
  0
SEQEND
  5
ACE
  8
SAPA_ANSLUTNING
 62
     1
  0
LINE
  5
727
  8
SAPA_PROFIL
 10
33.066935565291487
 20
60.564829879159788
 30
0.0
 11
33.066935565291487
 21
40.564829879159788
 31
0.0
  0
LINE
  5
728
  8
SAPA_PROFIL
 10
33.066935565291487
 20
40.564829879159788
 30
0.0
 11
35.066935565291487
 21
40.564829879159788
 31
0.0
  0
LINE
  5
729
  8
SAPA_PROFIL
 10
35.066935565291487
 20
40.564829879159788
 30
0.0
 11
35.066935565291487
 21
60.564829879159788
 31
0.0
  0
LINE
  5
72A
  8
SAPA_PROFIL
 10
35.066935565291487
 20
60.564829879159788
 30
0.0
 11
33.066935565291487
 21
60.564829879159788
 31
0.0
  0
POLYLINE
  5
855
  8
SAPA_PROFIL
 66
     1
 10
0.0
 20
0.0
 30
0.0
 70
     1
  0
VERTEX
  5
10FC
  8
SAPA_PROFIL
 10
25.366935565293488
 20
74.049635931807188
 30
0.0
  0
VERTEX
  5
10FD
  8
SAPA_PROFIL
 10
25.990215868595438
 20
75.425870525383516
 30
0.0
 42
0.5450207798987328
  0
VERTEX
  5
10FE
  8
SAPA_PROFIL
 10
25.716935565293628
 20
75.849635931807143
 30
0.0
  0
VERTEX
  5
10FF
  8
SAPA_PROFIL
 10
25.366935565293488
 20
75.849635931807143
 30
0.0
  0
VERTEX
  5
1100
  8
SAPA_PROFIL
 10
25.366935565293488
 20
76.099635931807143
 30
0.0
 42
-0.4142135623730951
  0
VERTEX
  5
1101
  8
SAPA_PROFIL
 10
26.366935565293488
 20
77.099635931807143
 30
0.0
  0
VERTEX
  5
1102
  8
SAPA_PROFIL
 10
29.766935565293579
 20
77.099635931807143
 30
0.0
 42
-0.4142135623730951
  0
VERTEX
  5
1103
  8
SAPA_PROFIL
 10
30.766935565293579
 20
76.099635931807143
 30
0.0
  0
VERTEX
  5
1104
  8
SAPA_PROFIL
 10
30.766935565293579
 20
74.949635931807265
 30
0.0
  0
VERTEX
  5
1105
  8
SAPA_PROFIL
 10
30.416935565293439
 20
74.949635931807265
 30
0.0
 42
0.5450200690651551
  0
VERTEX
  5
1106
  8
SAPA_PROFIL
 10
30.143654565293669
 20
74.525870931807276
 30
0.0
  0
VERTEX
  5
1107
  8
SAPA_PROFIL
 10
30.766935565293579
 20
73.149635931807325
 30
0.0
  0
VERTEX
  5
1108
  8
SAPA_PROFIL
 10
30.416935565293439
 20
73.149635931807325
 30
0.0
 42
0.5450200690651692
  0
VERTEX
  5
1109
  8
SAPA_PROFIL
 10
30.143654565293669
 20
72.725870931807322
 30
0.0
  0
VERTEX
  5
110A
  8
SAPA_PROFIL
 10
30.766935565293579
 20
71.349635931807143
 30
0.0
  0
VERTEX
  5
110B
  8
SAPA_PROFIL
 10
30.416935565293439
 20
71.349635931807143
 30
0.0
 42
0.5450200690651619
  0
VERTEX
  5
110C
  8
SAPA_PROFIL
 10
30.143654565293669
 20
70.92587093180714
 30
0.0
  0
VERTEX
  5
110D
  8
SAPA_PROFIL
 10
30.766935565293579
 20
69.549635931807174
 30
0.0
  0
VERTEX
  5
110E
  8
SAPA_PROFIL
 10
30.416935565293439
 20
69.549635931807174
 30
0.0
 42
0.5450200690651619
  0
VERTEX
  5
110F
  8
SAPA_PROFIL
 10
30.143654565293669
 20
69.125870931807185
 30
0.0
  0
VERTEX
  5
1110
  8
SAPA_PROFIL
 10
30.766935565293579
 20
67.749635931807234
 30
0.0
  0
VERTEX
  5
1111
  8
SAPA_PROFIL
 10
30.416935565293439
 20
67.749635931807234
 30
0.0
 42
0.5450200690651692
  0
VERTEX
  5
1112
  8
SAPA_PROFIL
 10
30.143654565293669
 20
67.325870931807231
 30
0.0
  0
VERTEX
  5
1113
  8
SAPA_PROFIL
 10
30.766935565293579
 20
65.949635931807279
 30
0.0
  0
VERTEX
  5
1114
  8
SAPA_PROFIL
 10
30.766935565293579
 20
65.649635931807325
 30
0.0
  0
VERTEX
  5
1115
  8
SAPA_PROFIL
 10
25.63866793178272
 20
65.649635931807325
 30
0.0
  0
VERTEX
  5
1116
  8
SAPA_PROFIL
 10
25.990215868595438
 20
66.425870525383516
 30
0.0
 42
0.5450207798987328
  0
VERTEX
  5
1117
  8
SAPA_PROFIL
 10
25.716935565293628
 20
66.849635931807143
 30
0.0
  0
VERTEX
  5
1118
  8
SAPA_PROFIL
 10
25.366935565293488
 20
66.849635931807143
 30
0.0
  0
VERTEX
  5
1119
  8
SAPA_PROFIL
 10
25.990215565293511
 20
68.225870931807322
 30
0.0
 42
0.5450205149791638
  0
VERTEX
  5
111A
  8
SAPA_PROFIL
 10
25.716935565293628
 20
68.649635931807325
 30
0.0
  0
VERTEX
  5
111B
  8
SAPA_PROFIL
 10
25.366935565293488
 20
68.649635931807325
 30
0.0
  0
VERTEX
  5
111C
  8
SAPA_PROFIL
 10
25.990215868595438
 20
70.025870525383652
 30
0.0
 42
0.545020779898768
  0
VERTEX
  5
111D
  8
SAPA_PROFIL
 10
25.716935565293628
 20
70.449635931807279
 30
0.0
  0
VERTEX
  5
111E
  8
SAPA_PROFIL
 10
25.366935565293488
 20
70.449635931807279
 30
0.0
  0
VERTEX
  5
111F
  8
SAPA_PROFIL
 10
25.990215868595438
 20
71.825870525383607
 30
0.0
 42
0.54502077989874
  0
VERTEX
  5
1120
  8
SAPA_PROFIL
 10
25.716935565293628
 20
72.249635931807234
 30
0.0
  0
VERTEX
  5
1121
  8
SAPA_PROFIL
 10
25.366935565293488
 20
72.249635931807234
 30
0.0
  0
VERTEX
  5
1122
  8
SAPA_PROFIL
 10
25.990215868595438
 20
73.625870525383561
 30
0.0
 42
0.545020779898761
  0
VERTEX
  5
1123
  8
SAPA_PROFIL
 10
25.716935565293628
 20
74.049635931807188
 30
0.0
  0
SEQEND
  5
1124
  8
SAPA_PROFIL
  0
POLYLINE
  5
856
  8
SAPA_PROFIL
 66
     1
 10
0.0
 20
0.0
 30
0.0
 70
     1
  0
VERTEX
  5
1125
  8
SAPA_PROFIL
 10
5.0669355652935328
 20
165.12390000051909
 30
0.0
 42
0.1989123673796753
  0
VERTEX
  5
1126
  8
SAPA_PROFIL
 10
5.1548035309376701
 20
164.9117679661633
 30
0.0
  0
VERTEX
  5
1127
  8
SAPA_PROFIL
 10
6.8790675996494883
 20
163.18750389745131
 30
0.0
 42
-0.1989123673796753
  0
VERTEX
  5
1128
  8
SAPA_PROFIL
 10
6.9669355652936238
 20
162.97537186309521
 30
0.0
  0
VERTEX
  5
1129
  8
SAPA_PROFIL
 10
6.9669355652936238
 20
162.3996359318073
 30
0.0
 42
-0.4142135623730951
  0
VERTEX
  5
112A
  8
SAPA_PROFIL
 10
6.6669355652934419
 20
162.09963593180709
 30
0.0
  0
VERTEX
  5
112B
  8
SAPA_PROFIL
 10
5.3669355652934883
 20
162.09963593180709
 30
0.0
 42
0.4142135623730951
  0
VERTEX
  5
112C
  8
SAPA_PROFIL
 10
5.0669355652935328
 20
161.79963593180719
 30
0.0
  0
VERTEX
  5
112D
  8
SAPA_PROFIL
 10
5.0669355652935328
 20
137.09963593180709
 30
0.0
 42
0.4142135623730951
  0
VERTEX
  5
112E
  8
SAPA_PROFIL
 10
6.0669355652935328
 20
136.09963593180709
 30
0.0
  0
VERTEX
  5
112F
  8
SAPA_PROFIL
 10
10.466935565293619
 20
136.09963593180709
 30
0.0
 42
-0.4142135623730951
  0
VERTEX
  5
1130
  8
SAPA_PROFIL
 10
10.766935565293579
 20
135.79963593180719
 30
0.0
  0
VERTEX
  5
1131
  8
SAPA_PROFIL
 10
10.766935565293579
 20
133.49963593180721
 30
0.0
 42
-0.4142135623730951
  0
VERTEX
  5
1132
  8
SAPA_PROFIL
 10
10.466935565293619
 20
133.19963593180731
 30
0.0
  0
VERTEX
  5
1133
  8
SAPA_PROFIL
 10
9.9669355652936247
 20
133.19963593180731
 30
0.0
 42
-0.4142135623730951
  0
VERTEX
  5
1134
  8
SAPA_PROFIL
 10
9.6669355652934428
 20
133.49963593180721
 30
0.0
  0
VERTEX
  5
1135
  8
SAPA_PROFIL
 10
9.6669355652934428
 20
133.83626285644161
 30
0.0
 42
0.5535245743249297
  0
VERTEX
  5
1136
  8
SAPA_PROFIL
 10
5.3563813537621172
 20
132.0637435339317
 30
0.0
  0
VERTEX
  5
1137
  8
SAPA_PROFIL
 10
5.6437122605902914
 20
131.77641262710381
 30
0.0
 42
-0.4142135623729421
  0
VERTEX
  5
1138
  8
SAPA_PROFIL
 10
5.6437122605902914
 20
131.4228592365107
 30
0.0
  0
VERTEX
  5
1139
  8
SAPA_PROFIL
 10
5.3563813537621172
 20
131.1355283296827
 30
0.0
 42
0.5535245743249292
  0
VERTEX
  5
113A
  8
SAPA_PROFIL
 10
9.6669355652934428
 20
129.36300900717259
 30
0.0
  0
VERTEX
  5
113B
  8
SAPA_PROFIL
 10
9.6669355652934428
 20
129.69963593180731
 30
0.0
 42
-0.4142135623730951
  0
VERTEX
  5
113C
  8
SAPA_PROFIL
 10
9.9669355652936247
 20
129.99963593180721
 30
0.0
  0
VERTEX
  5
113D
  8
SAPA_PROFIL
 10
10.466935565293619
 20
129.99963593180721
 30
0.0
 42
-0.4142135623730951
  0
VERTEX
  5
113E
  8
SAPA_PROFIL
 10
10.766935565293579
 20
129.69963593180731
 30
0.0
  0
VERTEX
  5
113F
  8
SAPA_PROFIL
 10
10.766935565293579
 20
128.59963593180709
 30
0.0
 42
-0.4142135623730951
  0
VERTEX
  5
1140
  8
SAPA_PROFIL
 10
9.2669355652935792
 20
127.0996359318071
 30
0.0
  0
VERTEX
  5
1141
  8
SAPA_PROFIL
 10
6.4329609690780671
 20
127.0996359318071
 30
0.0
 42
-0.267949192431143
  0
VERTEX
  5
1142
  8
SAPA_PROFIL
 10
5.9999482671858004
 20
127.3496359318071
 30
0.0
 42
0.767326987978956
  0
VERTEX
  5
1143
  8
SAPA_PROFIL
 10
5.0669355652935328
 20
127.0996359318071
 30
0.0
  0
VERTEX
  5
1144
  8
SAPA_PROFIL
 10
5.0669355652935328
 20
92.099635931807157
 30
0.0
 42
0.4142135623730951
  0
VERTEX
  5
1145
  8
SAPA_PROFIL
 10
6.0669355652935328
 20
91.099635931807128
 30
0.0
  0
VERTEX
  5
1146
  8
SAPA_PROFIL
 10
10.466935565293619
 20
91.099635931807128
 30
0.0
 42
-0.4142135623730951
  0
VERTEX
  5
1147
  8
SAPA_PROFIL
 10
10.766935565293579
 20
90.799635931807188
 30
0.0
  0
VERTEX
  5
1148
  8
SAPA_PROFIL
 10
10.766935565293579
 20
88.499635931807234
 30
0.0
 42
-0.4142135623730951
  0
VERTEX
  5
1149
  8
SAPA_PROFIL
 10
10.466935565293619
 20
88.199635931807279
 30
0.0
  0
VERTEX
  5
114A
  8
SAPA_PROFIL
 10
9.9669355652936247
 20
88.199635931807279
 30
0.0
 42
-0.4142135623730951
  0
VERTEX
  5
114B
  8
SAPA_PROFIL
 10
9.6669355652934428
 20
88.499635931807234
 30
0.0
  0
VERTEX
  5
114C
  8
SAPA_PROFIL
 10
9.6669355652934428
 20
88.836262856441635
 30
0.0
 42
0.5535245743249297
  0
VERTEX
  5
114D
  8
SAPA_PROFIL
 10
5.3563813537621172
 20
87.063743533931756
 30
0.0
  0
VERTEX
  5
114E
  8
SAPA_PROFIL
 10
5.6437122605902914
 20
86.776412627103795
 30
0.0
 42
-0.4142135623730243
  0
VERTEX
  5
114F
  8
SAPA_PROFIL
 10
5.643712260590064
 20
86.422859236510703
 30
0.0
  0
VERTEX
  5
1150
  8
SAPA_PROFIL
 10
5.3563813537621172
 20
86.135528329682757
 30
0.0
 42
0.5535245743249292
  0
VERTEX
  5
1151
  8
SAPA_PROFIL
 10
9.6669355652934428
 20
84.36300900717265
 30
0.0
  0
VERTEX
  5
1152
  8
SAPA_PROFIL
 10
9.6669355652934428
 20
84.699635931807265
 30
0.0
 42
-0.4142135623730951
  0
VERTEX
  5
1153
  8
SAPA_PROFIL
 10
9.9669355652936247
 20
84.999635931807234
 30
0.0
  0
VERTEX
  5
1154
  8
SAPA_PROFIL
 10
10.466935565293619
 20
84.999635931807234
 30
0.0
 42
-0.4142135623730951
  0
VERTEX
  5
1155
  8
SAPA_PROFIL
 10
10.766935565293579
 20
84.699635931807265
 30
0.0
  0
VERTEX
  5
1156
  8
SAPA_PROFIL
 10
10.766935565293579
 20
83.599635931807128
 30
0.0
 42
-0.4142135623730951
  0
VERTEX
  5
1157
  8
SAPA_PROFIL
 10
9.2669355652935792
 20
82.099635931807157
 30
0.0
  0
VERTEX
  5
1158
  8
SAPA_PROFIL
 10
6.2865508075642529
 20
82.099635931807157
 30
0.0
 42
-0.2679491924311188
  0
VERTEX
  5
1159
  8
SAPA_PROFIL
 10
6.0267431864288019
 20
82.249635931807234
 30
0.0
 42
0.7673269879789557
  0
VERTEX
  5
115A
  8
SAPA_PROFIL
 10
5.4669355652936238
 20
82.099635931807157
 30
0.0
  0
VERTEX
  5
115B
  8
SAPA_PROFIL
 10
5.4669355652938521
 20
80.099635931807143
 30
0.0
 42
0.4142137811865366
  0
VERTEX
  5
115C
  8
SAPA_PROFIL
 10
6.4669348182183048
 20
79.099635931807143
 30
0.0
  0
VERTEX
  5
115D
  8
SAPA_PROFIL
 10
49.666935565293443
 20
79.099635931807143
 30
0.0
 42
0.4142140000000124
  0
VERTEX
  5
115E
  8
SAPA_PROFIL
 10
50.666935565293443
 20
80.099635931807143
 30
0.0
  0
VERTEX
  5
115F
  8
SAPA_PROFIL
 10
50.666935565293443
 20
82.099635931807157
 30
0.0
 42
0.7673269879789457
  0
VERTEX
  5
1160
  8
SAPA_PROFIL
 10
50.107127944158272
 20
82.249635931807234
 30
0.0
 42
-0.2679491924311191
  0
VERTEX
  5
1161
  8
SAPA_PROFIL
 10
49.847320323022807
 20
82.099635931807157
 30
0.0
  0
VERTEX
  5
1162
  8
SAPA_PROFIL
 10
46.866935565293481
 20
82.099635931807157
 30
0.0
 42
-0.4142135623730951
  0
VERTEX
  5
1163
  8
SAPA_PROFIL
 10
45.366935565293488
 20
83.599635931807128
 30
0.0
  0
VERTEX
  5
1164
  8
SAPA_PROFIL
 10
45.366935565293488
 20
84.699635931807265
 30
0.0
 42
-0.4142135623730951
  0
VERTEX
  5
1165
  8
SAPA_PROFIL
 10
45.666935565293443
 20
84.999635931807234
 30
0.0
  0
VERTEX
  5
1166
  8
SAPA_PROFIL
 10
46.166935565293443
 20
84.999635931807234
 30
0.0
 42
-0.4142135623730951
  0
VERTEX
  5
1167
  8
SAPA_PROFIL
 10
46.466935565293632
 20
84.699635931807265
 30
0.0
  0
VERTEX
  5
1168
  8
SAPA_PROFIL
 10
46.466935565293632
 20
84.36300900717265
 30
0.0
 42
0.5535245743249307
  0
VERTEX
  5
1169
  8
SAPA_PROFIL
 10
50.77748977682495
 20
86.135528329682757
 30
0.0
  0
VERTEX
  5
116A
  8
SAPA_PROFIL
 10
50.490158869997011
 20
86.422859236510703
 30
0.0
 42
-0.4142135623730951
  0
VERTEX
  5
116B
  8
SAPA_PROFIL
 10
50.490158869997011
 20
86.776412627103795
 30
0.0
  0
VERTEX
  5
116C
  8
SAPA_PROFIL
 10
50.77748977682495
 20
87.063743533931756
 30
0.0
 42
0.553524574324932
  0
VERTEX
  5
116D
  8
SAPA_PROFIL
 10
46.466935565293632
 20
88.836262856441635
 30
0.0
  0
VERTEX
  5
116E
  8
SAPA_PROFIL
 10
46.466935565293632
 20
88.499635931807234
 30
0.0
 42
-0.4142135623730951
  0
VERTEX
  5
116F
  8
SAPA_PROFIL
 10
46.166935565293443
 20
88.199635931807279
 30
0.0
  0
VERTEX
  5
1170
  8
SAPA_PROFIL
 10
45.666935565293443
 20
88.199635931807279
 30
0.0
 42
-0.4142135623730951
  0
VERTEX
  5
1171
  8
SAPA_PROFIL
 10
45.366935565293488
 20
88.499635931807234
 30
0.0
  0
VERTEX
  5
1172
  8
SAPA_PROFIL
 10
45.366935565293488
 20
90.799635931807188
 30
0.0
 42
-0.4142135623730951
  0
VERTEX
  5
1173
  8
SAPA_PROFIL
 10
45.666935565293443
 20
91.099635931807128
 30
0.0
  0
VERTEX
  5
1174
  8
SAPA_PROFIL
 10
50.066935565293527
 20
91.099635931807128
 30
0.0
 42
0.4142135623730951
  0
VERTEX
  5
1175
  8
SAPA_PROFIL
 10
51.066935565293541
 20
92.099635931807157
 30
0.0
  0
VERTEX
  5
1176
  8
SAPA_PROFIL
 10
51.066935565293541
 20
127.0996359318071
 30
0.0
 42
0.7673269879789569
  0
VERTEX
  5
1177
  8
SAPA_PROFIL
 10
50.133922863401267
 20
127.3496359318071
 30
0.0
 42
-0.2679491924311163
  0
VERTEX
  5
1178
  8
SAPA_PROFIL
 10
49.700910161509
 20
127.0996359318071
 30
0.0
  0
VERTEX
  5
1179
  8
SAPA_PROFIL
 10
46.866935565293481
 20
127.0996359318071
 30
0.0
 42
-0.4142135623730951
  0
VERTEX
  5
117A
  8
SAPA_PROFIL
 10
45.366935565293488
 20
128.59963593180709
 30
0.0
  0
VERTEX
  5
117B
  8
SAPA_PROFIL
 10
45.366935565293488
 20
129.69963593180731
 30
0.0
 42
-0.4142135623730951
  0
VERTEX
  5
117C
  8
SAPA_PROFIL
 10
45.666935565293443
 20
129.99963593180721
 30
0.0
  0
VERTEX
  5
117D
  8
SAPA_PROFIL
 10
46.166935565293443
 20
129.99963593180721
 30
0.0
 42
-0.4142135623730951
  0
VERTEX
  5
117E
  8
SAPA_PROFIL
 10
46.466935565293632
 20
129.69963593180731
 30
0.0
  0
VERTEX
  5
117F
  8
SAPA_PROFIL
 10
46.466935565293632
 20
129.36300900717259
 30
0.0
 42
0.5535245743249307
  0
VERTEX
  5
1180
  8
SAPA_PROFIL
 10
50.77748977682495
 20
131.1355283296827
 30
0.0
  0
VERTEX
  5
1181
  8
SAPA_PROFIL
 10
50.490158869997011
 20
131.4228592365107
 30
0.0
 42
-0.4142135623731068
  0
VERTEX
  5
1182
  8
SAPA_PROFIL
 10
50.490158869996769
 20
131.77641262710381
 30
0.0
  0
VERTEX
  5
1183
  8
SAPA_PROFIL
 10
50.77748977682495
 20
132.0637435339317
 30
0.0
 42
0.553524574324932
  0
VERTEX
  5
1184
  8
SAPA_PROFIL
 10
46.466935565293632
 20
133.83626285644161
 30
0.0
  0
VERTEX
  5
1185
  8
SAPA_PROFIL
 10
46.466935565293632
 20
133.49963593180721
 30
0.0
 42
-0.4142135623730951
  0
VERTEX
  5
1186
  8
SAPA_PROFIL
 10
46.166935565293443
 20
133.19963593180731
 30
0.0
  0
VERTEX
  5
1187
  8
SAPA_PROFIL
 10
45.666935565293443
 20
133.19963593180731
 30
0.0
 42
-0.4142135623730951
  0
VERTEX
  5
1188
  8
SAPA_PROFIL
 10
45.366935565293488
 20
133.49963593180721
 30
0.0
  0
VERTEX
  5
1189
  8
SAPA_PROFIL
 10
45.366935565293488
 20
135.79963593180719
 30
0.0
 42
-0.4142135623730951
  0
VERTEX
  5
118A
  8
SAPA_PROFIL
 10
45.666935565293443
 20
136.09963593180709
 30
0.0
  0
VERTEX
  5
118B
  8
SAPA_PROFIL
 10
50.066935565293527
 20
136.09963593180709
 30
0.0
 42
0.4142135623730951
  0
VERTEX
  5
118C
  8
SAPA_PROFIL
 10
51.066935565293541
 20
137.09963593180709
 30
0.0
  0
VERTEX
  5
118D
  8
SAPA_PROFIL
 10
51.066935565293541
 20
161.79963593180719
 30
0.0
 42
0.4142135623730951
  0
VERTEX
  5
118E
  8
SAPA_PROFIL
 10
50.766935565293579
 20
162.09963593180709
 30
0.0
  0
VERTEX
  5
118F
  8
SAPA_PROFIL
 10
49.466935565293618
 20
162.09963593180709
 30
0.0
 42
-0.4142135623730951
  0
VERTEX
  5
1190
  8
SAPA_PROFIL
 10
49.166935565293443
 20
162.3996359318073
 30
0.0
  0
VERTEX
  5
1191
  8
SAPA_PROFIL
 10
49.166935565293443
 20
162.97537186309521
 30
0.0
 42
-0.1989123673796752
  0
VERTEX
  5
1192
  8
SAPA_PROFIL
 10
49.254803530937579
 20
163.18750389745131
 30
0.0
  0
VERTEX
  5
1193
  8
SAPA_PROFIL
 10
50.979067599649632
 20
164.9117679661633
 30
0.0
 42
0.1989123673796057
  0
VERTEX
  5
1194
  8
SAPA_PROFIL
 10
51.066935565293541
 20
165.12390000051909
 30
0.0
  0
VERTEX
  5
1195
  8
SAPA_PROFIL
 10
51.066935565293541
 20
168.59963593180709
 30
0.0
 42
0.4142135623730951
  0
VERTEX
  5
1196
  8
SAPA_PROFIL
 10
50.066935565293527
 20
169.59963593180709
 30
0.0
  0
VERTEX
  5
1197
  8
SAPA_PROFIL
 10
6.0669355652935328
 20
169.59963593180709
 30
0.0
 42
0.4142135623730951
  0
VERTEX
  5
1198
  8
SAPA_PROFIL
 10
5.0669355652935328
 20
168.59963593180709
 30
0.0
  0
SEQEND
  5
1199
  8
SAPA_PROFIL
  0
POLYLINE
  5
857
  8
SAPA_PROFIL
 66
     1
 10
0.0
 20
0.0
 30
0.0
 70
     1
  0
VERTEX
  5
119A
  8
SAPA_PROFIL
 10
22.06693556529353
 20
77.099635931807143
 30
0.0
 42
-0.4142135623730951
  0
VERTEX
  5
119B
  8
SAPA_PROFIL
 10
23.06693556529353
 20
76.099635931807143
 30
0.0
  0
VERTEX
  5
119C
  8
SAPA_PROFIL
 10
23.06693556529353
 20
54.899635931807317
 30
0.0
 42
0.4142135623730951
  0
VERTEX
  5
119D
  8
SAPA_PROFIL
 10
23.366935565293488
 20
54.599635931807143
 30
0.0
  0
VERTEX
  5
119E
  8
SAPA_PROFIL
 10
24.991199565293531
 20
54.599635931807143
 30
0.0
  0
VERTEX
  5
119F
  8
SAPA_PROFIL
 10
25.829067599649541
 20
55.537503897451408
 30
0.0
 42
0.668178637919305
  0
VERTEX
  5
11A0
  8
SAPA_PROFIL
 10
25.616935565293488
 20
56.049635931807188
 30
0.0
  0
VERTEX
  5
11A1
  8
SAPA_PROFIL
 10
25.366935565293488
 20
56.049635931807188
 30
0.0
  0
VERTEX
  5
11A2
  8
SAPA_PROFIL
 10
25.89021586859554
 20
57.425870525383509
 30
0.0
 42
0.5450207798987201
  0
VERTEX
  5
11A3
  8
SAPA_PROFIL
 10
25.616935565293488
 20
57.849635931807143
 30
0.0
  0
VERTEX
  5
11A4
  8
SAPA_PROFIL
 10
25.366935565293488
 20
57.849635931807143
 30
0.0
  0
VERTEX
  5
11A5
  8
SAPA_PROFIL
 10
25.89021586859554
 20
59.225870525383698
 30
0.0
 42
0.5450207798987201
  0
VERTEX
  5
11A6
  8
SAPA_PROFIL
 10
25.616935565293488
 20
59.649635931807317
 30
0.0
  0
VERTEX
  5
11A7
  8
SAPA_PROFIL
 10
25.366935565293488
 20
59.649635931807317
 30
0.0
  0
VERTEX
  5
11A8
  8
SAPA_PROFIL
 10
25.89021586859554
 20
61.025870525383652
 30
0.0
 42
0.5450207798987342
  0
VERTEX
  5
11A9
  8
SAPA_PROFIL
 10
25.616935565293488
 20
61.449635931807279
 30
0.0
  0
VERTEX
  5
11AA
  8
SAPA_PROFIL
 10
25.366935565293488
 20
61.449635931807279
 30
0.0
  0
VERTEX
  5
11AB
  8
SAPA_PROFIL
 10
25.89021586859554
 20
62.8258705253836
 30
0.0
 42
0.5450207798987201
  0
VERTEX
  5
11AC
  8
SAPA_PROFIL
 10
25.616935565293488
 20
63.249635931807227
 30
0.0
  0
VERTEX
  5
11AD
  8
SAPA_PROFIL
 10
25.366935565293488
 20
63.249635931807227
 30
0.0
  0
VERTEX
  5
11AE
  8
SAPA_PROFIL
 10
25.594698282677651
 20
63.973353226613419
 30
0.0
 42
-0.2945484962563026
  0
VERTEX
  5
11AF
  8
SAPA_PROFIL
 10
25.868053096355879
 20
64.149587891561623
 30
0.0
  0
VERTEX
  5
11B0
  8
SAPA_PROFIL
 10
26.802635627545438
 20
64.149380709595107
 30
0.0
 42
0.3475954753796591
  0
VERTEX
  5
11B1
  8
SAPA_PROFIL
 10
27.094609054615379
 20
64.380134753764196
 30
0.0
 42
-0.790522909611319
  0
VERTEX
  5
11B2
  8
SAPA_PROFIL
 10
29.040599655158982
 20
64.38014495820471
 30
0.0
 42
0.3476065658631364
  0
VERTEX
  5
11B3
  8
SAPA_PROFIL
 10
29.33258737618053
 20
64.149393979472507
 30
0.0
  0
VERTEX
  5
11B4
  8
SAPA_PROFIL
 10
29.916928227386961
 20
64.149540700181433
 30
0.0
 42
-0.4102317530969976
  0
VERTEX
  5
11B5
  8
SAPA_PROFIL
 10
30.2169638638793
 20
63.853689052027903
 30
0.0
 42
0.0712587206050384
  0
VERTEX
  5
11B6
  8
SAPA_PROFIL
 10
30.230191177748789
 20
63.769645127099693
 30
0.0
  0
VERTEX
  5
11B7
  8
SAPA_PROFIL
 10
30.766935565293579
 20
62.349635931807143
 30
0.0
  0
VERTEX
  5
11B8
  8
SAPA_PROFIL
 10
30.516935565293579
 20
62.349635931807143
 30
0.0
 42
0.5450200690651619
  0
VERTEX
  5
11B9
  8
SAPA_PROFIL
 10
30.243654565293578
 20
61.92587093180714
 30
0.0
  0
VERTEX
  5
11BA
  8
SAPA_PROFIL
 10
30.766935565293579
 20
60.549635931807188
 30
0.0
  0
VERTEX
  5
11BB
  8
SAPA_PROFIL
 10
30.516935565293579
 20
60.549635931807408
 30
0.0
 42
0.545020069065176
  0
VERTEX
  5
11BC
  8
SAPA_PROFIL
 10
30.243654565293578
 20
60.125870931807192
 30
0.0
  0
VERTEX
  5
11BD
  8
SAPA_PROFIL
 10
30.766935565293579
 20
58.749635931807227
 30
0.0
  0
VERTEX
  5
11BE
  8
SAPA_PROFIL
 10
30.516935565293579
 20
58.749635931807227
 30
0.0
 42
0.5450200690651692
  0
VERTEX
  5
11BF
  8
SAPA_PROFIL
 10
30.243654565293578
 20
58.325870931807231
 30
0.0
  0
VERTEX
  5
11C0
  8
SAPA_PROFIL
 10
30.766935565293579
 20
56.949635931807279
 30
0.0
  0
VERTEX
  5
11C1
  8
SAPA_PROFIL
 10
30.216935565293628
 20
56.949635931807279
 30
0.0
  0
VERTEX
  5
11C2
  8
SAPA_PROFIL
 10
30.216935565293628
 20
55.749635931807227
 30
0.0
 42
0.1989123673797004
  0
VERTEX
  5
11C3
  8
SAPA_PROFIL
 10
30.304803565293469
 20
55.537503931807123
 30
0.0
  0
VERTEX
  5
11C4
  8
SAPA_PROFIL
 10
31.14267156529354
 20
54.599635931807143
 30
0.0
  0
VERTEX
  5
11C5
  8
SAPA_PROFIL
 10
32.766935565293579
 20
54.599635931807143
 30
0.0
 42
0.4142135623730951
  0
VERTEX
  5
11C6
  8
SAPA_PROFIL
 10
33.066935565293527
 20
54.899635931807317
 30
0.0
  0
VERTEX
  5
11C7
  8
SAPA_PROFIL
 10
33.066935565293527
 20
76.099635931807143
 30
0.0
 42
-0.4142135623730951
  0
VERTEX
  5
11C8
  8
SAPA_PROFIL
 10
34.066935565293527
 20
77.099635931807143
 30
0.0
  0
VERTEX
  5
11C9
  8
SAPA_PROFIL
 10
42.266935565293572
 20
77.099635931807143
 30
0.0
 42
-0.4142135623730951
  0
VERTEX
  5
11CA
  8
SAPA_PROFIL
 10
42.766935565293579
 20
76.599635931807143
 30
0.0
  0
VERTEX
  5
11CB
  8
SAPA_PROFIL
 10
42.766935565293579
 20
73.399635931807325
 30
0.0
 42
-0.4142135623730951
  0
VERTEX
  5
11CC
  8
SAPA_PROFIL
 10
42.266935565293572
 20
72.899635931807325
 30
0.0
  0
VERTEX
  5
11CD
  8
SAPA_PROFIL
 10
39.366935565293488
 20
72.899635931807325
 30
0.0
 42
0.4142135623730951
  0
VERTEX
  5
11CE
  8
SAPA_PROFIL
 10
39.066935565293527
 20
72.599635931807143
 30
0.0
  0
VERTEX
  5
11CF
  8
SAPA_PROFIL
 10
39.066935565293527
 20
71.899635931807325
 30
0.0
 42
0.4142135623730951
  0
VERTEX
  5
11D0
  8
SAPA_PROFIL
 10
39.366935565293488
 20
71.599635931807143
 30
0.0
  0
VERTEX
  5
11D1
  8
SAPA_PROFIL
 10
46.066935565293527
 20
71.599635931807143
 30
0.0
  0
VERTEX
  5
11D2
  8
SAPA_PROFIL
 10
46.653319580794232
 20
72.064559351166281
 30
0.0
 42
0.7105995019814511
  0
VERTEX
  5
11D3
  8
SAPA_PROFIL
 10
46.466935565293632
 20
72.599635931807143
 30
0.0
  0
VERTEX
  5
11D4
  8
SAPA_PROFIL
 10
44.566935565293527
 20
72.599635931807143
 30
0.0
 42
-0.4142135623730951
  0
VERTEX
  5
11D5
  8
SAPA_PROFIL
 10
44.266935565293572
 20
72.899635931807325
 30
0.0
  0
VERTEX
  5
11D6
  8
SAPA_PROFIL
 10
44.266935565293572
 20
76.799635931807188
 30
0.0
 42
-0.4142135623730951
  0
VERTEX
  5
11D7
  8
SAPA_PROFIL
 10
44.566935565293527
 20
77.099635931807143
 30
0.0
  0
VERTEX
  5
11D8
  8
SAPA_PROFIL
 10
51.266935565293579
 20
77.099635931807143
 30
0.0
 42
-0.4142135623730951
  0
VERTEX
  5
11D9
  8
SAPA_PROFIL
 10
51.566935565293527
 20
76.799635931807188
 30
0.0
  0
VERTEX
  5
11DA
  8
SAPA_PROFIL
 10
51.566935565293527
 20
72.899635931807325
 30
0.0
 42
-0.4142135623730951
  0
VERTEX
  5
11DB
  8
SAPA_PROFIL
 10
51.266935565293579
 20
72.599635931807143
 30
0.0
  0
VERTEX
  5
11DC
  8
SAPA_PROFIL
 10
50.066935565293527
 20
72.599635931807143
 30
0.0
 42
0.7105990647993611
  0
VERTEX
  5
11DD
  8
SAPA_PROFIL
 10
49.880551565293452
 20
72.064559931807253
 30
0.0
  0
VERTEX
  5
11DE
  8
SAPA_PROFIL
 10
50.466935565293618
 20
71.599635931807143
 30
0.0
  0
VERTEX
  5
11DF
  8
SAPA_PROFIL
 10
52.766935565293579
 20
71.599635931807143
 30
0.0
 42
0.4142135623730951
  0
VERTEX
  5
11E0
  8
SAPA_PROFIL
 10
53.066935565293527
 20
71.899635931807325
 30
0.0
  0
VERTEX
  5
11E1
  8
SAPA_PROFIL
 10
53.066935565293527
 20
171.09963593180709
 30
0.0
 42
0.4142135623730951
  0
VERTEX
  5
11E2
  8
SAPA_PROFIL
 10
52.566935565293527
 20
171.59963593180709
 30
0.0
  0
VERTEX
  5
11E3
  8
SAPA_PROFIL
 10
3.5669355652935328
 20
171.59963593180709
 30
0.0
 42
0.4142135623730951
  0
VERTEX
  5
11E4
  8
SAPA_PROFIL
 10
3.0669355652935328
 20
171.09963593180709
 30
0.0
  0
VERTEX
  5
11E5
  8
SAPA_PROFIL
 10
3.0669355652935328
 20
71.899635931807325
 30
0.0
 42
0.4142135623730951
  0
VERTEX
  5
11E6
  8
SAPA_PROFIL
 10
3.3669355652934878
 20
71.599635931807143
 30
0.0
  0
VERTEX
  5
11E7
  8
SAPA_PROFIL
 10
5.6669355652934419
 20
71.599635931807143
 30
0.0
  0
VERTEX
  5
11E8
  8
SAPA_PROFIL
 10
6.2533195807941411
 20
72.064559351166281
 30
0.0
 42
0.7105995019814511
  0
VERTEX
  5
11E9
  8
SAPA_PROFIL
 10
6.0669355652935328
 20
72.599635931807143
 30
0.0
  0
VERTEX
  5
11EA
  8
SAPA_PROFIL
 10
4.8669355652934883
 20
72.599635931807143
 30
0.0
 42
-0.4142135623730951
  0
VERTEX
  5
11EB
  8
SAPA_PROFIL
 10
4.5669355652935328
 20
72.899635931807325
 30
0.0
  0
VERTEX
  5
11EC
  8
SAPA_PROFIL
 10
4.5669355652935328
 20
76.799635931807188
 30
0.0
 42
-0.4142135623730951
  0
VERTEX
  5
11ED
  8
SAPA_PROFIL
 10
4.8669355652934883
 20
77.099635931807143
 30
0.0
  0
VERTEX
  5
11EE
  8
SAPA_PROFIL
 10
11.56693556529353
 20
77.099635931807143
 30
0.0
 42
-0.4142135623730951
  0
VERTEX
  5
11EF
  8
SAPA_PROFIL
 10
11.86693556529349
 20
76.799635931807188
 30
0.0
  0
VERTEX
  5
11F0
  8
SAPA_PROFIL
 10
11.86693556529349
 20
72.899635931807325
 30
0.0
 42
-0.4142135623730951
  0
VERTEX
  5
11F1
  8
SAPA_PROFIL
 10
11.56693556529353
 20
72.599635931807143
 30
0.0
  0
VERTEX
  5
11F2
  8
SAPA_PROFIL
 10
9.6669355652934428
 20
72.599635931807143
 30
0.0
 42
0.7105995019814511
  0
VERTEX
  5
11F3
  8
SAPA_PROFIL
 10
9.4805515497928354
 20
72.064559351166281
 30
0.0
  0
VERTEX
  5
11F4
  8
SAPA_PROFIL
 10
10.06693556529353
 20
71.599635931807143
 30
0.0
  0
VERTEX
  5
11F5
  8
SAPA_PROFIL
 10
16.766935565293579
 20
71.599635931807143
 30
0.0
 42
0.4142135623730951
  0
VERTEX
  5
11F6
  8
SAPA_PROFIL
 10
17.06693556529353
 20
71.899635931807325
 30
0.0
  0
VERTEX
  5
11F7
  8
SAPA_PROFIL
 10
17.06693556529353
 20
72.599635931807143
 30
0.0
 42
0.4142135623730951
  0
VERTEX
  5
11F8
  8
SAPA_PROFIL
 10
16.766935565293579
 20
72.899635931807325
 30
0.0
  0
VERTEX
  5
11F9
  8
SAPA_PROFIL
 10
13.86693556529349
 20
72.899635931807325
 30
0.0
 42
-0.4142135623730951
  0
VERTEX
  5
11FA
  8
SAPA_PROFIL
 10
13.36693556529349
 20
73.399635931807325
 30
0.0
  0
VERTEX
  5
11FB
  8
SAPA_PROFIL
 10
13.36693556529349
 20
76.599635931807143
 30
0.0
 42
-0.4142135623730951
  0
VERTEX
  5
11FC
  8
SAPA_PROFIL
 10
13.86693556529349
 20
77.099635931807143
 30
0.0
  0
SEQEND
  5
11FD
  8
SAPA_PROFIL
  0
LINE
  5
858
  8
SAPA_PROFIL
 62
     4
 10
34.251997974320773
 20
79.385095760967474
 30
0.0
 11
34.251997974320723
 21
147.38509576096661
 31
0.0
  0
LINE
  5
859
  8
SAPA_PROFIL
 62
     4
 10
21.751997974320371
 20
147.385095760967
 30
0.0
 11
21.751997974321341
 21
79.385095760967033
 31
0.0
  0
POLYLINE
  5
85A
  8
SAPA_PROFIL
 62
     4
 66
     1
 10
0.0
 20
0.0
 30
0.0
 70
     1
  0
VERTEX
  5
11FE
  8
SAPA_PROFIL
 62
     4
 10
44.551997974321289
 20
79.885095760967488
 30
0.0
  0
VERTEX
  5
11FF
  8
SAPA_PROFIL
 62
     4
 10
44.551997974321289
 20
92.385095760966124
 30
0.0
 42
-0.4142135623729619
  0
VERTEX
  5
1200
  8
SAPA_PROFIL
 62
     4
 10
45.051997974320841
 20
92.885095760966124
 30
0.0
  0
VERTEX
  5
1201
  8
SAPA_PROFIL
 62
     4
 10
48.651997974321112
 20
92.885095760966564
 30
0.0
 42
0.4142135623731617
  0
VERTEX
  5
1202
  8
SAPA_PROFIL
 62
     4
 10
49.65199797432043
 20
93.885095760966564
 30
0.0
  0
VERTEX
  5
1203
  8
SAPA_PROFIL
 62
     4
 10
49.651997974320658
 20
124.88509576096661
 30
0.0
 42
0.4142135623730951
  0
VERTEX
  5
1204
  8
SAPA_PROFIL
 62
     4
 10
48.651997974320651
 20
125.88509576096661
 30
0.0
  0
VERTEX
  5
1205
  8
SAPA_PROFIL
 62
     4
 10
45.051997974321289
 20
125.88509576096661
 30
0.0
 42
-0.4142135623730951
  0
VERTEX
  5
1206
  8
SAPA_PROFIL
 62
     4
 10
44.551997974321289
 20
126.38509576096649
 30
0.0
  0
VERTEX
  5
1207
  8
SAPA_PROFIL
 62
     4
 10
44.551997974321353
 20
146.38509576096661
 30
0.0
 42
0.4142135623730951
  0
VERTEX
  5
1208
  8
SAPA_PROFIL
 62
     4
 10
43.551997974321353
 20
147.38509576096661
 30
0.0
  0
VERTEX
  5
1209
  8
SAPA_PROFIL
 62
     4
 10
12.451997974320991
 20
147.38509576096661
 30
0.0
 42
0.4142135623730951
  0
VERTEX
  5
120A
  8
SAPA_PROFIL
 62
     4
 10
11.451997974320991
 20
146.38509576096661
 30
0.0
  0
VERTEX
  5
120B
  8
SAPA_PROFIL
 62
     4
 10
11.451997974320481
 20
126.38509576096649
 30
0.0
 42
-0.4142135623732283
  0
VERTEX
  5
120C
  8
SAPA_PROFIL
 62
     4
 10
10.95199797432047
 20
125.8850957609661
 30
0.0
  0
VERTEX
  5
120D
  8
SAPA_PROFIL
 62
     4
 10
7.3519979743206596
 20
125.88509576096661
 30
0.0
 42
0.4142135623730951
  0
VERTEX
  5
120E
  8
SAPA_PROFIL
 62
     4
 10
6.3519979743206596
 20
124.88509576096661
 30
0.0
  0
VERTEX
  5
120F
  8
SAPA_PROFIL
 62
     4
 10
6.3519979743211152
 20
93.885095760966124
 30
0.0
 42
0.4142135623730951
  0
VERTEX
  5
1210
  8
SAPA_PROFIL
 62
     4
 10
7.3519979743211152
 20
92.885095760966124
 30
0.0
  0
VERTEX
  5
1211
  8
SAPA_PROFIL
 62
     4
 10
10.95199797432093
 20
92.885095760966564
 30
0.0
 42
-0.4142135623730951
  0
VERTEX
  5
1212
  8
SAPA_PROFIL
 62
     4
 10
11.45199797432093
 20
92.385095760966578
 30
0.0
  0
VERTEX
  5
1213
  8
SAPA_PROFIL
 62
     4
 10
11.45199797432082
 20
79.885095760966578
 30
0.0
 42
0.4142135623730951
  0
VERTEX
  5
1214
  8
SAPA_PROFIL
 62
     4
 10
11.95199797432082
 20
79.385095760966578
 30
0.0
  0
VERTEX
  5
1215
  8
SAPA_PROFIL
 62
     4
 10
44.051997974321289
 20
79.385095760967474
 30
0.0
 42
0.4142135623730951
  0
SEQEND
  5
1216
  8
SAPA_PROFIL
 62
     4
  0
POLYLINE
  5
85B
  8
SAPA_PROFIL
 66
     1
 10
0.0
 20
0.0
 30
0.0
 70
     1
  0
VERTEX
  5
1217
  8
SAPA_PROFIL
 10
50.866935565293943
 20
16.00116086060024
 30
0.0
  0
VERTEX
  5
1218
  8
SAPA_PROFIL
 10
51.86693556529395
 20
16.00116086060024
 30
0.0
  0
VERTEX
  5
1219
  8
SAPA_PROFIL
 10
51.86693556529395
 20
18.601160860600402
 30
0.0
 42
-0.4142135623730951
  0
VERTEX
  5
121A
  8
SAPA_PROFIL
 10
52.366935565293943
 20
19.101160860600402
 30
0.0
  0
VERTEX
  5
121B
  8
SAPA_PROFIL
 10
52.766935565294027
 20
19.101160860600402
 30
0.0
 42
-0.4142135623730951
  0
VERTEX
  5
121C
  8
SAPA_PROFIL
 10
53.066935565293988
 20
18.801160860600451
 30
0.0
  0
VERTEX
  5
121D
  8
SAPA_PROFIL
 10
53.066935565293988
 20
1.0996359327977521
 30
0.0
 42
-0.4142135623730951
  0
VERTEX
  5
121E
  8
SAPA_PROFIL
 10
52.566935565293981
 20
0.599635932797753
 30
0.0
  0
VERTEX
  5
121F
  8
SAPA_PROFIL
 10
3.566935565293988
 20
0.599635932797753
 30
0.0
 42
-0.4142135623730951
  0
VERTEX
  5
1220
  8
SAPA_PROFIL
 10
3.066935565293988
 20
1.0996359327977521
 30
0.0
  0
VERTEX
  5
1221
  8
SAPA_PROFIL
 10
3.066935565293988
 20
18.801160860600451
 30
0.0
 42
-0.4142135623730951
  0
VERTEX
  5
1222
  8
SAPA_PROFIL
 10
3.366935565293943
 20
19.101160860600402
 30
0.0
  0
VERTEX
  5
1223
  8
SAPA_PROFIL
 10
3.7669355652940331
 20
19.101160860600402
 30
0.0
 42
-0.4142135623730951
  0
VERTEX
  5
1224
  8
SAPA_PROFIL
 10
4.2669355652940331
 20
18.601160860600402
 30
0.0
  0
VERTEX
  5
1225
  8
SAPA_PROFIL
 10
4.2669355652940331
 20
16.00116086060024
 30
0.0
  0
VERTEX
  5
1226
  8
SAPA_PROFIL
 10
5.2669355652940331
 20
16.00116086060024
 30
0.0
  0
VERTEX
  5
1227
  8
SAPA_PROFIL
 10
5.8465963437151913
 20
14.99712810096724
 30
0.0
 42
-0.4155392929676362
  0
VERTEX
  5
1228
  8
SAPA_PROFIL
 10
5.5506229174093269
 20
13.902509129175259
 30
0.0
  0
VERTEX
  5
1229
  8
SAPA_PROFIL
 10
4.2669355652940331
 20
13.161371890876289
 30
0.0
  0
VERTEX
  5
122A
  8
SAPA_PROFIL
 10
4.2669355652940331
 20
2.9996359327976161
 30
0.0
 42
0.4142135623730951
  0
VERTEX
  5
122B
  8
SAPA_PROFIL
 10
5.2669355652940331
 20
1.9996359327976161
 30
0.0
  0
VERTEX
  5
122C
  8
SAPA_PROFIL
 10
50.866935565293943
 20
1.9996359327976161
 30
0.0
 42
0.4142135623730951
  0
VERTEX
  5
122D
  8
SAPA_PROFIL
 10
51.86693556529395
 20
2.9996359327976161
 30
0.0
  0
VERTEX
  5
122E
  8
SAPA_PROFIL
 10
51.86693556529395
 20
13.161371890876289
 30
0.0
  0
VERTEX
  5
122F
  8
SAPA_PROFIL
 10
50.583248213178649
 20
13.902509129175259
 30
0.0
 42
-0.4155392929676362
  0
VERTEX
  5
1230
  8
SAPA_PROFIL
 10
50.287274786872793
 20
14.99712810096724
 30
0.0
  0
SEQEND
  5
1231
  8
SAPA_PROFIL
  0
POLYLINE
  5
85C
  8
SAPA_PROFIL
 66
     1
 10
0.0
 20
0.0
 30
0.0
 70
     1
  0
VERTEX
  5
1232
  8
SAPA_PROFIL
 10
7.2169355652933973
 20
20.59963593279781
 30
0.0
 42
-0.1989123673797145
  0
VERTEX
  5
1233
  8
SAPA_PROFIL
 10
7.4290675996496702
 20
20.511767967153901
 30
0.0
  0
VERTEX
  5
1234
  8
SAPA_PROFIL
 10
7.8290675996493064
 20
20.11176796715381
 30
0.0
 42
-0.668178637919182
  0
VERTEX
  5
1235
  8
SAPA_PROFIL
 10
7.6169355652934883
 20
19.59963593279781
 30
0.0
  0
VERTEX
  5
1236
  8
SAPA_PROFIL
 10
6.7669355652935792
 20
19.59963593279781
 30
0.0
 42
0.4142135623730284
  0
VERTEX
  5
1237
  8
SAPA_PROFIL
 10
6.2669355652935792
 20
19.09963593279781
 30
0.0
  0
VERTEX
  5
1238
  8
SAPA_PROFIL
 10
6.2669355652935792
 20
18.708827003077658
 30
0.0
 42
0.17632698070845
  0
VERTEX
  5
1239
  8
SAPA_PROFIL
 10
6.3371222323578422
 20
18.515990720171882
 30
0.0
  0
VERTEX
  5
123A
  8
SAPA_PROFIL
 10
7.8552137921585654
 20
16.706799649892218
 30
0.0
 42
0.2216946626429421
  0
VERTEX
  5
123B
  8
SAPA_PROFIL
 10
8.0850271250944843
 20
16.599635932798261
 30
0.0
  0
VERTEX
  5
123C
  8
SAPA_PROFIL
 10
11.61693556529349
 20
16.59963593279781
 30
0.0
 42
0.4142135623730951
  0
VERTEX
  5
123D
  8
SAPA_PROFIL
 10
11.91693556529367
 20
16.899635932797992
 30
0.0
  0
VERTEX
  5
123E
  8
SAPA_PROFIL
 10
11.91693556529321
 20
19.299635932798079
 30
0.0
 42
0.4142135623730951
  0
VERTEX
  5
123F
  8
SAPA_PROFIL
 10
11.61693556529349
 20
19.59963593279781
 30
0.0
  0
VERTEX
  5
1240
  8
SAPA_PROFIL
 10
11.21693556529339
 20
19.59963593279781
 30
0.0
 42
-0.6681786379193188
  0
VERTEX
  5
1241
  8
SAPA_PROFIL
 10
11.004803530937579
 20
20.11176796715381
 30
0.0
  0
VERTEX
  5
1242
  8
SAPA_PROFIL
 10
11.40480353093767
 20
20.511767967153901
 30
0.0
 42
-0.198912367379658
  0
VERTEX
  5
1243
  8
SAPA_PROFIL
 10
11.61693556529349
 20
20.59963593279781
 30
0.0
  0
VERTEX
  5
1244
  8
SAPA_PROFIL
 10
13.41693556529321
 20
20.599635932798261
 30
0.0
 42
-0.4142135623731284
  0
VERTEX
  5
1245
  8
SAPA_PROFIL
 10
13.91693556529321
 20
20.099635932798261
 30
0.0
  0
VERTEX
  5
1246
  8
SAPA_PROFIL
 10
13.91693556529367
 20
15.59963593279735
 30
0.0
 42
-0.4142135623730951
  0
VERTEX
  5
1247
  8
SAPA_PROFIL
 10
13.41693556529367
 20
15.09963593279735
 30
0.0
  0
VERTEX
  5
1248
  8
SAPA_PROFIL
 10
9.4169355652936702
 20
15.099635932798259
 30
0.0
 42
0.4142135623729619
  0
VERTEX
  5
1249
  8
SAPA_PROFIL
 10
8.9169355652936702
 20
14.599635932798259
 30
0.0
  0
VERTEX
  5
124A
  8
SAPA_PROFIL
 10
8.9169355652936702
 20
12.582679285594621
 30
0.0
 42
0.1763269807084973
  0
VERTEX
  5
124B
  8
SAPA_PROFIL
 10
9.0339133437344117
 20
12.26128548075121
 30
0.0
  0
VERTEX
  5
124C
  8
SAPA_PROFIL
 10
11.11743410526355
 20
9.7782421279548544
 30
0.0
 42
0.2216946626428772
  0
VERTEX
  5
124D
  8
SAPA_PROFIL
 10
11.50045632682281
 20
9.5996359327982645
 30
0.0
  0
VERTEX
  5
124E
  8
SAPA_PROFIL
 10
17.498401836902531
 20
9.5996359327978098
 30
0.0
 42
0.315298788878991
  0
VERTEX
  5
124F
  8
SAPA_PROFIL
 10
17.968248147295299
 20
9.9286258611350604
 30
0.0
  0
VERTEX
  5
1250
  8
SAPA_PROFIL
 10
19.428871694761931
 20
13.94165607612376
 30
0.0
 42
-0.3152987888789731
  0
VERTEX
  5
1251
  8
SAPA_PROFIL
 10
20.368564315547928
 20
14.599635932798259
 30
0.0
  0
VERTEX
  5
1252
  8
SAPA_PROFIL
 10
21.41693556529367
 20
14.599635932798259
 30
0.0
 42
0.4142135623732616
  0
VERTEX
  5
1253
  8
SAPA_PROFIL
 10
21.716935565293848
 20
14.89963593279799
 30
0.0
  0
VERTEX
  5
1254
  8
SAPA_PROFIL
 10
21.716935565293848
 20
15.299635932798081
 30
0.0
 42
-0.4142135623731506
  0
VERTEX
  5
1255
  8
SAPA_PROFIL
 10
22.016935565293579
 20
15.599635932798259
 30
0.0
  0
VERTEX
  5
1256
  8
SAPA_PROFIL
 10
22.41693556529367
 20
15.599635932798259
 30
0.0
 42
-0.4142135623731505
  0
VERTEX
  5
1257
  8
SAPA_PROFIL
 10
22.716935565293848
 20
15.299635932798081
 30
0.0
  0
VERTEX
  5
1258
  8
SAPA_PROFIL
 10
22.716935565293848
 20
14.89963593279799
 30
0.0
 42
0.4142135623732061
  0
VERTEX
  5
1259
  8
SAPA_PROFIL
 10
23.016935565293579
 20
14.599635932798259
 30
0.0
  0
VERTEX
  5
125A
  8
SAPA_PROFIL
 10
27.442671496581848
 20
14.599635932798259
 30
0.0
 42
-0.198912367379577
  0
VERTEX
  5
125B
  8
SAPA_PROFIL
 10
27.65480353093767
 20
14.511767967153901
 30
0.0
  0
VERTEX
  5
125C
  8
SAPA_PROFIL
 10
28.066935565293761
 20
14.099635932798259
 30
0.0
  0
VERTEX
  5
125D
  8
SAPA_PROFIL
 10
28.479067599649849
 20
14.511767967153901
 30
0.0
 42
-0.1989123673795771
  0
VERTEX
  5
125E
  8
SAPA_PROFIL
 10
28.69119963400567
 20
14.599635932798259
 30
0.0
  0
VERTEX
  5
125F
  8
SAPA_PROFIL
 10
33.116935565293488
 20
14.599635932798259
 30
0.0
 42
0.4142135623732059
  0
VERTEX
  5
1260
  8
SAPA_PROFIL
 10
33.41693556529367
 20
14.89963593279799
 30
0.0
  0
VERTEX
  5
1261
  8
SAPA_PROFIL
 10
33.41693556529367
 20
15.299635932798081
 30
0.0
 42
-0.4142135623731506
  0
VERTEX
  5
1262
  8
SAPA_PROFIL
 10
33.716935565293852
 20
15.599635932798259
 30
0.0
  0
VERTEX
  5
1263
  8
SAPA_PROFIL
 10
34.116935565293488
 20
15.599635932798259
 30
0.0
 42
-0.4142135623731505
  0
VERTEX
  5
1264
  8
SAPA_PROFIL
 10
34.41693556529367
 20
15.299635932798081
 30
0.0
  0
VERTEX
  5
1265
  8
SAPA_PROFIL
 10
34.41693556529367
 20
14.89963593279799
 30
0.0
 42
0.4142135623732615
  0
VERTEX
  5
1266
  8
SAPA_PROFIL
 10
34.716935565293852
 20
14.599635932798259
 30
0.0
  0
VERTEX
  5
1267
  8
SAPA_PROFIL
 10
35.765306815039139
 20
14.599635932798259
 30
0.0
 42
-0.3152987888789731
  0
VERTEX
  5
1268
  8
SAPA_PROFIL
 10
36.70499943582513
 20
13.94165607612376
 30
0.0
  0
VERTEX
  5
1269
  8
SAPA_PROFIL
 10
38.165622983291769
 20
9.9286258611350604
 30
0.0
 42
0.315298788878991
  0
VERTEX
  5
126A
  8
SAPA_PROFIL
 10
38.635469293684991
 20
9.5996359327978098
 30
0.0
  0
VERTEX
  5
126B
  8
SAPA_PROFIL
 10
44.633414803764254
 20
9.5996359327982645
 30
0.0
 42
0.2216946626428772
  0
VERTEX
  5
126C
  8
SAPA_PROFIL
 10
45.016437025323512
 20
9.7782421279548544
 30
0.0
  0
VERTEX
  5
126D
  8
SAPA_PROFIL
 10
47.099957786853111
 20
12.26128548075121
 30
0.0
 42
0.1763269807084973
  0
VERTEX
  5
126E
  8
SAPA_PROFIL
 10
47.216935565293852
 20
12.582679285594621
 30
0.0
  0
VERTEX
  5
126F
  8
SAPA_PROFIL
 10
47.216935565293852
 20
14.599635932798259
 30
0.0
 42
0.4142135623729619
  0
VERTEX
  5
1270
  8
SAPA_PROFIL
 10
46.716935565293852
 20
15.099635932798259
 30
0.0
  0
VERTEX
  5
1271
  8
SAPA_PROFIL
 10
42.716935565293852
 20
15.09963593279735
 30
0.0
 42
-0.4142135623730951
  0
VERTEX
  5
1272
  8
SAPA_PROFIL
 10
42.216935565293852
 20
15.59963593279735
 30
0.0
  0
VERTEX
  5
1273
  8
SAPA_PROFIL
 10
42.216935565293852
 20
20.099635932798261
 30
0.0
 42
-0.4142135623731285
  0
VERTEX
  5
1274
  8
SAPA_PROFIL
 10
42.716935565293852
 20
20.599635932798261
 30
0.0
  0
VERTEX
  5
1275
  8
SAPA_PROFIL
 10
44.516935565294027
 20
20.59963593279781
 30
0.0
 42
-0.198912367379658
  0
VERTEX
  5
1276
  8
SAPA_PROFIL
 10
44.729067599649852
 20
20.511767967153901
 30
0.0
  0
VERTEX
  5
1277
  8
SAPA_PROFIL
 10
45.129067599649943
 20
20.11176796715381
 30
0.0
 42
-0.6681786379193188
  0
VERTEX
  5
1278
  8
SAPA_PROFIL
 10
44.91693556529367
 20
19.59963593279781
 30
0.0
  0
VERTEX
  5
1279
  8
SAPA_PROFIL
 10
44.516935565294027
 20
19.59963593279781
 30
0.0
 42
0.4142135623730951
  0
VERTEX
  5
127A
  8
SAPA_PROFIL
 10
44.216935565293852
 20
19.299635932798079
 30
0.0
  0
VERTEX
  5
127B
  8
SAPA_PROFIL
 10
44.216935565293852
 20
16.899635932797992
 30
0.0
 42
0.4142135623730951
  0
VERTEX
  5
127C
  8
SAPA_PROFIL
 10
44.516935565294027
 20
16.59963593279781
 30
0.0
  0
VERTEX
  5
127D
  8
SAPA_PROFIL
 10
48.048844005493038
 20
16.599635932798261
 30
0.0
 42
0.221694662642942
  0
VERTEX
  5
127E
  8
SAPA_PROFIL
 10
48.278657338428502
 20
16.706799649892218
 30
0.0
  0
VERTEX
  5
127F
  8
SAPA_PROFIL
 10
49.796748898229232
 20
18.515990720171882
 30
0.0
 42
0.1763269807084499
  0
VERTEX
  5
1280
  8
SAPA_PROFIL
 10
49.866935565293488
 20
18.708827003077658
 30
0.0
  0
VERTEX
  5
1281
  8
SAPA_PROFIL
 10
49.866935565293943
 20
19.09963593279781
 30
0.0
 42
0.4142135623730284
  0
VERTEX
  5
1282
  8
SAPA_PROFIL
 10
49.36693556529395
 20
19.59963593279781
 30
0.0
  0
VERTEX
  5
1283
  8
SAPA_PROFIL
 10
48.516935565294027
 20
19.59963593279781
 30
0.0
 42
-0.668178637919182
  0
VERTEX
  5
1284
  8
SAPA_PROFIL
 10
48.304803530937761
 20
20.11176796715381
 30
0.0
  0
VERTEX
  5
1285
  8
SAPA_PROFIL
 10
48.704803530937852
 20
20.511767967153901
 30
0.0
 42
-0.1989123673797144
  0
VERTEX
  5
1286
  8
SAPA_PROFIL
 10
48.91693556529367
 20
20.59963593279781
 30
0.0
  0
VERTEX
  5
1287
  8
SAPA_PROFIL
 10
51.366935565293943
 20
20.59963593279781
 30
0.0
 42
-0.4142135623730951
  0
VERTEX
  5
1288
  8
SAPA_PROFIL
 10
51.86693556529395
 20
20.09963593279781
 30
0.0
  0
VERTEX
  5
1289
  8
SAPA_PROFIL
 10
51.86693556529395
 20
16.399635932797992
 30
0.0
 42
-0.4142135623730951
  0
VERTEX
  5
128A
  8
SAPA_PROFIL
 10
51.566935565294223
 20
16.09963593279781
 30
0.0
  0
VERTEX
  5
128B
  8
SAPA_PROFIL
 10
50.540140646050759
 20
16.09963593279781
 30
0.0
 42
0.2679491924311428
  0
VERTEX
  5
128C
  8
SAPA_PROFIL
 10
50.280333024915542
 20
15.949635932797721
 30
0.0
  0
VERTEX
  5
128D
  8
SAPA_PROFIL
 10
49.392897459617188
 20
14.412552445257459
 30
0.0
 42
0.4142135623731709
  0
VERTEX
  5
128E
  8
SAPA_PROFIL
 10
49.502705080752769
 20
14.002744824122139
 30
0.0
  0
VERTEX
  5
128F
  8
SAPA_PROFIL
 10
50.034846679055811
 20
13.69551272909484
 30
0.0
 42
-0.4663076581551056
  0
VERTEX
  5
1290
  8
SAPA_PROFIL
 10
50.300891122174789
 20
12.18669971562394
 30
0.0
  0
VERTEX
  5
1291
  8
SAPA_PROFIL
 10
46.18220617071097
 20
7.2782421279548544
 30
0.0
 42
-0.2216946626428921
  0
VERTEX
  5
1292
  8
SAPA_PROFIL
 10
45.799183949151249
 20
7.0996359327978089
 30
0.0
  0
VERTEX
  5
1293
  8
SAPA_PROFIL
 10
37.767143103503493
 20
7.0996359327978089
 30
0.0
 42
-0.3152987888789878
  0
VERTEX
  5
1294
  8
SAPA_PROFIL
 10
36.827450482717502
 20
7.757615789472311
 30
0.0
  0
VERTEX
  5
1295
  8
SAPA_PROFIL
 10
35.486569476538762
 20
11.44165607612376
 30
0.0
 42
0.3152987888789804
  0
VERTEX
  5
1296
  8
SAPA_PROFIL
 10
34.546876855752771
 20
12.099635932798259
 30
0.0
  0
VERTEX
  5
1297
  8
SAPA_PROFIL
 10
21.5869942748343
 20
12.099635932798259
 30
0.0
 42
0.3152987888789804
  0
VERTEX
  5
1298
  8
SAPA_PROFIL
 10
20.647301654048309
 20
11.44165607612376
 30
0.0
  0
VERTEX
  5
1299
  8
SAPA_PROFIL
 10
19.306420647870031
 20
7.757615789472311
 30
0.0
 42
-0.3152987888789877
  0
VERTEX
  5
129A
  8
SAPA_PROFIL
 10
18.36672802708404
 20
7.0996359327978089
 30
0.0
  0
VERTEX
  5
129B
  8
SAPA_PROFIL
 10
10.334687181435809
 20
7.0996359327978089
 30
0.0
 42
-0.2216946626428921
  0
VERTEX
  5
129C
  8
SAPA_PROFIL
 10
9.9516649598765525
 20
7.2782421279548544
 30
0.0
  0
VERTEX
  5
129D
  8
SAPA_PROFIL
 10
5.8329800084127319
 20
12.18669971562394
 30
0.0
 42
-0.4663076581551056
  0
VERTEX
  5
129E
  8
SAPA_PROFIL
 10
6.0990244515312488
 20
13.69551272909484
 30
0.0
  0
VERTEX
  5
129F
  8
SAPA_PROFIL
 10
6.6311660498347456
 20
14.002744824122139
 30
0.0
 42
0.414213562373157
  0
VERTEX
  5
12A0
  8
SAPA_PROFIL
 10
6.7409736709698791
 20
14.412552445257459
 30
0.0
  0
VERTEX
  5
12A1
  8
SAPA_PROFIL
 10
5.8535381056715323
 20
15.949635932797721
 30
0.0
 42
0.2679491924311554
  0
VERTEX
  5
12A2
  8
SAPA_PROFIL
 10
5.5937304845363078
 20
16.09963593279781
 30
0.0
  0
VERTEX
  5
12A3
  8
SAPA_PROFIL
 10
4.5669355652933064
 20
16.09963593279781
 30
0.0
 42
-0.4142135623730951
  0
VERTEX
  5
12A4
  8
SAPA_PROFIL
 10
4.2669355652931236
 20
16.399635932797992
 30
0.0
  0
VERTEX
  5
12A5
  8
SAPA_PROFIL
 10
4.2669355652935792
 20
20.09963593279781
 30
0.0
 42
-0.4142135623730951
  0
VERTEX
  5
12A6
  8
SAPA_PROFIL
 10
4.7669355652935792
 20
20.59963593279781
 30
0.0
  0
SEQEND
  5
12A7
  8
SAPA_PROFIL
  0
POLYLINE
  5
85D
  8
SAPA_PROFIL
 62
     4
 66
     1
 10
0.0
 20
0.0
 30
0.0
 70
     1
  0
VERTEX
  5
12A8
  8
SAPA_PROFIL
 62
     4
 10
28.981149119991869
 20
18.599635933542679
 30
0.0
 42
0.1989123671061432
  0
VERTEX
  5
12A9
  8
SAPA_PROFIL
 62
     4
 10
28.274042339549631
 20
18.892529151612049
 30
0.0
  0
VERTEX
  5
12AA
  8
SAPA_PROFIL
 62
     4
 10
27.85982879103836
 20
18.892529151612049
 30
0.0
 42
0.1989123671061405
  0
VERTEX
  5
12AB
  8
SAPA_PROFIL
 62
     4
 10
27.152722010596111
 20
18.599635933542679
 30
0.0
  0
VERTEX
  5
12AC
  8
SAPA_PROFIL
 62
     4
 10
24.920488955515111
 20
16.367402883160139
 30
0.0
 42
-0.6681786375387241
  0
VERTEX
  5
12AD
  8
SAPA_PROFIL
 62
     4
 10
24.066935565293761
 20
16.720956274125449
 30
0.0
  0
VERTEX
  5
12AE
  8
SAPA_PROFIL
 62
     4
 10
24.066935565293761
 20
33.099635932798272
 30
0.0
 42
-0.4142135623730951
  0
VERTEX
  5
12AF
  8
SAPA_PROFIL
 62
     4
 10
24.566935565293761
 20
33.599635932798272
 30
0.0
  0
VERTEX
  5
12B0
  8
SAPA_PROFIL
 62
     4
 10
31.566935565293761
 20
33.599635932798272
 30
0.0
 42
-0.4142135623730951
  0
VERTEX
  5
12B1
  8
SAPA_PROFIL
 62
     4
 10
32.066935565293761
 20
33.099635932798272
 30
0.0
  0
VERTEX
  5
12B2
  8
SAPA_PROFIL
 62
     4
 10
32.066935565293761
 20
16.720956274125449
 30
0.0
 42
-0.6681786375387241
  0
VERTEX
  5
12B3
  8
SAPA_PROFIL
 62
     4
 10
31.213382175072411
 20
16.367402883160139
 30
0.0
  0
SEQEND
  5
12B4
  8
SAPA_PROFIL
 62
     4
  0
POLYLINE
  5
85E
  8
SAPA_PROFIL
 62
     4
 66
     1
 10
0.0
 20
0.0
 30
0.0
 70
     1
  0
VERTEX
  5
12B5
  8
SAPA_PROFIL
 62
     4
 10
29.316935565293761
 20
60.329823906511358
 30
0.0
  0
VERTEX
  5
12B6
  8
SAPA_PROFIL
 62
     4
 10
29.316935565293761
 20
55.035422370425287
 30
0.0
  0
VERTEX
  5
12B7
  8
SAPA_PROFIL
 62
     4
 10
30.752722002920791
 20
53.599635932798257
 30
0.0
  0
VERTEX
  5
12B8
  8
SAPA_PROFIL
 62
     4
 10
31.566935565293761
 20
53.599635932798257
 30
0.0
 42
-0.4142135623730951
  0
VERTEX
  5
12B9
  8
SAPA_PROFIL
 62
     4
 10
32.066935565293761
 20
53.099635932798257
 30
0.0
  0
VERTEX
  5
12BA
  8
SAPA_PROFIL
 62
     4
 10
32.066935565293761
 20
35.099635932798257
 30
0.0
 42
-0.4142135623730951
  0
VERTEX
  5
12BB
  8
SAPA_PROFIL
 62
     4
 10
31.566935565293761
 20
34.599635932798272
 30
0.0
  0
VERTEX
  5
12BC
  8
SAPA_PROFIL
 62
     4
 10
24.566935565293761
 20
34.599635932798272
 30
0.0
 42
-0.4142135623730951
  0
VERTEX
  5
12BD
  8
SAPA_PROFIL
 62
     4
 10
24.066935565293761
 20
35.099635932798257
 30
0.0
  0
VERTEX
  5
12BE
  8
SAPA_PROFIL
 62
     4
 10
24.066935565293761
 20
53.099635932798257
 30
0.0
 42
-0.4142135623730951
  0
VERTEX
  5
12BF
  8
SAPA_PROFIL
 62
     4
 10
24.566935565293761
 20
53.599635932798257
 30
0.0
  0
VERTEX
  5
12C0
  8
SAPA_PROFIL
 62
     4
 10
25.381149127667189
 20
53.599635932798257
 30
0.0
  0
VERTEX
  5
12C1
  8
SAPA_PROFIL
 62
     4
 10
26.816935565293761
 20
55.035422370425287
 30
0.0
  0
VERTEX
  5
12C2
  8
SAPA_PROFIL
 62
     4
 10
26.816935565293761
 20
60.329823906511358
 30
0.0
 42
-0.065831318015991
  0
VERTEX
  5
12C3
  8
SAPA_PROFIL
 62
     4
 10
27.670697275690831
 20
61.636030341977168
 30
0.0
 42
-0.3293016377614416
  0
VERTEX
  5
12C4
  8
SAPA_PROFIL
 62
     4
 10
28.390566806847119
 20
61.718873871806409
 30
0.0
 42
-0.0704800454100707
  0
SEQEND
  5
12C5
  8
SAPA_PROFIL
 62
     4
  0
POLYLINE
  5
85F
  8
SAPA_PROFIL
 62
     4
 66
     1
 10
0.0
 20
0.0
 30
0.0
 70
     1
  0
VERTEX
  5
12C6
  8
SAPA_PROFIL
 62
     4
 10
30.316935565293761
 20
60.00466889101358
 30
0.0
  0
VERTEX
  5
12C7
  8
SAPA_PROFIL
 62
     4
 10
30.316935565293761
 20
55.449635932798166
 30
0.0
  0
VERTEX
  5
12C8
  8
SAPA_PROFIL
 62
     4
 10
31.16693556529367
 20
54.599635932798272
 30
0.0
  0
VERTEX
  5
12C9
  8
SAPA_PROFIL
 62
     4
 10
32.566935565293761
 20
54.599635932798272
 30
0.0
 42
-0.4142135623730951
  0
VERTEX
  5
12CA
  8
SAPA_PROFIL
 62
     4
 10
33.066935565293761
 20
54.099635932798257
 30
0.0
  0
VERTEX
  5
12CB
  8
SAPA_PROFIL
 62
     4
 10
33.066935565293761
 20
14.599635932798259
 30
0.0
  0
VERTEX
  5
12CC
  8
SAPA_PROFIL
 62
     4
 10
31.566935565293761
 20
14.599635932798259
 30
0.0
  0
VERTEX
  5
12CD
  8
SAPA_PROFIL
 62
     4
 10
28.420488949264609
 20
17.746082542204931
 30
0.0
 42
0.4142135623730951
  0
VERTEX
  5
12CE
  8
SAPA_PROFIL
 62
     4
 10
27.713382168077938
 20
17.746082542204931
 30
0.0
  0
VERTEX
  5
12CF
  8
SAPA_PROFIL
 62
     4
 10
24.566935565293761
 20
14.599635932798259
 30
0.0
  0
VERTEX
  5
12D0
  8
SAPA_PROFIL
 62
     4
 10
23.066935565293761
 20
14.599635932798259
 30
0.0
  0
VERTEX
  5
12D1
  8
SAPA_PROFIL
 62
     4
 10
23.066935565293761
 20
54.099635932798257
 30
0.0
 42
-0.4142135623730951
  0
VERTEX
  5
12D2
  8
SAPA_PROFIL
 62
     4
 10
23.566935565293761
 20
54.599635932798272
 30
0.0
  0
VERTEX
  5
12D3
  8
SAPA_PROFIL
 62
     4
 10
24.966935565293848
 20
54.599635932798272
 30
0.0
  0
VERTEX
  5
12D4
  8
SAPA_PROFIL
 62
     4
 10
25.816935565293761
 20
55.449635932798166
 30
0.0
  0
VERTEX
  5
12D5
  8
SAPA_PROFIL
 62
     4
 10
25.816935565293761
 20
60.00466889101358
 30
0.0
 42
-0.0912836897734228
  0
VERTEX
  5
12D6
  8
SAPA_PROFIL
 62
     4
 10
27.035577233103819
 20
62.12422592461553
 30
0.0
 42
-0.4609552212306322
  0
VERTEX
  5
12D7
  8
SAPA_PROFIL
 62
     4
 10
29.098293897484151
 20
62.12422592461553
 30
0.0
 42
-0.0912836897734229
  0
SEQEND
  5
12D8
  8
SAPA_PROFIL
 62
     4
  0
LINE
  5
860
  8
SAPA_PROFIL
 10
28.066935565293988
 20
0.599635932797753
 30
0.0
 11
3.566935565293988
 21
0.599635932797753
 31
0.0
  0
LINE
  5
861
  8
SAPA_PROFIL
 10
7.1342869220097782
 20
171.59963593180709
 30
0.0
 11
3.5669355652935328
 21
171.59963593180709
 31
0.0
  0
POLYLINE
  5
885
  8
SAPA_GLAS
 66
     1
 10
0.0
 20
0.0
 30
0.0
 70
     1
  0
VERTEX
  5
12F5
  8
SAPA_GLAS
 10
39.501092021215761
 20
42.974172781276252
 30
0.0
  0
VERTEX
  5
12F6
  8
SAPA_GLAS
 10
49.815782061095383
 20
42.974172781276252
 30
0.0
  0
VERTEX
  5
12F7
  8
SAPA_GLAS
 10
49.815782061095383
 20
30.974172781274429
 30
0.0
  0
VERTEX
  5
12F8
  8
SAPA_GLAS
 10
39.501092021215761
 20
30.974172781274429
 30
0.0
  0
SEQEND
  5
12F9
  8
SAPA_GLAS
  0
POLYLINE
  5
886
  8
SAPA_GLAS
 66
     1
 10
0.0
 20
0.0
 30
0.0
  0
VERTEX
  5
12FA
  8
SAPA_GLAS
 10
69.501092021216209
 20
30.974172781274429
 30
0.0
  0
VERTEX
  5
12FB
  8
SAPA_GLAS
 10
39.501092021215761
 20
30.974172781274429
 30
0.0
  0
VERTEX
  5
12FC
  8
SAPA_GLAS
 10
39.501092021215761
 20
24.974172781274429
 30
0.0
  0
VERTEX
  5
12FD
  8
SAPA_GLAS
 10
69.501092021216209
 20
24.97417278127466
 30
0.0
  0
SEQEND
  5
12FE
  8
SAPA_GLAS
  0
POLYLINE
  5
887
  8
SAPA_GLAS
 66
     1
 10
0.0
 20
0.0
 30
0.0
  0
VERTEX
  5
12FF
  8
SAPA_GLAS
 10
69.501092021216209
 20
42.974172781276252
 30
0.0
  0
VERTEX
  5
1300
  8
SAPA_GLAS
 10
39.501092021215761
 20
42.974172781276252
 30
0.0
  0
VERTEX
  5
1301
  8
SAPA_GLAS
 10
39.501092021215761
 20
60.974172781276252
 30
0.0
  0
VERTEX
  5
1302
  8
SAPA_GLAS
 10
69.501092021216209
 20
60.974172781276252
 30
0.0
  0
SEQEND
  5
1303
  8
SAPA_GLAS
  0
POLYLINE
  5
888
  8
SAPA_GLAS
 66
     1
 10
0.0
 20
0.0
 30
0.0
  0
VERTEX
  5
1304
  8
SAPA_GLAS
 10
69.501092021216209
 20
48.974172781276252
 30
0.0
  0
VERTEX
  5
1305
  8
SAPA_GLAS
 10
39.501092021215761
 20
48.974172781276252
 30
0.0
  0
VERTEX
  5
1306
  8
SAPA_GLAS
 10
39.501092021215761
 20
54.974172781276252
 30
0.0
  0
VERTEX
  5
1307
  8
SAPA_GLAS
 10
69.501092021216209
 20
54.974172781276252
 30
0.0
  0
SEQEND
  5
1308
  8
SAPA_GLAS
  0
INSERT
  5
88E
  8
SAPA_ISOLATOR
  6
CONTINUOUS
  2
*X64
 10
0.0
 20
0.0
 30
0.0
1001
ACAD
1000
HATCH
1002
{
1070
    19
1000
DOTS
1040
1.75
1040
0.0
1000
R14_HATCH_DATA
1000
88E
1011
1.0
1021
0.0
1031
0.0
1021
0.0
1031
0.0
1011
0.0
1021
0.0
1031
0.0
1021
1.0
1031
0.0
1011
0.0
1021
0.0
1031
0.0
1021
0.0
1031
1.0
1040
0.0
1010
0.0
1020
0.0
1030
1.0
1000
DOTS
1070
     0
1070
     0
1071
        3
1071
        7
1070
     1
1070
     1
1071
       14
1040
6.5019979743211129
1040
93.885095760966124
1040
0.4142135623730952
1040
7.5019979743211129
1040
92.885095760966124
1040
0.0
1040
10.70199797432093
1040
92.885095760966564
1040
-0.4142135623730951
1040
11.20199797432093
1040
92.385095760966578
1040
0.0
1040
11.20199797432082
1040
79.885095760966578
1040
0.4142135623730951
1040
11.70199797432082
1040
79.385095760966578
1040
0.0
1040
21.501997974321341
1040
79.385095760966834
1040
0.0
1040
21.501997974320371
1040
147.38509576096661
1040
0.0
1040
12.201997974320991
1040
147.38509576096661
1040
0.4142135623730951
1040
11.201997974320991
1040
146.38509576096661
1040
0.0
1040
11.20199797432047
1040
126.38509576096649
1040
-0.4142135623730951
1040
10.701997974320481
1040
125.8850957609661
1040
0.0
1040
7.5019979743206591
1040
125.88509576096661
1040
0.4142135623730951
1040
6.5019979743206591
1040
124.88509576096661
1040
0.0
1071
        0
1071
        7
1070
     0
1070
     1
1071
        4
1040
21.501997974321341
1040
79.385095760966834
1040
34.501997974320773
1040
79.385095760967218
1040
34.501997974320723
1040
147.38509576096661
1040
21.501997974320371
1040
147.38509576096661
1071
        0
1071
        7
1070
     1
1070
     1
1071
       14
1040
49.501997974320659
1040
124.88509576096661
1040
0.4142135623730951
1040
48.501997974320659
1040
125.88509576096661
1040
0.0
1040
45.301997974321289
1040
125.88509576096661
1040
-0.4142135623730951
1040
44.801997974321289
1040
126.38509576096649
1040
0.0
1040
44.801997974321353
1040
146.38509576096661
1040
0.4142135623730951
1040
43.801997974321353
1040
147.38509576096661
1040
0.0
1040
34.501997974320723
1040
147.38509576096661
1040
0.0
1040
34.501997974320773
1040
79.385095760967218
1040
0.0
1040
44.301997974321303
1040
79.385095760967474
1040
0.4142135623730951
1040
44.801997974321289
1040
79.885095760967488
1040
0.0
1040
44.801997974321289
1040
92.385095760966124
1040
-0.4142135623730951
1040
45.301997974320841
1040
92.885095760966124
1040
0.0
1040
48.501997974321107
1040
92.885095760966564
1040
0.4142135623732283
1040
49.501997974320659
1040
93.885095760966564
1040
0.0
1071
        0
1070
     0
1070
     1
1040
0.0
1040
1.75
1070
     0
1070
     1
1040
0.0
1040
-431.78646447660208
1040
-326.25287644803029
1040
1.389062499999999
1040
2.7781249999999988
1070
     2
1040
0.0
1040
-2.7781249999999988
1040
0.1995749341186441
1071
        3
1040
9.2641903708956761
1040
112.60141054522239
1040
0.0
1040
26.037095256260329
1040
114.5971607144881
1040
0.0
1040
42.810003140372203
1040
115.3954604143221
1040
0.0
1002
}
  0
CIRCLE
  5
89B
  8
SAPA_FOGBAND
 10
46.696292360907869
 20
22.071169076448371
 30
0.0
 40
0.2549509756796394
  0
POLYLINE
  5
89C
  8
SAPA_FOGBAND
 66
     1
 10
0.0
 20
0.0
 30
0.0
 70
     1
  0
VERTEX
  5
161E
  8
SAPA_FOGBAND
 10
45.796292360908232
 20
19.499635932797041
 30
0.0
 42
-0.9999999999999998
  0
VERTEX
  5
161F
  8
SAPA_FOGBAND
 10
47.596292360908421
 20
19.499635932797041
 30
0.0
  0
VERTEX
  5
1620
  8
SAPA_FOGBAND
 10
47.596292360908421
 20
18.899635932796681
 30
0.0
 42
-0.9999999999999998
  0
VERTEX
  5
1621
  8
SAPA_FOGBAND
 10
45.796292360908232
 20
18.899635932796681
 30
0.0
  0
SEQEND
  5
1622
  8
SAPA_FOGBAND
  0
POLYLINE
  5
89D
  8
SAPA_FOGBAND
 66
     1
 10
0.0
 20
0.0
 30
0.0
 70
     1
  0
VERTEX
  5
1623
  8
SAPA_FOGBAND
 10
42.446292360907869
 20
22.935407227948481
 30
0.0
  0
VERTEX
  5
1624
  8
SAPA_FOGBAND
 10
42.446292360907869
 20
20.79963593279723
 30
0.0
 42
0.4142135623730951
  0
VERTEX
  5
1625
  8
SAPA_FOGBAND
 10
42.646292360907687
 20
20.599635932797408
 30
0.0
  0
VERTEX
  5
1626
  8
SAPA_FOGBAND
 10
44.696292360907883
 20
20.599635932797408
 30
0.0
 42
-0.4142135623730951
  0
VERTEX
  5
1627
  8
SAPA_FOGBAND
 10
45.196292360907869
 20
20.099635932797408
 30
0.0
  0
VERTEX
  5
1628
  8
SAPA_FOGBAND
 10
45.196292360907869
 20
19.372841013553678
 30
0.0
  0
VERTEX
  5
1629
  8
SAPA_FOGBAND
 10
44.944528551887572
 20
19.305381104243729
 30
0.0
 42
0.4740571810232154
  0
VERTEX
  5
162A
  8
SAPA_FOGBAND
 10
44.817234689524241
 20
19.023098518605419
 30
0.0
  0
VERTEX
  5
162B
  8
SAPA_FOGBAND
 10
45.437335192282987
 20
17.576892381845081
 30
0.0
 42
0.2846003776496056
  0
VERTEX
  5
162C
  8
SAPA_FOGBAND
 10
45.884979370742997
 20
17.29963593279723
 30
0.0
  0
VERTEX
  5
162D
  8
SAPA_FOGBAND
 10
47.507605351073657
 20
17.29963593279723
 30
0.0
 42
0.2846003776496054
  0
VERTEX
  5
162E
  8
SAPA_FOGBAND
 10
47.95524952953366
 20
17.576892381845081
 30
0.0
  0
VERTEX
  5
162F
  8
SAPA_FOGBAND
 10
48.575350032292363
 20
19.023098518605419
 30
0.0
 42
0.4740571810232154
  0
VERTEX
  5
1630
  8
SAPA_FOGBAND
 10
48.448056169928122
 20
19.305381104243729
 30
0.0
  0
VERTEX
  5
1631
  8
SAPA_FOGBAND
 10
48.196292360907819
 20
19.372841013553678
 30
0.0
  0
VERTEX
  5
1632
  8
SAPA_FOGBAND
 10
48.196292360907819
 20
20.099635932797408
 30
0.0
 42
-0.4142135623730951
  0
VERTEX
  5
1633
  8
SAPA_FOGBAND
 10
48.696292360907819
 20
20.599635932797408
 30
0.0
  0
VERTEX
  5
1634
  8
SAPA_FOGBAND
 10
51.746292360908001
 20
20.599635932797408
 30
0.0
 42
-0.4142135623730951
  0
VERTEX
  5
1635
  8
SAPA_FOGBAND
 10
51.946292360907819
 20
20.399635932796691
 30
0.0
  0
VERTEX
  5
1636
  8
SAPA_FOGBAND
 10
51.946292360907819
 20
19.499635932797041
 30
0.0
 42
0.4142135623730951
  0
VERTEX
  5
1637
  8
SAPA_FOGBAND
 10
52.146292360907637
 20
19.29963593279723
 30
0.0
  0
VERTEX
  5
1638
  8
SAPA_FOGBAND
 10
52.846292360908357
 20
19.29963593279723
 30
0.0
 42
0.4142135623730951
  0
VERTEX
  5
1639
  8
SAPA_FOGBAND
 10
53.14629236090763
 20
19.599635932797408
 30
0.0
  0
VERTEX
  5
163A
  8
SAPA_FOGBAND
 10
53.14629236090763
 20
20.410147709449181
 30
0.0
 42
-0.1316524975873982
  0
VERTEX
  5
163B
  8
SAPA_FOGBAND
 10
53.41424155333948
 20
21.410147709449181
 30
0.0
  0
VERTEX
  5
163C
  8
SAPA_FOGBAND
 10
57.384954090440942
 20
24.45150190613748
 30
0.0
 42
0.876976462992761
  0
VERTEX
  5
163D
  8
SAPA_FOGBAND
 10
57.282048500531118
 20
24.96884324225374
 30
0.0
  0
VERTEX
  5
163E
  8
SAPA_FOGBAND
 10
51.857386938658919
 20
24.414998445710069
 30
0.0
 42
-0.1353185728426623
  0
VERTEX
  5
163F
  8
SAPA_FOGBAND
 10
51.857386938658919
 20
24.414998445710069
 30
0.0
  0
VERTEX
  5
1640
  8
SAPA_FOGBAND
 10
51.61949744583012
 20
24.82703513810992
 30
0.0
 42
0.5773502691896196
  0
VERTEX
  5
1641
  8
SAPA_FOGBAND
 10
51.273087284315572
 20
24.82703513810992
 30
0.0
  0
VERTEX
  5
1642
  8
SAPA_FOGBAND
 10
51.035039667584662
 20
24.414724575548629
 30
0.0
  0
VERTEX
  5
1643
  8
SAPA_FOGBAND
 10
50.257545057668487
 20
24.414724575548629
 30
0.0
  0
VERTEX
  5
1644
  8
SAPA_FOGBAND
 10
50.019497445829757
 20
24.82703513810992
 30
0.0
 42
0.5773502691896196
  0
VERTEX
  5
1645
  8
SAPA_FOGBAND
 10
49.673087284316118
 20
24.82703513810992
 30
0.0
  0
VERTEX
  5
1646
  8
SAPA_FOGBAND
 10
49.435039667585208
 20
24.414724575548629
 30
0.0
  0
VERTEX
  5
1647
  8
SAPA_FOGBAND
 10
48.657545057668131
 20
24.414724575548629
 30
0.0
  0
VERTEX
  5
1648
  8
SAPA_FOGBAND
 10
48.419497445830302
 20
24.82703513810992
 30
0.0
 42
0.5773502691896196
  0
VERTEX
  5
1649
  8
SAPA_FOGBAND
 10
48.073087284315818
 20
24.82703513810992
 30
0.0
  0
VERTEX
  5
164A
  8
SAPA_FOGBAND
 10
47.835039667585818
 20
24.414724575548629
 30
0.0
  0
VERTEX
  5
164B
  8
SAPA_FOGBAND
 10
47.057545057668733
 20
24.414724575548629
 30
0.0
  0
VERTEX
  5
164C
  8
SAPA_FOGBAND
 10
46.819497445830002
 20
24.82703513810992
 30
0.0
 42
0.5773502691896196
  0
VERTEX
  5
164D
  8
SAPA_FOGBAND
 10
46.473087284316357
 20
24.82703513810992
 30
0.0
  0
VERTEX
  5
164E
  8
SAPA_FOGBAND
 10
46.235039667585447
 20
24.414724575548629
 30
0.0
  0
VERTEX
  5
164F
  8
SAPA_FOGBAND
 10
45.457545057668362
 20
24.414724575548629
 30
0.0
  0
VERTEX
  5
1650
  8
SAPA_FOGBAND
 10
45.219497445829631
 20
24.82703513810992
 30
0.0
 42
0.5773502691896196
  0
VERTEX
  5
1651
  8
SAPA_FOGBAND
 10
44.873087284316
 20
24.82703513810992
 30
0.0
  0
VERTEX
  5
1652
  8
SAPA_FOGBAND
 10
44.63503966758509
 20
24.414724575548629
 30
0.0
  0
VERTEX
  5
1653
  8
SAPA_FOGBAND
 10
43.857545053503429
 20
24.414724575548629
 30
0.0
  0
VERTEX
  5
1654
  8
SAPA_FOGBAND
 10
43.619497441664677
 20
24.82703513810992
 30
0.0
 42
0.5773502691896196
  0
VERTEX
  5
1655
  8
SAPA_FOGBAND
 10
43.27308728015106
 20
24.82703513810992
 30
0.0
  0
VERTEX
  5
1656
  8
SAPA_FOGBAND
 10
42.473087280596523
 20
23.03540722871918
 30
0.0
 42
0.1316524987190407
  0
SEQEND
  5
1657
  8
SAPA_FOGBAND
  0
POLYLINE
  5
89E
  8
SAPA_FOGBAND
 66
     1
 10
0.0
 20
0.0
 30
0.0
 70
     1
  0
VERTEX
  5
1658
  8
SAPA_FOGBAND
 10
47.326973351221113
 20
73.006610862998173
 30
0.0
 42
0.9999999999999998
  0
VERTEX
  5
1659
  8
SAPA_FOGBAND
 10
49.126973351220393
 20
73.006610862998173
 30
0.0
  0
VERTEX
  5
165A
  8
SAPA_FOGBAND
 10
49.126973351220393
 20
73.606610862998537
 30
0.0
 42
0.9999999999999998
  0
VERTEX
  5
165B
  8
SAPA_FOGBAND
 10
47.326973351221113
 20
73.606610862998537
 30
0.0
  0
SEQEND
  5
165C
  8
SAPA_FOGBAND
  0
POLYLINE
  5
89F
  8
SAPA_FOGBAND
 66
     1
 10
0.0
 20
0.0
 30
0.0
  0
VERTEX
  5
165D
  8
SAPA_FOGBAND
 10
51.826971558012247
 20
71.391980365360837
 30
0.0
  0
VERTEX
  5
165E
  8
SAPA_FOGBAND
 10
51.826971558012247
 20
71.691980365360109
 30
0.0
  0
VERTEX
  5
165F
  8
SAPA_FOGBAND
 10
51.826971558012247
 20
71.391980365360837
 30
0.0
 42
-0.4142135623730951
  0
VERTEX
  5
1660
  8
SAPA_FOGBAND
 10
51.326971558012239
 20
70.891980365360837
 30
0.0
  0
VERTEX
  5
1661
  8
SAPA_FOGBAND
 10
44.026971558011148
 20
70.891980365360837
 30
0.0
 42
-0.4142135623730951
  0
VERTEX
  5
1662
  8
SAPA_FOGBAND
 10
43.526971558011162
 20
71.391980365360837
 30
0.0
  0
VERTEX
  5
1663
  8
SAPA_FOGBAND
 10
43.526971558011162
 20
71.691980365360109
 30
0.0
  0
SEQEND
  5
1664
  8
SAPA_FOGBAND
  0
POLYLINE
  5
8A0
  8
SAPA_FOGBAND
 66
     1
 10
0.0
 20
0.0
 30
0.0
 70
     1
  0
VERTEX
  5
1665
  8
SAPA_FOGBAND
 10
35.09056460217289
 20
64.508611485584083
 30
0.0
  0
VERTEX
  5
1666
  8
SAPA_FOGBAND
 10
35.09056460217289
 20
63.598295039490147
 30
0.0
 42
0.4554491290172674
  0
VERTEX
  5
1667
  8
SAPA_FOGBAND
 10
35.981889345222953
 20
62.917137252081488
 30
0.0
  0
VERTEX
  5
1668
  8
SAPA_FOGBAND
 10
39.918296301061218
 20
63.051025047420012
 30
0.0
 42
0.4464785874932439
  0
VERTEX
  5
1669
  8
SAPA_FOGBAND
 10
41.026971558011162
 20
64.04510235252576
 30
0.0
  0
VERTEX
  5
166A
  8
SAPA_FOGBAND
 10
41.026971558011162
 20
66.351687419826817
 30
0.0
 42
0.622676997742357
  0
VERTEX
  5
166B
  8
SAPA_FOGBAND
 10
39.416297071396912
 20
67.143569147991116
 30
0.0
  0
VERTEX
  5
166C
  8
SAPA_FOGBAND
 10
35.47989011556092
 20
64.862404789137258
 30
0.0
 42
0.3900438909171161
  0
SEQEND
  5
166D
  8
SAPA_FOGBAND
  0
POLYLINE
  5
8A1
  8
SAPA_FOGBAND
 66
     1
 10
0.0
 20
0.0
 30
0.0
 70
     1
  0
VERTEX
  5
166E
  8
SAPA_FOGBAND
 10
46.726971558011883
 20
73.133405782242448
 30
0.0
  0
VERTEX
  5
166F
  8
SAPA_FOGBAND
 10
46.475207748990663
 20
73.200865691553304
 30
0.0
 42
-0.4740571810232144
  0
VERTEX
  5
1670
  8
SAPA_FOGBAND
 10
46.347913886628248
 20
73.483148277191603
 30
0.0
  0
VERTEX
  5
1671
  8
SAPA_FOGBAND
 10
46.968014389386092
 20
74.929354413951046
 30
0.0
 42
-0.2846003776496053
  0
VERTEX
  5
1672
  8
SAPA_FOGBAND
 10
47.415658567846997
 20
75.2066108629989
 30
0.0
  0
VERTEX
  5
1673
  8
SAPA_FOGBAND
 10
49.038284548176762
 20
75.2066108629989
 30
0.0
 42
-0.2846003776496027
  0
VERTEX
  5
1674
  8
SAPA_FOGBAND
 10
49.48592872663766
 20
74.929354413951046
 30
0.0
  0
VERTEX
  5
1675
  8
SAPA_FOGBAND
 10
50.10602922939551
 20
73.483148277191603
 30
0.0
 42
-0.4740571810232332
  0
VERTEX
  5
1676
  8
SAPA_FOGBAND
 10
49.978735367031277
 20
73.200865691553304
 30
0.0
  0
VERTEX
  5
1677
  8
SAPA_FOGBAND
 10
49.726971558011883
 20
73.133405782242448
 30
0.0
  0
VERTEX
  5
1678
  8
SAPA_FOGBAND
 10
49.726971558011883
 20
72.191980365360109
 30
0.0
 42
0.4142135623730951
  0
VERTEX
  5
1679
  8
SAPA_FOGBAND
 10
50.226971558011883
 20
71.691980365360109
 30
0.0
  0
VERTEX
  5
167A
  8
SAPA_FOGBAND
 10
52.739131721393733
 20
71.691980365360109
 30
0.0
 42
-0.4027293761437467
  0
VERTEX
  5
167B
  8
SAPA_FOGBAND
 10
53.038899274990847
 20
71.403787727891654
 30
0.0
  0
VERTEX
  5
167C
  8
SAPA_FOGBAND
 10
53.526739089661071
 20
61.271440952614391
 30
0.0
 42
-0.4257917699693538
  0
VERTEX
  5
167D
  8
SAPA_FOGBAND
 10
53.22697153606213
 20
60.959633590084309
 30
0.0
  0
VERTEX
  5
167E
  8
SAPA_FOGBAND
 10
39.52143787683827
 20
60.959633590084309
 30
0.0
  0
VERTEX
  5
167F
  8
SAPA_FOGBAND
 10
33.983834106858922
 20
60.985160565460433
 30
0.0
 42
-0.3826682380870986
  0
VERTEX
  5
1680
  8
SAPA_FOGBAND
 10
33.092509363810677
 20
61.97923787056618
 30
0.0
  0
VERTEX
  5
1681
  8
SAPA_FOGBAND
 10
33.029888711440442
 20
63.897061909307133
 30
0.0
 42
-0.2325311832130604
  0
VERTEX
  5
1682
  8
SAPA_FOGBAND
 10
33.22455146813445
 20
64.293002773389276
 30
0.0
  0
VERTEX
  5
1683
  8
SAPA_FOGBAND
 10
42.588197520663464
 20
71.483862093524408
 30
0.0
 42
-0.1657205760184606
  0
VERTEX
  5
1684
  8
SAPA_FOGBAND
 10
43.198872007277259
 20
71.691980365360109
 30
0.0
  0
VERTEX
  5
1685
  8
SAPA_FOGBAND
 10
46.226971558011883
 20
71.691980365360109
 30
0.0
 42
0.4142135623730951
  0
VERTEX
  5
1686
  8
SAPA_FOGBAND
 10
46.726971558011883
 20
72.191980365360109
 30
0.0
  0
SEQEND
  5
1687
  8
SAPA_FOGBAND
  0
POLYLINE
  5
8A2
  8
SAPA_FOGBAND
 66
     1
 10
0.0
 20
0.0
 30
0.0
 70
     1
  0
VERTEX
  5
1688
  8
SAPA_FOGBAND
 10
45.177903058515312
 20
67.191980365360109
 30
0.0
  0
VERTEX
  5
1689
  8
SAPA_FOGBAND
 10
47.677903058515312
 20
67.191980365360109
 30
0.0
 42
-1.231150638385174
  0
VERTEX
  5
168A
  8
SAPA_FOGBAND
 10
47.677903058515312
 20
63.942987207832743
 30
0.0
  0
VERTEX
  5
168B
  8
SAPA_FOGBAND
 10
45.177903058515312
 20
63.942987207832743
 30
0.0
 42
-1.231150638385174
  0
SEQEND
  5
168C
  8
SAPA_FOGBAND
  0
LINE
  5
8A8
  8
SAPA_MATT
 10
-15.413742851767889
 20
-37.287328967290179
 30
0.0
 11
-13.32695329997477
 21
-37.287328967290179
 31
0.0
  0
VIEWPORT
  5
4E8
 67
     1
  8
0
 10
128.5
 20
97.5
 30
0.0
 40
350.36076923076922
 41
222.18000000000001
 68
     1
 69
     1
1001
ACAD
1000
MVIEW
1002
{
1070
    16
1010
0.0
1020
0.0
1030
0.0
1010
0.0
1020
0.0
1030
1.0
1040
0.0
1040
222.18000000000001
1040
128.5
1040
97.5
1040
50.0
1040
0.0
1040
0.0
1070
     0
1070
     0
1070
     1
1070
     1
1070
     0
1070
     0
1070
     0
1070
     0
1040
0.0
1040
0.0
1040
0.0
1040
10.0
1040
10.0
1040
10.0
1040
10.0
1070
     0
1002
{
1002
}
1002
}
  0
VIEWPORT
  5
4EC
 67
     1
  8
MATT
 10
128.5
 20
97.5
 30
0.0
 40
205.59999999999999
 41
156.0
 68
     2
 69
     2
1001
ACAD
1000
MVIEW
1002
{
1070
    16
1010
0.0
1020
0.0
1030
0.0
1010
0.0
1020
0.0
1030
1.0
1040
0.0
1040
256.67197173437398
1040
53.854070950713819
1040
116.69145612784131
1040
50.0
1040
0.0
1040
0.0
1070
     0
1070
   100
1070
     1
1070
     1
1070
     0
1070
     0
1070
     0
1070
     0
1040
0.0
1040
0.0
1040
0.0
1040
1.0
1040
1.0
1040
0.0
1040
0.0
1070
     0
1002
{
1002
}
1002
}
  0
ENDSEC
  0
EOF
