  0
SECTION
  2
HEADER
  9
$ACADVER
  1
AC1009
  9
$INSBASE
 10
0.0
 20
0.0
 30
0.0
  9
$EXTMIN
 10
-168.08267230285489
 20
-89.023670202036669
 30
0.0
  9
$EXTMAX
 10
61.056759434175788
 20
47.597770331070983
 30
0.0
  9
$LIMMIN
 10
0.0
 20
0.0
  9
$LIMMAX
 10
790.0
 20
790.0
  9
$ORTHOMODE
 70
     1
  9
$REGENMODE
 70
     1
  9
$FILLMODE
 70
     1
  9
$QTEXTMODE
 70
     0
  9
$MIRRTEXT
 70
     1
  9
$DRAGMODE
 70
     2
  9
$LTSCALE
 40
4.0
  9
$OSMODE
 70
   167
  9
$ATTMODE
 70
     1
  9
$TEXTSIZE
 40
3.5
  9
$TRACEWID
 40
0.05
  9
$TEXTSTYLE
  7
ISO
  9
$CLAYER
  8
0
  9
$CELTYPE
  6
BYLAYER
  9
$CECOLOR
 62
   256
  9
$DIMSCALE
 40
0.0
  9
$DIMASZ
 40
3.0
  9
$DIMEXO
 40
1.5
  9
$DIMDLI
 40
10.0
  9
$DIMRND
 40
0.0
  9
$DIMDLE
 40
0.0
  9
$DIMEXE
 40
1.5
  9
$DIMTP
 40
0.0
  9
$DIMTM
 40
0.0
  9
$DIMTXT
 40
3.0
  9
$DIMCEN
 40
-5.0
  9
$DIMTSZ
 40
0.0
  9
$DIMTOL
 70
     0
  9
$DIMLIM
 70
     0
  9
$DIMTIH
 70
     0
  9
$DIMTOH
 70
     0
  9
$DIMSE1
 70
     0
  9
$DIMSE2
 70
     0
  9
$DIMTAD
 70
     1
  9
$DIMZIN
 70
     8
  9
$DIMBLK
  1

  9
$DIMASO
 70
     1
  9
$DIMSHO
 70
     1
  9
$DIMPOST
  1

  9
$DIMAPOST
  1

  9
$DIMALT
 70
     0
  9
$DIMALTD
 70
     0
  9
$DIMALTF
 40
25.399999999999999
  9
$DIMLFAC
 40
-1.0
  9
$DIMTOFL
 70
     1
  9
$DIMTVP
 40
0.0
  9
$DIMTIX
 70
     0
  9
$DIMSOXD
 70
     0
  9
$DIMSAH
 70
     0
  9
$DIMBLK1
  1

  9
$DIMBLK2
  1

  9
$DIMSTYLE
  2
MASKIN
  9
$DIMCLRD
 70
   256
  9
$DIMCLRE
 70
   256
  9
$DIMCLRT
 70
     2
  9
$DIMTFAC
 40
1.0
  9
$DIMGAP
 40
1.0
  9
$LUNITS
 70
     2
  9
$LUPREC
 70
     8
  9
$SKETCHINC
 40
0.1
  9
$FILLETRAD
 40
0.0
  9
$AUNITS
 70
     0
  9
$AUPREC
 70
     8
  9
$MENU
  1
ACAD
  9
$ELEVATION
 40
0.0
  9
$PELEVATION
 40
0.0
  9
$THICKNESS
 40
0.0
  9
$LIMCHECK
 70
     0
  9
$BLIPMODE
 70
     0
  9
$CHAMFERA
 40
0.0
  9
$CHAMFERB
 40
0.0
  9
$SKPOLY
 70
     0
  9
$TDCREATE
 40
2456296.3547555902
  9
$TDUPDATE
 40
2456601.4008528241
  9
$TDINDWG
 40
0.0367543287
  9
$TDUSRTIMER
 40
0.0367543287
  9
$USRTIMER
 70
     1
  9
$ANGBASE
 50
0.0
  9
$ANGDIR
 70
     0
  9
$PDMODE
 70
     0
  9
$PDSIZE
 40
0.0
  9
$PLINEWID
 40
0.0
  9
$COORDS
 70
     1
  9
$SPLFRAME
 70
     0
  9
$SPLINETYPE
 70
     6
  9
$SPLINESEGS
 70
     8
  9
$ATTDIA
 70
     0
  9
$ATTREQ
 70
     1
  9
$HANDLING
 70
     1
  9
$HANDSEED
  5
206D
  9
$SURFTAB1
 70
     6
  9
$SURFTAB2
 70
     6
  9
$SURFTYPE
 70
     6
  9
$SURFU
 70
     6
  9
$SURFV
 70
     6
  9
$UCSNAME
  2

  9
$UCSORG
 10
0.0
 20
0.0
 30
0.0
  9
$UCSXDIR
 10
1.0
 20
0.0
 30
0.0
  9
$UCSYDIR
 10
0.0
 20
1.0
 30
0.0
  9
$PUCSNAME
  2

  9
$PUCSORG
 10
0.0
 20
0.0
 30
0.0
  9
$PUCSXDIR
 10
1.0
 20
0.0
 30
0.0
  9
$PUCSYDIR
 10
0.0
 20
1.0
 30
0.0
  9
$USERI1
 70
     0
  9
$USERI2
 70
     0
  9
$USERI3
 70
     0
  9
$USERI4
 70
     0
  9
$USERI5
 70
     0
  9
$USERR1
 40
0.0
  9
$USERR2
 40
0.0
  9
$USERR3
 40
0.0
  9
$USERR4
 40
0.0
  9
$USERR5
 40
0.0
  9
$WORLDVIEW
 70
     1
  9
$SHADEDGE
 70
     3
  9
$SHADEDIF
 70
    70
  9
$TILEMODE
 70
     1
  9
$MAXACTVP
 70
    16
  9
$PLIMCHECK
 70
     0
  9
$PEXTMIN
 10
1.0000000000000000E+020
 20
1.0000000000000000E+020
 30
1.0000000000000000E+020
  9
$PEXTMAX
 10
-1.0000000000000000E+020
 20
-1.0000000000000000E+020
 30
-1.0000000000000000E+020
  9
$PLIMMIN
 10
-5.069427490234375
 20
-5.8737497329711914
  9
$PLIMMAX
 10
291.89889526367187
 20
204.0995779037475
  9
$UNITMODE
 70
     0
  9
$VISRETAIN
 70
     1
  9
$PLINEGEN
 70
     0
  9
$PSLTSCALE
 70
     1
  0
ENDSEC
  0
SECTION
  2
TABLES
  0
TABLE
  2
VPORT
 70
     1
  0
VPORT
  2
*ACTIVE
 70
     0
 10
0.0
 20
0.0
 11
1.0
 21
1.0
 12
-23.20189487397499
 22
19.697556677449409
 13
0.0
 23
0.0
 14
1.0
 24
1.0
 15
0.0
 25
0.0
 16
0.0
 26
0.0
 36
1.0
 17
0.0
 27
0.0
 37
0.0
 40
128.7270151340328
 41
2.112307692307692
 42
50.0
 43
0.0
 44
0.0
 50
0.0
 51
0.0
 71
     0
 72
   100
 73
     1
 74
     1
 75
     0
 76
     0
 77
     0
 78
     0
  0
ENDTAB
  0
TABLE
  2
LTYPE
 70
    52
  0
LTYPE
  2
CONTINUOUS
 70
     0
  3
Solid line
 72
    65
 73
     0
 40
0.0
  0
LTYPE
  2
NEWDOT
 70
     0
  3
____ . ____ . ____ . ____ . ____ . ____ . ____
 72
    65
 73
     4
 40
2.0
 49
1.0
 49
-0.5
 49
0.0
 49
-0.5
  0
LTYPE
  2
DASHDOT
 70
     0
  3
__ . __ . __ . __ . __ . __ . __ . __ . __ . __
 72
    65
 73
     4
 40
1.0
 49
0.5
 49
-0.25
 49
0.0
 49
-0.25
  0
LTYPE
  2
DASHED
 70
     0
  3
__ __ __ __ __ __ __ __ __ __ __ __ __ __ __
 72
    65
 73
     2
 40
0.75
 49
0.5
 49
-0.25
  0
LTYPE
  2
PHANTOM
 70
     0
  3
Phantom ______  __  __  ______  __  __  ______
 72
    65
 73
     6
 40
63.5
 49
31.75
 49
-6.3499999999999988
 49
6.3499999999999988
 49
-6.3499999999999988
 49
6.3499999999999988
 49
-6.3499999999999988
  0
LTYPE
  2
BYGG-019612$0$NEWDOT
 70
     0
  3
____ . ____ . ____ . ____ . ____ . ____ . ____
 72
    65
 73
     4
 40
2.0
 49
1.0
 49
-0.5
 49
0.0
 49
-0.5
  0
LTYPE
  2
BYGG-019612$0$DASHDOT
 70
     0
  3
__ . __ . __ . __ . __ . __ . __ . __ . __ . __
 72
    65
 73
     4
 40
1.0
 49
0.5
 49
-0.25
 49
0.0
 49
-0.25
  0
LTYPE
  2
BYGG-019612$0$DASHED
 70
     0
  3
__ __ __ __ __ __ __ __ __ __ __ __ __ __ __
 72
    65
 73
     2
 40
0.75
 49
0.5
 49
-0.25
  0
LTYPE
  2
BYGG-019612$0$PHANTOM
 70
     0
  3
Phantom ______  __  __  ______  __  __  ______
 72
    65
 73
     6
 40
63.5
 49
31.75
 49
-6.3499999999999988
 49
6.3499999999999988
 49
-6.3499999999999988
 49
6.3499999999999988
 49
-6.3499999999999988
  0
LTYPE
  2
BYGG-018516$0$NEWDOT
 70
     0
  3
____ . ____ . ____ . ____ . ____ . ____ . ____
 72
    65
 73
     4
 40
2.0
 49
1.0
 49
-0.5
 49
0.0
 49
-0.5
  0
LTYPE
  2
BYGG-018516$0$ZIGZAG
 70
     0
  3
Zig zag /\/\/\/\/\/\/\/\/\/\/\/\/\/\/\/\/\/\/\/\/\/\/\/
 72
    65
 73
     4
 40
20.32254
 49
0.00254
 49
-5.0800000000000001
 49
-10.16
 49
-5.0800000000000001
  0
LTYPE
  2
BYGG-019653$0$NEWDOT
 70
     0
  3
____ . ____ . ____ . ____ . ____ . ____ . ____
 72
    65
 73
     4
 40
2.0
 49
1.0
 49
-0.5
 49
0.0
 49
-0.5
  0
LTYPE
  2
BYGG-019653$0$DASHDOT
 70
     0
  3
__ . __ . __ . __ . __ . __ . __ . __ . __ . __
 72
    65
 73
     4
 40
1.0
 49
0.5
 49
-0.25
 49
0.0
 49
-0.25
  0
LTYPE
  2
BYGG-019653$0$DASHED
 70
     0
  3
__ __ __ __ __ __ __ __ __ __ __ __ __ __ __
 72
    65
 73
     2
 40
0.75
 49
0.5
 49
-0.25
  0
LTYPE
  2
BYGG-019653$0$PHANTOM
 70
     0
  3
Phantom ______  __  __  ______  __  __  ______
 72
    65
 73
     6
 40
63.5
 49
31.75
 49
-6.3499999999999988
 49
6.3499999999999988
 49
-6.3499999999999988
 49
6.3499999999999988
 49
-6.3499999999999988
  0
LTYPE
  2
BYGG-029261$0$NEWDOT
 70
     0
  3
____ . ____ . ____ . ____ . ____ . ____ . ____
 72
    65
 73
     4
 40
2.0
 49
1.0
 49
-0.5
 49
0.0
 49
-0.5
  0
LTYPE
  2
BYGG-029261$0$DASHDOT
 70
     0
  3
__ . __ . __ . __ . __ . __ . __ . __ . __ . __
 72
    65
 73
     4
 40
1.0
 49
0.5
 49
-0.25
 49
0.0
 49
-0.25
  0
LTYPE
  2
BYGG-029261$0$DASHED
 70
     0
  3
__ __ __ __ __ __ __ __ __ __ __ __ __ __ __
 72
    65
 73
     2
 40
0.75
 49
0.5
 49
-0.25
  0
LTYPE
  2
BYGG-029261$0$PHANTOM
 70
     0
  3
Phantom ______  __  __  ______  __  __  ______
 72
    65
 73
     6
 40
63.5
 49
31.75
 49
-6.3499999999999988
 49
6.3499999999999988
 49
-6.3499999999999988
 49
6.3499999999999988
 49
-6.3499999999999988
  0
LTYPE
  2
BYGG-019652$0$NEWDOT
 70
     0
  3
____ . ____ . ____ . ____ . ____ . ____ . ____
 72
    65
 73
     4
 40
2.0
 49
1.0
 49
-0.5
 49
0.0
 49
-0.5
  0
LTYPE
  2
BYGG-019652$0$DASHDOT
 70
     0
  3
__ . __ . __ . __ . __ . __ . __ . __ . __ . __
 72
    65
 73
     4
 40
1.0
 49
0.5
 49
-0.25
 49
0.0
 49
-0.25
  0
LTYPE
  2
BYGG-019652$0$DASHED
 70
     0
  3
__ __ __ __ __ __ __ __ __ __ __ __ __ __ __
 72
    65
 73
     2
 40
0.75
 49
0.5
 49
-0.25
  0
LTYPE
  2
BYGG-019652$0$PHANTOM
 70
     0
  3
Phantom ______  __  __  ______  __  __  ______
 72
    65
 73
     6
 40
63.5
 49
31.75
 49
-6.3499999999999988
 49
6.3499999999999988
 49
-6.3499999999999988
 49
6.3499999999999988
 49
-6.3499999999999988
  0
LTYPE
  2
PHANTOM2
 70
     0
  3
Phantom (.5x) ___ _ _ ___ _ _ ___ _ _ ___ _ _
 72
    65
 73
     6
 40
1.25
 49
0.625
 49
-0.125
 49
0.125
 49
-0.125
 49
0.125
 49
-0.125
  0
LTYPE
  2
BYGG-018731$0$NEWDOT
 70
     0
  3
____ . ____ . ____ . ____ . ____ . ____ . ____
 72
    65
 73
     4
 40
2.0
 49
1.0
 49
-0.5
 49
0.0
 49
-0.5
  0
LTYPE
  2
BYGG-018731$0$DASHDOT
 70
     0
  3
__ . __ . __ . __ . __ . __ . __ . __ . __ . __
 72
    65
 73
     4
 40
1.0
 49
0.5
 49
-0.25
 49
0.0
 49
-0.25
  0
LTYPE
  2
BYGG-018731$0$DASHED
 70
     0
  3
__ __ __ __ __ __ __ __ __ __ __ __ __ __ __
 72
    65
 73
     2
 40
0.75
 49
0.5
 49
-0.25
  0
LTYPE
  2
BYGG-018731$0$PHANTOM
 70
     0
  3
Phantom ______  __  __  ______  __  __  ______
 72
    65
 73
     6
 40
63.5
 49
31.75
 49
-6.3499999999999988
 49
6.3499999999999988
 49
-6.3499999999999988
 49
6.3499999999999988
 49
-6.3499999999999988
  0
LTYPE
  2
BYGG-024894$0$DASHDOT
 70
     0
  3
__ . __ . __ . __ . __ . __ . __ . __ . __ . __
 72
    65
 73
     4
 40
1.0
 49
0.5
 49
-0.25
 49
0.0
 49
-0.25
  0
LTYPE
  2
BYGG-019612$0$ZIGZAG
 70
     0
  3
Zig zag /\/\/\/\/\/\/\/\/\/\/\/\/\/\/\/\/\/\/\/\/\/\/\/
 72
    65
 73
     4
 40
20.32254
 49
0.00254
 49
-5.0800000000000001
 49
-10.16
 49
-5.0800000000000001
  0
LTYPE
  2
BYGG-019716$0$NEWDOT
 70
     0
  3
____ . ____ . ____ . ____ . ____ . ____ . ____
 72
    65
 73
     4
 40
2.0
 49
1.0
 49
-0.5
 49
0.0
 49
-0.5
  0
LTYPE
  2
BYGG-019716$0$DASHDOT
 70
     0
  3
__ . __ . __ . __ . __ . __ . __ . __ . __ . __
 72
    65
 73
     4
 40
1.0
 49
0.5
 49
-0.25
 49
0.0
 49
-0.25
  0
LTYPE
  2
BYGG-019716$0$DASHED
 70
     0
  3
__ __ __ __ __ __ __ __ __ __ __ __ __ __ __
 72
    65
 73
     2
 40
0.75
 49
0.5
 49
-0.25
  0
LTYPE
  2
BYGG-019716$0$PHANTOM
 70
     0
  3
Phantom ______  __  __  ______  __  __  ______
 72
    65
 73
     6
 40
63.5
 49
31.75
 49
-6.3499999999999988
 49
6.3499999999999988
 49
-6.3499999999999988
 49
6.3499999999999988
 49
-6.3499999999999988
  0
LTYPE
  2
BYGG-019705$0$NEWDOT
 70
     0
  3
____ . ____ . ____ . ____ . ____ . ____ . ____
 72
    65
 73
     4
 40
2.0
 49
1.0
 49
-0.5
 49
0.0
 49
-0.5
  0
LTYPE
  2
BYGG-019705$0$DASHDOT
 70
     0
  3
__ . __ . __ . __ . __ . __ . __ . __ . __ . __
 72
    65
 73
     4
 40
1.0
 49
0.5
 49
-0.25
 49
0.0
 49
-0.25
  0
LTYPE
  2
BYGG-019705$0$DASHED
 70
     0
  3
__ __ __ __ __ __ __ __ __ __ __ __ __ __ __
 72
    65
 73
     2
 40
0.75
 49
0.5
 49
-0.25
  0
LTYPE
  2
BYGG-019705$0$PHANTOM
 70
     0
  3
Phantom ______  __  __  ______  __  __  ______
 72
    65
 73
     6
 40
63.5
 49
31.75
 49
-6.3499999999999988
 49
6.3499999999999988
 49
-6.3499999999999988
 49
6.3499999999999988
 49
-6.3499999999999988
  0
LTYPE
  2
BYGG-022089$0$NEWDOT
 70
     0
  3
____ . ____ . ____ . ____ . ____ . ____ . ____
 72
    65
 73
     4
 40
2.0
 49
1.0
 49
-0.5
 49
0.0
 49
-0.5
  0
LTYPE
  2
BYGG-022089$0$DASHDOT
 70
     0
  3
__ . __ . __ . __ . __ . __ . __ . __ . __ . __
 72
    65
 73
     4
 40
1.0
 49
0.5
 49
-0.25
 49
0.0
 49
-0.25
  0
LTYPE
  2
BYGG-022089$0$DASHED
 70
     0
  3
__ __ __ __ __ __ __ __ __ __ __ __ __ __ __
 72
    65
 73
     2
 40
0.75
 49
0.5
 49
-0.25
  0
LTYPE
  2
BYGG-022089$0$PHANTOM
 70
     0
  3
Phantom ______  __  __  ______  __  __  ______
 72
    65
 73
     6
 40
63.5
 49
31.75
 49
-6.3499999999999988
 49
6.3499999999999988
 49
-6.3499999999999988
 49
6.3499999999999988
 49
-6.3499999999999988
  0
LTYPE
  2
BYGG-019718$0$NEWDOT
 70
     0
  3
____ . ____ . ____ . ____ . ____ . ____ . ____
 72
    65
 73
     4
 40
2.0
 49
1.0
 49
-0.5
 49
0.0
 49
-0.5
  0
LTYPE
  2
BYGG-019718$0$DASHDOT
 70
     0
  3
__ . __ . __ . __ . __ . __ . __ . __ . __ . __
 72
    65
 73
     4
 40
1.0
 49
0.5
 49
-0.25
 49
0.0
 49
-0.25
  0
LTYPE
  2
BYGG-019718$0$DASHED
 70
     0
  3
__ __ __ __ __ __ __ __ __ __ __ __ __ __ __
 72
    65
 73
     2
 40
0.75
 49
0.5
 49
-0.25
  0
LTYPE
  2
BYGG-019718$0$PHANTOM
 70
     0
  3
Phantom ______  __  __  ______  __  __  ______
 72
    65
 73
     6
 40
63.5
 49
31.75
 49
-6.3499999999999988
 49
6.3499999999999988
 49
-6.3499999999999988
 49
6.3499999999999988
 49
-6.3499999999999988
  0
LTYPE
  2
BYGG-019716$0$PHANTOM2
 70
     0
  3
Phantom (.5x) ___ _ _ ___ _ _ ___ _ _ ___ _ _
 72
    65
 73
     6
 40
1.25
 49
0.625
 49
-0.125
 49
0.125
 49
-0.125
 49
0.125
 49
-0.125
  0
LTYPE
  2
BYGG-019653$0$DOT_CENTER
 70
     0
  3
Dot_Center
 72
    65
 73
     4
 40
14.0
 49
12.0
 49
-1.0
 49
0.0
 49
-1.0
  0
LTYPE
  2
BYGG-019653$0$DASH_CENTER
 70
     0
  3
Dash_Center
 72
    65
 73
     4
 40
14.0
 49
11.0
 49
-1.0
 49
1.0
 49
-1.0
  0
LTYPE
  2
BYGG-019652$0$DOT_CENTER
 70
     0
  3
Dot_Center
 72
    65
 73
     4
 40
14.0
 49
12.0
 49
-1.0
 49
0.0
 49
-1.0
  0
LTYPE
  2
BYGG-019652$0$DASH_CENTER
 70
     0
  3
Dash_Center
 72
    65
 73
     4
 40
14.0
 49
11.0
 49
-1.0
 49
1.0
 49
-1.0
  0
LTYPE
  2
BYGG-022089$0$PHANTOM2
 70
     0
  3
Phantom (.5x) ___ _ _ ___ _ _ ___ _ _ ___ _ _
 72
    65
 73
     6
 40
1.25
 49
0.625
 49
-0.125
 49
0.125
 49
-0.125
 49
0.125
 49
-0.125
  0
ENDTAB
  0
TABLE
  2
LAYER
 70
   280
  0
LAYER
  2
0
 70
     0
 62
     7
  6
CONTINUOUS
  0
LAYER
  2
SAPA_ANSLUTNING
 70
     0
 62
     6
  6
CONTINUOUS
  0
LAYER
  2
SAPA_GLAS
 70
     0
 62
     4
  6
CONTINUOUS
  0
LAYER
  2
SAPA_FYLLNING
 70
     0
 62
     4
  6
CONTINUOUS
  0
LAYER
  2
SAPA_ISOLATOR
 70
     0
 62
     4
  6
CONTINUOUS
  0
LAYER
  2
SAPA_FOGBAND
 70
     0
 62
     2
  6
CONTINUOUS
  0
LAYER
  2
SAPA_PROFIL
 70
     0
 62
     7
  6
CONTINUOUS
  0
ENDTAB
  0
TABLE
  2
STYLE
 70
    34
  0
STYLE
  2
STANDARD
 70
     0
 40
0.0
 41
1.0
 50
0.0
 71
     0
 42
0.2
  3
txt
  4

  0
STYLE
  2
ISO
 70
     0
 40
0.0
 41
1.0
 50
0.0
 71
     0
 42
3.5
  3
txt
  4

  0
STYLE
  2

 70
     1
 40
0.0
 41
1.0
 50
0.0
 71
     0
 42
0.2
  3
ltypeshp.shx
  4

  0
STYLE
  2
ANNOTATIVE
 70
     0
 40
0.0
 41
1.0
 50
0.0
 71
     0
 42
0.2
  3
txt
  4

  0
STYLE
  2
BYGG-021665$0$STANDARD
 70
     0
 40
0.0
 41
1.0
 50
0.0
 71
     0
 42
0.2
  3
txt
  4

  0
STYLE
  2
BYGG-021665$0$ISO
 70
     0
 40
0.0
 41
1.0
 50
0.0
 71
     0
 42
3.5
  3
isocp3.shx
  4

  0
STYLE
  2
BYGG-018516$0$STANDARD
 70
     0
 40
0.0
 41
1.0
 50
0.0
 71
     0
 42
0.2
  3
txt
  4

  0
STYLE
  2
BYGG-018516$0$ISO
 70
     0
 40
0.0
 41
1.0
 50
0.0
 71
     0
 42
3.5
  3
isocp3.shx
  4

  0
STYLE
  2
BYGG-019716$0$STANDARD
 70
     0
 40
0.0
 41
1.0
 50
0.0
 71
     0
 42
0.2
  3
txt
  4

  0
STYLE
  2
BYGG-019716$0$ISO
 70
     0
 40
0.0
 41
1.0
 50
0.0
 71
     0
 42
3.5
  3
txt
  4

  0
STYLE
  2
BYGG-019716$0$ANNOTATIVE
 70
     0
 40
0.0
 41
1.0
 50
0.0
 71
     0
 42
0.2
  3
txt
  4

  0
STYLE
  2
BYGG-019653$0$STANDARD
 70
     0
 40
0.0
 41
1.0
 50
0.0
 71
     0
 42
0.2
  3
txt
  4

  0
STYLE
  2
BYGG-019653$0$ISO
 70
     0
 40
0.0
 41
1.0
 50
0.0
 71
     0
 42
3.5
  3
txt
  4

  0
STYLE
  2
BYGG-019653$0$CONVERTER_11
 70
     0
 40
0.0
 41
0.72
 50
0.0
 71
     0
 42
0.2
  3
txt.shx
  4

  0
STYLE
  2
BYGG-019652$0$STANDARD
 70
     0
 40
0.0
 41
1.0
 50
0.0
 71
     0
 42
0.2
  3
txt
  4

  0
STYLE
  2
BYGG-019652$0$ISO
 70
     0
 40
0.0
 41
1.0
 50
0.0
 71
     0
 42
3.5
  3
txt
  4

  0
STYLE
  2
BYGG-019652$0$CONVERTER_11
 70
     0
 40
0.0
 41
0.72
 50
0.0
 71
     0
 42
0.2
  3
txt.shx
  4

  0
STYLE
  2
BYGG-019705$0$STANDARD
 70
     0
 40
0.0
 41
1.0
 50
0.0
 71
     0
 42
0.2
  3
txt
  4

  0
STYLE
  2
BYGG-019705$0$ISO
 70
     0
 40
0.0
 41
1.0
 50
0.0
 71
     0
 42
3.5
  3
txt
  4

  0
STYLE
  2
BYGG-022089$0$STANDARD
 70
     0
 40
0.0
 41
1.0
 50
0.0
 71
     0
 42
0.2
  3
txt
  4

  0
STYLE
  2
BYGG-022089$0$ISO
 70
     0
 40
0.0
 41
1.0
 50
0.0
 71
     0
 42
3.5
  3
txt
  4

  0
STYLE
  2
BYGG-022089$0$ANNOTATIVE
 70
     0
 40
0.0
 41
1.0
 50
0.0
 71
     0
 42
0.2
  3
txt
  4

  0
STYLE
  2
BYGG-018731$0$STANDARD
 70
     0
 40
0.0
 41
1.0
 50
0.0
 71
     0
 42
0.2
  3
txt
  4

  0
STYLE
  2
BYGG-018731$0$ISO
 70
     0
 40
0.0
 41
1.0
 50
0.0
 71
     0
 42
3.5
  3
txt
  4

  0
STYLE
  2
BYGG-029261$0$STANDARD
 70
     0
 40
0.0
 41
1.0
 50
0.0
 71
     0
 42
0.2
  3
txt
  4

  0
STYLE
  2
BYGG-029261$0$ISO
 70
     0
 40
0.0
 41
1.0
 50
0.0
 71
     0
 42
3.5
  3
txt
  4

  0
STYLE
  2
BYGG-019718$0$STANDARD
 70
     0
 40
0.0
 41
1.0
 50
0.0
 71
     0
 42
0.2
  3
txt
  4

  0
STYLE
  2
BYGG-019718$0$ISO
 70
     0
 40
0.0
 41
1.0
 50
0.0
 71
     0
 42
3.5
  3
txt
  4

  0
STYLE
  2
BYGG-024973$0$STANDARD
 70
     0
 40
0.0
 41
1.0
 50
0.0
 71
     0
 42
0.2
  3
txt
  4

  0
STYLE
  2
BYGG-024973$0$ISO
 70
     0
 40
0.0
 41
1.0
 50
0.0
 71
     0
 42
3.5
  3
txt
  4

  0
STYLE
  2
BYGG-024894$0$STANDARD
 70
     0
 40
0.0
 41
1.0
 50
0.0
 71
     0
 42
0.2
  3
txt
  4

  0
STYLE
  2
BYGG-024894$0$ISO
 70
     0
 40
0.0
 41
1.0
 50
0.0
 71
     0
 42
3.5
  3
txt
  4

  0
STYLE
  2
BYGG-019612$0$STANDARD
 70
     0
 40
0.0
 41
1.0
 50
0.0
 71
     0
 42
0.2
  3
txt
  4

  0
STYLE
  2
BYGG-019612$0$ISO
 70
     0
 40
0.0
 41
1.0
 50
0.0
 71
     0
 42
3.5
  3
txt
  4

  0
ENDTAB
  0
TABLE
  2
VIEW
 70
     0
  0
ENDTAB
  0
TABLE
  2
UCS
 70
     0
  0
ENDTAB
  0
TABLE
  2
APPID
 70
    20
  0
APPID
  2
ACAD
 70
     0
  0
APPID
  2
ACAD_DSTYLE_DIMTEXT_FILL
 70
     0
  0
APPID
  2
ACAD_DSTYLE_DIMEXT_LENGTH
 70
     0
  0
APPID
  2
ACAD_DSTYLE_DIMEXT_ENABLED
 70
     0
  0
APPID
  2
ACAD_DSTYLE_DIM_LINETYPE
 70
     0
  0
APPID
  2
ACAD_DSTYLE_DIM_EXT1_LINETYPE
 70
     0
  0
APPID
  2
ACAD_DSTYLE_DIM_EXT2_LINETYPE
 70
     0
  0
APPID
  2
ACAD_DSTYLE_DIMJOGGED_JOGA
 70
     0
  0
APPID
  2
ACAD_DSTYLE_DIMARC_LENGTH_
 70
     0
  0
APPID
  2
ACAD_PSEXT
 70
     0
  0
APPID
  2
ACAD_MLEADERVER
 70
     0
  0
APPID
  2
ACAD_NAV_VCDISPLAY
 70
     0
  0
APPID
  2
ACADANNOTATIVE
 70
     0
  0
APPID
  2
ACAECLAYERSTANDARD
 70
     0
  0
APPID
  2
ACDBDYNAMICBLOCKGUID
 70
     0
  0
APPID
  2
ACDBBLOCKREPETAG
 70
     0
  0
APPID
  2
ACAD_EXEMPT_FROM_CAD_STANDARDS
 70
     0
  0
APPID
  2
GRADIENTCOLOR1ACI
 70
     0
  0
APPID
  2
GRADIENTCOLOR2ACI
 70
     0
  0
APPID
  2
ACCMTRANSPARENCY
 70
     0
  0
ENDTAB
  0
TABLE
  2
DIMSTYLE
 70
    65
  0
DIMSTYLE
  2
STANDARD
 70
     0
  3

  4

  5

  6

  7

 40
1.0
 41
0.18
 42
0.0625
 43
0.38
 44
0.18
 45
0.0
 46
0.0
 47
0.0
 48
0.0
140
0.18
141
0.09
142
0.0
143
25.399999999999999
144
1.0
145
0.0
146
1.0
147
0.09
 71
     0
 72
     0
 73
     1
 74
     1
 75
     0
 76
     0
 77
     0
 78
     0
170
     0
171
     2
172
     0
173
     0
174
     0
175
     0
176
     0
177
     0
178
     0
  0
DIMSTYLE
  2
MASKIN
 70
     0
  3

  4

  5

  6

  7

 40
0.0
 41
3.0
 42
1.5
 43
10.0
 44
1.5
 45
0.0
 46
0.0
 47
0.0
 48
0.0
140
3.0
141
-5.0
142
0.0
143
25.399999999999999
144
-1.0
145
0.0
146
1.0
147
1.0
 71
     0
 72
     0
 73
     0
 74
     0
 75
     0
 76
     0
 77
     1
 78
     8
170
     0
171
     0
172
     1
173
     0
174
     0
175
     0
176
   256
177
   256
178
     2
  0
DIMSTYLE
  2
ANNOTATIVE
 70
     0
  3

  4

  5

  6

  7

 40
1.0
 41
0.18
 42
0.0625
 43
0.38
 44
0.18
 45
0.0
 46
0.0
 47
0.0
 48
0.0
140
0.18
141
0.09
142
0.0
143
25.399999999999999
144
1.0
145
0.0
146
1.0
147
0.09
 71
     0
 72
     0
 73
     1
 74
     1
 75
     0
 76
     0
 77
     0
 78
     0
170
     0
171
     2
172
     0
173
     0
174
     0
175
     0
176
     0
177
     0
178
     0
  0
DIMSTYLE
  2
BYGG-021665$0$MASKIN
 70
     0
  3

  4

  5

  6

  7

 40
0.0
 41
3.0
 42
1.5
 43
10.0
 44
1.5
 45
0.0
 46
0.0
 47
0.0
 48
0.0
140
3.0
141
-5.0
142
0.0
143
25.399999999999999
144
-1.0
145
0.0
146
1.0
147
1.0
 71
     0
 72
     0
 73
     0
 74
     0
 75
     0
 76
     0
 77
     1
 78
     8
170
     0
171
     0
172
     1
173
     0
174
     0
175
     0
176
   256
177
   256
178
   256
  0
DIMSTYLE
  2
BYGG-018516$0$STANDARD
 70
     0
  3

  4

  5

  6

  7

 40
1.0
 41
0.18
 42
0.0625
 43
0.38
 44
0.18
 45
0.0
 46
0.0
 47
0.0
 48
0.0
140
0.18
141
0.09
142
0.0
143
25.399999999999999
144
1.0
145
0.0
146
1.0
147
0.09
 71
     0
 72
     0
 73
     1
 74
     1
 75
     0
 76
     0
 77
     0
 78
     0
170
     0
171
     2
172
     0
173
     0
174
     0
175
     0
176
     0
177
     0
178
     0
  0
DIMSTYLE
  2
BYGG-018516$0$MASKIN
 70
     0
  3

  4

  5

  6

  7

 40
0.0
 41
3.0
 42
1.5
 43
10.0
 44
1.5
 45
0.0
 46
0.0
 47
0.0
 48
0.0
140
3.0
141
-5.0
142
0.0
143
25.399999999999999
144
-1.0
145
0.0
146
1.0
147
1.0
 71
     0
 72
     0
 73
     0
 74
     0
 75
     0
 76
     0
 77
     1
 78
     8
170
     0
171
     0
172
     1
173
     0
174
     0
175
     0
176
   256
177
   256
178
     2
  0
DIMSTYLE
  2
BYGG-019716$0$STANDARD
 70
     0
  3

  4

  5

  6

  7

 40
1.0
 41
0.18
 42
0.0625
 43
0.38
 44
0.18
 45
0.0
 46
0.0
 47
0.0
 48
0.0
140
0.18
141
0.09
142
0.0
143
25.399999999999999
144
1.0
145
0.0
146
1.0
147
0.09
 71
     0
 72
     0
 73
     1
 74
     1
 75
     0
 76
     0
 77
     0
 78
     0
170
     0
171
     2
172
     0
173
     0
174
     0
175
     0
176
     0
177
     0
178
     0
  0
DIMSTYLE
  2
BYGG-019716$0$MASKIN
 70
     0
  3

  4

  5

  6

  7

 40
0.0
 41
3.0
 42
1.5
 43
10.0
 44
1.5
 45
0.0
 46
0.0
 47
0.0
 48
0.0
140
3.0
141
-5.0
142
0.0
143
25.399999999999999
144
-1.0
145
0.0
146
1.0
147
1.0
 71
     0
 72
     0
 73
     0
 74
     0
 75
     0
 76
     0
 77
     1
 78
     8
170
     0
171
     0
172
     1
173
     0
174
     0
175
     0
176
   256
177
   256
178
     2
  0
DIMSTYLE
  2
BYGG-019716$0$ANNOTATIVE
 70
     0
  3

  4

  5

  6

  7

 40
1.0
 41
0.18
 42
0.0625
 43
0.38
 44
0.18
 45
0.0
 46
0.0
 47
0.0
 48
0.0
140
0.18
141
0.09
142
0.0
143
25.399999999999999
144
1.0
145
0.0
146
1.0
147
0.09
 71
     0
 72
     0
 73
     1
 74
     1
 75
     0
 76
     0
 77
     0
 78
     0
170
     0
171
     2
172
     0
173
     0
174
     0
175
     0
176
     0
177
     0
178
     0
  0
DIMSTYLE
  2
BYGG-019653$0$STANDARD
 70
     0
  3

  4

  5

  6

  7

 40
1.0
 41
0.18
 42
0.0625
 43
0.38
 44
0.18
 45
0.0
 46
0.0
 47
0.0
 48
0.0
140
0.18
141
0.09
142
0.0
143
25.399999999999999
144
1.0
145
0.0
146
1.0
147
0.09
 71
     0
 72
     0
 73
     1
 74
     1
 75
     0
 76
     0
 77
     0
 78
     0
170
     0
171
     2
172
     0
173
     0
174
     0
175
     0
176
     0
177
     0
178
     0
  0
DIMSTYLE
  2
BYGG-019653$0$MASKIN
 70
     0
  3

  4

  5

  6

  7

 40
0.0
 41
3.0
 42
1.5
 43
10.0
 44
1.5
 45
0.0
 46
0.0
 47
0.0
 48
0.0
140
3.0
141
-5.0
142
0.0
143
25.399999999999999
144
-1.0
145
0.0
146
1.0
147
1.0
 71
     0
 72
     0
 73
     0
 74
     0
 75
     0
 76
     0
 77
     1
 78
     8
170
     0
171
     0
172
     1
173
     0
174
     0
175
     0
176
   256
177
   256
178
     2
  0
DIMSTYLE
  2
BYGG-019653$0$ME10_DIM_10
 70
     0
  3

  4

  5

  6

  7

 40
1.0
 41
0.7
 42
0.0
 43
0.38
 44
0.4
 45
0.0
 46
0.0
 47
0.0
 48
0.0
140
0.7
141
0.09
142
0.0
143
25.399999999999999
144
1.0
145
0.0
146
1.0
147
0.4
 71
     0
 72
     0
 73
     0
 74
     0
 75
     0
 76
     0
 77
     1
 78
     8
170
     0
171
     2
172
     1
173
     1
174
     0
175
     0
176
     1
177
     1
178
     2
  0
DIMSTYLE
  2
BYGG-019653$0$ME10_DIM_11
 70
     0
  3

  4

  5

  6

  7

 40
1.0
 41
0.7
 42
0.0
 43
0.38
 44
0.4
 45
0.0
 46
0.0
 47
0.0
 48
0.0
140
0.7
141
0.09
142
0.0
143
25.399999999999999
144
1.0
145
0.0
146
1.0
147
0.4
 71
     0
 72
     0
 73
     0
 74
     0
 75
     0
 76
     0
 77
     1
 78
     8
170
     0
171
     2
172
     1
173
     1
174
     0
175
     0
176
     1
177
     1
178
     2
  0
DIMSTYLE
  2
BYGG-019653$0$ME10_DIM_12
 70
     0
  3
(<>)
  4

  5

  6

  7

 40
1.0
 41
0.7
 42
0.0
 43
0.38
 44
0.4
 45
0.0
 46
0.0
 47
0.0
 48
0.0
140
0.7
141
0.09
142
0.0
143
25.399999999999999
144
1.0
145
0.0
146
1.0
147
0.4
 71
     0
 72
     0
 73
     0
 74
     0
 75
     0
 76
     0
 77
     1
 78
     8
170
     0
171
     2
172
     1
173
     1
174
     0
175
     0
176
     1
177
     1
178
     2
  0
DIMSTYLE
  2
BYGG-019653$0$ME10_DIM_13
 70
     0
  3

  4

  5

  6

  7

 40
1.0
 41
0.7
 42
0.0
 43
0.38
 44
0.4
 45
0.0
 46
0.0
 47
0.0
 48
0.0
140
0.7
141
0.09
142
0.0
143
25.399999999999999
144
1.0
145
0.0
146
1.0
147
0.4
 71
     0
 72
     0
 73
     0
 74
     0
 75
     0
 76
     0
 77
     1
 78
     8
170
     0
171
     2
172
     1
173
     1
174
     0
175
     0
176
     1
177
     1
178
     2
  0
DIMSTYLE
  2
BYGG-019653$0$ME10_DIM_14
 70
     0
  3

  4

  5

  6

  7

 40
1.0
 41
0.7
 42
0.0
 43
0.38
 44
0.4
 45
0.0
 46
0.0
 47
0.0
 48
0.0
140
0.7
141
0.09
142
0.0
143
25.399999999999999
144
1.0
145
0.0
146
1.0
147
0.4
 71
     0
 72
     0
 73
     0
 74
     0
 75
     0
 76
     0
 77
     1
 78
     8
170
     0
171
     2
172
     1
173
     1
174
     0
175
     0
176
     1
177
     1
178
     2
  0
DIMSTYLE
  2
BYGG-019653$0$ME10_DIM_15
 70
     0
  3

  4

  5

  6

  7

 40
1.0
 41
0.7
 42
0.0
 43
0.38
 44
0.4
 45
0.0
 46
0.0
 47
0.0
 48
0.0
140
0.7
141
0.09
142
0.0
143
25.399999999999999
144
1.0
145
0.0
146
1.0
147
0.4
 71
     0
 72
     0
 73
     0
 74
     0
 75
     0
 76
     0
 77
     1
 78
     8
170
     0
171
     2
172
     1
173
     1
174
     0
175
     0
176
     1
177
     1
178
     2
  0
DIMSTYLE
  2
BYGG-019653$0$ME10_DIM_16
 70
     0
  3

  4

  5

  6

  7

 40
1.0
 41
0.7
 42
0.0
 43
0.38
 44
0.4
 45
0.0
 46
0.0
 47
0.3
 48
0.3
140
0.7
141
0.09
142
0.0
143
25.399999999999999
144
1.0
145
0.0
146
0.6
147
0.4
 71
     1
 72
     0
 73
     0
 74
     0
 75
     0
 76
     0
 77
     1
 78
     8
170
     0
171
     2
172
     1
173
     1
174
     0
175
     0
176
     1
177
     1
178
     2
  0
DIMSTYLE
  2
BYGG-019653$0$ME10_DIM_17
 70
     0
  3

  4

  5

  6

  7

 40
1.0
 41
0.7
 42
0.0
 43
0.38
 44
0.4
 45
0.0
 46
0.0
 47
0.0
 48
0.0
140
0.7
141
0.09
142
0.0
143
25.399999999999999
144
1.0
145
0.0
146
1.0
147
0.4
 71
     0
 72
     0
 73
     0
 74
     0
 75
     0
 76
     0
 77
     1
 78
     8
170
     0
171
     2
172
     1
173
     1
174
     0
175
     0
176
     1
177
     1
178
     2
  0
DIMSTYLE
  2
BYGG-019653$0$ME10_DIM_18
 70
     0
  3

  4

  5

  6

  7

 40
1.0
 41
0.7
 42
0.0
 43
0.38
 44
0.4
 45
0.0
 46
0.0
 47
0.3
 48
0.3
140
0.7
141
0.09
142
0.0
143
25.399999999999999
144
1.0
145
0.0
146
0.6
147
0.4
 71
     1
 72
     0
 73
     0
 74
     0
 75
     0
 76
     0
 77
     1
 78
     8
170
     0
171
     2
172
     1
173
     1
174
     0
175
     0
176
     1
177
     1
178
     2
  0
DIMSTYLE
  2
BYGG-019653$0$ME10_DIM_19
 70
     0
  3

  4

  5

  6

  7

 40
1.0
 41
0.7
 42
0.0
 43
0.38
 44
0.4
 45
0.0
 46
0.0
 47
0.0
 48
0.0
140
0.7
141
0.09
142
0.0
143
25.399999999999999
144
1.0
145
0.0
146
1.0
147
0.4
 71
     0
 72
     0
 73
     0
 74
     0
 75
     0
 76
     0
 77
     1
 78
     8
170
     0
171
     2
172
     1
173
     1
174
     0
175
     0
176
     1
177
     1
178
     2
  0
DIMSTYLE
  2
BYGG-019653$0$ME10_DIM_20
 70
     0
  3

  4

  5

  6

  7

 40
1.0
 41
0.7
 42
0.0
 43
0.38
 44
0.4
 45
0.0
 46
0.0
 47
0.0
 48
0.0
140
0.7
141
0.09
142
0.0
143
25.399999999999999
144
1.0
145
0.0
146
1.0
147
0.4
 71
     0
 72
     0
 73
     0
 74
     0
 75
     0
 76
     0
 77
     1
 78
     8
170
     0
171
     2
172
     1
173
     1
174
     0
175
     0
176
     1
177
     1
178
     2
  0
DIMSTYLE
  2
BYGG-019653$0$ME10_DIM_21
 70
     0
  3
(<>)
  4

  5

  6

  7

 40
1.0
 41
0.7
 42
0.0
 43
0.38
 44
0.4
 45
0.0
 46
0.0
 47
0.0
 48
0.0
140
0.7
141
0.09
142
0.0
143
25.399999999999999
144
1.0
145
0.0
146
1.0
147
0.4
 71
     0
 72
     0
 73
     0
 74
     0
 75
     0
 76
     0
 77
     1
 78
     8
170
     0
171
     2
172
     1
173
     1
174
     0
175
     0
176
     1
177
     1
178
     2
  0
DIMSTYLE
  2
BYGG-019653$0$ME10_DIM_22
 70
     0
  3

  4

  5

  6

  7

 40
1.0
 41
0.7
 42
0.0
 43
0.38
 44
0.4
 45
0.0
 46
0.0
 47
0.0
 48
0.0
140
0.7
141
0.09
142
0.0
143
25.399999999999999
144
1.0
145
0.0
146
1.0
147
0.4
 71
     0
 72
     0
 73
     0
 74
     0
 75
     0
 76
     0
 77
     1
 78
     8
170
     0
171
     2
172
     1
173
     1
174
     0
175
     0
176
     1
177
     1
178
     2
  0
DIMSTYLE
  2
BYGG-019653$0$ME10_DIM_23
 70
     0
  3

  4

  5

  6

  7

 40
1.0
 41
0.7
 42
0.0
 43
0.38
 44
0.4
 45
0.0
 46
0.0
 47
0.0
 48
0.0
140
0.7
141
0.09
142
0.0
143
25.399999999999999
144
1.0
145
0.0
146
1.0
147
0.4
 71
     0
 72
     0
 73
     0
 74
     0
 75
     0
 76
     0
 77
     1
 78
     8
170
     0
171
     2
172
     1
173
     1
174
     0
175
     0
176
     1
177
     1
178
     2
  0
DIMSTYLE
  2
BYGG-019652$0$STANDARD
 70
     0
  3

  4

  5

  6

  7

 40
1.0
 41
0.18
 42
0.0625
 43
0.38
 44
0.18
 45
0.0
 46
0.0
 47
0.0
 48
0.0
140
0.18
141
0.09
142
0.0
143
25.399999999999999
144
1.0
145
0.0
146
1.0
147
0.09
 71
     0
 72
     0
 73
     1
 74
     1
 75
     0
 76
     0
 77
     0
 78
     0
170
     0
171
     2
172
     0
173
     0
174
     0
175
     0
176
     0
177
     0
178
     0
  0
DIMSTYLE
  2
BYGG-019652$0$MASKIN
 70
     0
  3

  4

  5

  6

  7

 40
0.0
 41
3.0
 42
1.5
 43
10.0
 44
1.5
 45
0.0
 46
0.0
 47
0.0
 48
0.0
140
3.0
141
-5.0
142
0.0
143
25.399999999999999
144
-1.0
145
0.0
146
1.0
147
1.0
 71
     0
 72
     0
 73
     0
 74
     0
 75
     0
 76
     0
 77
     1
 78
     8
170
     0
171
     0
172
     1
173
     0
174
     0
175
     0
176
   256
177
   256
178
     2
  0
DIMSTYLE
  2
BYGG-019652$0$ME10_DIM_10
 70
     0
  3

  4

  5

  6

  7

 40
1.0
 41
0.35
 42
0.0
 43
0.38
 44
0.2
 45
0.0
 46
0.0
 47
0.0
 48
0.0
140
0.35
141
0.09
142
0.0
143
25.399999999999999
144
1.0
145
0.0
146
1.0
147
0.2
 71
     0
 72
     0
 73
     0
 74
     0
 75
     0
 76
     0
 77
     1
 78
     8
170
     0
171
     2
172
     1
173
     1
174
     0
175
     0
176
     1
177
     1
178
     2
  0
DIMSTYLE
  2
BYGG-019652$0$ME10_DIM_11
 70
     0
  3

  4

  5

  6

  7

 40
1.0
 41
0.35
 42
0.0
 43
0.38
 44
0.2
 45
0.0
 46
0.0
 47
0.0
 48
0.0
140
0.35
141
0.09
142
0.0
143
25.399999999999999
144
1.0
145
0.0
146
1.0
147
0.2
 71
     0
 72
     0
 73
     0
 74
     0
 75
     0
 76
     0
 77
     1
 78
     8
170
     0
171
     2
172
     1
173
     1
174
     0
175
     0
176
     1
177
     1
178
     2
  0
DIMSTYLE
  2
BYGG-019652$0$ME10_DIM_12
 70
     0
  3

  4

  5

  6

  7

 40
1.0
 41
0.35
 42
0.0
 43
0.38
 44
0.2
 45
0.0
 46
0.0
 47
0.0
 48
0.0
140
0.35
141
0.09
142
0.0
143
25.399999999999999
144
1.0
145
0.0
146
1.0
147
0.2
 71
     0
 72
     0
 73
     0
 74
     0
 75
     0
 76
     0
 77
     1
 78
     8
170
     0
171
     2
172
     1
173
     1
174
     0
175
     0
176
     1
177
     1
178
     2
  0
DIMSTYLE
  2
BYGG-019652$0$ME10_DIM_13
 70
     0
  3

  4

  5

  6

  7

 40
1.0
 41
0.35
 42
0.0
 43
0.38
 44
0.2
 45
0.0
 46
0.0
 47
0.0
 48
0.0
140
0.35
141
0.09
142
0.0
143
25.399999999999999
144
1.0
145
0.0
146
1.0
147
0.2
 71
     0
 72
     0
 73
     0
 74
     0
 75
     0
 76
     0
 77
     1
 78
     8
170
     0
171
     2
172
     1
173
     1
174
     0
175
     0
176
     1
177
     1
178
     2
  0
DIMSTYLE
  2
BYGG-019652$0$ME10_DIM_14
 70
     0
  3

  4

  5

  6

  7

 40
1.0
 41
0.35
 42
0.0
 43
0.38
 44
0.2
 45
0.0
 46
0.0
 47
0.0
 48
0.0
140
0.35
141
0.09
142
0.0
143
25.399999999999999
144
1.0
145
0.0
146
1.0
147
0.2
 71
     0
 72
     0
 73
     0
 74
     0
 75
     0
 76
     0
 77
     1
 78
     8
170
     0
171
     2
172
     1
173
     1
174
     0
175
     0
176
     1
177
     1
178
     2
  0
DIMSTYLE
  2
BYGG-019652$0$ME10_DIM_15
 70
     0
  3

  4

  5

  6

  7

 40
1.0
 41
0.35
 42
0.0
 43
0.38
 44
0.2
 45
0.0
 46
0.0
 47
0.0
 48
0.0
140
0.35
141
0.09
142
0.0
143
25.399999999999999
144
1.0
145
0.0
146
1.0
147
0.2
 71
     0
 72
     0
 73
     0
 74
     0
 75
     0
 76
     0
 77
     1
 78
     8
170
     0
171
     2
172
     1
173
     1
174
     0
175
     0
176
     1
177
     1
178
     2
  0
DIMSTYLE
  2
BYGG-019652$0$ME10_DIM_16
 70
     0
  3

  4

  5

  6

  7

 40
1.0
 41
0.35
 42
0.0
 43
0.38
 44
0.2
 45
0.0
 46
0.0
 47
0.0
 48
0.0
140
0.35
141
0.09
142
0.0
143
25.399999999999999
144
1.0
145
0.0
146
1.0
147
0.2
 71
     0
 72
     0
 73
     0
 74
     0
 75
     0
 76
     0
 77
     1
 78
     8
170
     0
171
     2
172
     1
173
     1
174
     0
175
     0
176
     1
177
     1
178
     2
  0
DIMSTYLE
  2
BYGG-019652$0$ME10_DIM_17
 70
     0
  3

  4

  5

  6

  7

 40
1.0
 41
0.7
 42
0.0
 43
0.38
 44
0.4
 45
0.0
 46
0.0
 47
0.0
 48
0.0
140
0.7
141
0.09
142
0.0
143
25.399999999999999
144
1.0
145
0.0
146
1.0
147
0.4
 71
     0
 72
     0
 73
     0
 74
     0
 75
     0
 76
     0
 77
     1
 78
     8
170
     0
171
     2
172
     1
173
     1
174
     0
175
     0
176
     1
177
     1
178
     2
  0
DIMSTYLE
  2
BYGG-019652$0$ME10_DIM_18
 70
     0
  3

  4

  5

  6

  7

 40
1.0
 41
0.7
 42
0.0
 43
0.38
 44
0.4
 45
0.0
 46
0.0
 47
0.0
 48
0.0
140
0.7
141
0.09
142
0.0
143
25.399999999999999
144
1.0
145
0.0
146
1.0
147
0.4
 71
     0
 72
     0
 73
     0
 74
     0
 75
     0
 76
     0
 77
     1
 78
     8
170
     0
171
     2
172
     1
173
     1
174
     0
175
     0
176
     1
177
     1
178
     2
  0
DIMSTYLE
  2
BYGG-019652$0$ME10_DIM_19
 70
     0
  3

  4

  5

  6

  7

 40
1.0
 41
0.7
 42
0.0
 43
0.38
 44
0.4
 45
0.0
 46
0.0
 47
0.0
 48
0.0
140
0.7
141
0.09
142
0.0
143
25.399999999999999
144
1.0
145
0.0
146
1.0
147
0.4
 71
     0
 72
     0
 73
     0
 74
     0
 75
     0
 76
     0
 77
     1
 78
     8
170
     0
171
     2
172
     1
173
     1
174
     0
175
     0
176
     1
177
     1
178
     2
  0
DIMSTYLE
  2
BYGG-019652$0$ME10_DIM_20
 70
     0
  3

  4

  5

  6

  7

 40
1.0
 41
0.7
 42
0.0
 43
0.38
 44
0.4
 45
0.0
 46
0.0
 47
0.0
 48
0.0
140
0.7
141
0.09
142
0.0
143
25.399999999999999
144
1.0
145
0.0
146
1.0
147
0.4
 71
     0
 72
     0
 73
     0
 74
     0
 75
     0
 76
     0
 77
     1
 78
     8
170
     0
171
     2
172
     1
173
     1
174
     0
175
     0
176
     1
177
     1
178
     2
  0
DIMSTYLE
  2
BYGG-019652$0$ME10_DIM_21
 70
     0
  3

  4

  5

  6

  7

 40
1.0
 41
0.7
 42
0.0
 43
0.38
 44
0.4
 45
0.0
 46
0.0
 47
0.0
 48
0.0
140
0.7
141
0.09
142
0.0
143
25.399999999999999
144
1.0
145
0.0
146
1.0
147
0.4
 71
     0
 72
     0
 73
     0
 74
     0
 75
     0
 76
     0
 77
     1
 78
     8
170
     0
171
     2
172
     1
173
     1
174
     0
175
     0
176
     1
177
     1
178
     2
  0
DIMSTYLE
  2
BYGG-019652$0$ME10_DIM_22
 70
     0
  3

  4

  5

  6

  7

 40
1.0
 41
0.7
 42
0.0
 43
0.38
 44
0.4
 45
0.0
 46
0.0
 47
0.0
 48
0.0
140
0.7
141
0.09
142
0.0
143
25.399999999999999
144
1.0
145
0.0
146
1.0
147
0.4
 71
     0
 72
     0
 73
     0
 74
     0
 75
     0
 76
     0
 77
     1
 78
     8
170
     0
171
     2
172
     1
173
     1
174
     0
175
     0
176
     1
177
     1
178
     2
  0
DIMSTYLE
  2
BYGG-019652$0$ME10_DIM_23
 70
     0
  3

  4

  5

  6

  7

 40
1.0
 41
0.7
 42
0.0
 43
0.38
 44
0.4
 45
0.0
 46
0.0
 47
0.0
 48
0.0
140
0.7
141
0.09
142
0.0
143
25.399999999999999
144
1.0
145
0.0
146
1.0
147
0.4
 71
     0
 72
     0
 73
     0
 74
     0
 75
     0
 76
     0
 77
     1
 78
     8
170
     0
171
     2
172
     1
173
     1
174
     0
175
     0
176
     1
177
     1
178
     2
  0
DIMSTYLE
  2
BYGG-019652$0$ME10_DIM_24
 70
     0
  3

  4

  5

  6

  7

 40
1.0
 41
0.7
 42
0.0
 43
0.38
 44
0.4
 45
0.0
 46
0.0
 47
0.0
 48
0.0
140
0.7
141
0.09
142
0.0
143
25.399999999999999
144
1.0
145
0.0
146
1.0
147
0.4
 71
     0
 72
     0
 73
     0
 74
     0
 75
     0
 76
     0
 77
     1
 78
     8
170
     0
171
     2
172
     1
173
     1
174
     0
175
     0
176
     1
177
     1
178
     2
  0
DIMSTYLE
  2
BYGG-019652$0$ME10_DIM_25
 70
     0
  3

  4

  5

  6

  7

 40
1.0
 41
0.7
 42
0.0
 43
0.38
 44
0.4
 45
0.0
 46
0.0
 47
0.0
 48
0.0
140
0.7
141
0.09
142
0.0
143
25.399999999999999
144
1.0
145
0.0
146
1.0
147
0.4
 71
     0
 72
     0
 73
     0
 74
     0
 75
     0
 76
     0
 77
     1
 78
     8
170
     0
171
     2
172
     1
173
     1
174
     0
175
     0
176
     1
177
     1
178
     2
  0
DIMSTYLE
  2
BYGG-019652$0$ME10_DIM_26
 70
     0
  3

  4

  5

  6

  7

 40
1.0
 41
0.7
 42
0.0
 43
0.38
 44
0.4
 45
0.0
 46
0.0
 47
0.0
 48
0.0
140
0.7
141
0.09
142
0.0
143
25.399999999999999
144
1.0
145
0.0
146
1.0
147
0.4
 71
     0
 72
     0
 73
     0
 74
     0
 75
     0
 76
     0
 77
     1
 78
     8
170
     0
171
     2
172
     1
173
     1
174
     0
175
     0
176
     1
177
     1
178
     2
  0
DIMSTYLE
  2
BYGG-019652$0$ME10_DIM_27
 70
     0
  3

  4

  5

  6

  7

 40
1.0
 41
0.7
 42
0.0
 43
0.38
 44
0.4
 45
0.0
 46
0.0
 47
0.0
 48
0.0
140
0.7
141
0.09
142
0.0
143
25.399999999999999
144
1.0
145
0.0
146
1.0
147
0.4
 71
     0
 72
     0
 73
     0
 74
     0
 75
     0
 76
     0
 77
     1
 78
     8
170
     0
171
     2
172
     1
173
     1
174
     0
175
     0
176
     1
177
     1
178
     2
  0
DIMSTYLE
  2
BYGG-019652$0$ME10_DIM_28
 70
     0
  3

  4

  5

  6

  7

 40
1.0
 41
0.7
 42
0.0
 43
0.38
 44
0.4
 45
0.0
 46
0.0
 47
0.0
 48
0.0
140
0.7
141
0.09
142
0.0
143
25.399999999999999
144
1.0
145
0.0
146
1.0
147
0.4
 71
     0
 72
     0
 73
     0
 74
     0
 75
     0
 76
     0
 77
     1
 78
     8
170
     0
171
     2
172
     1
173
     1
174
     0
175
     0
176
     1
177
     1
178
     2
  0
DIMSTYLE
  2
BYGG-019652$0$ME10_DIM_29
 70
     0
  3

  4

  5

  6

  7

 40
1.0
 41
0.7
 42
0.0
 43
0.38
 44
0.4
 45
0.0
 46
0.0
 47
0.0
 48
0.0
140
0.7
141
0.09
142
0.0
143
25.399999999999999
144
1.0
145
0.0
146
1.0
147
0.4
 71
     0
 72
     0
 73
     0
 74
     0
 75
     0
 76
     0
 77
     1
 78
     8
170
     0
171
     2
172
     1
173
     1
174
     0
175
     0
176
     1
177
     1
178
     2
  0
DIMSTYLE
  2
BYGG-019705$0$STANDARD
 70
     0
  3

  4

  5

  6

  7

 40
1.0
 41
0.18
 42
0.0625
 43
0.38
 44
0.18
 45
0.0
 46
0.0
 47
0.0
 48
0.0
140
0.18
141
0.09
142
0.0
143
25.399999999999999
144
1.0
145
0.0
146
1.0
147
0.09
 71
     0
 72
     0
 73
     1
 74
     1
 75
     0
 76
     0
 77
     0
 78
     0
170
     0
171
     2
172
     0
173
     0
174
     0
175
     0
176
     0
177
     0
178
     0
  0
DIMSTYLE
  2
BYGG-019705$0$MASKIN
 70
     0
  3

  4

  5

  6

  7

 40
0.0
 41
3.0
 42
1.5
 43
10.0
 44
1.5
 45
0.0
 46
0.0
 47
0.0
 48
0.0
140
3.0
141
-5.0
142
0.0
143
25.399999999999999
144
-1.0
145
0.0
146
1.0
147
1.0
 71
     0
 72
     0
 73
     0
 74
     0
 75
     0
 76
     0
 77
     1
 78
     8
170
     0
171
     0
172
     1
173
     0
174
     0
175
     0
176
   256
177
   256
178
     2
  0
DIMSTYLE
  2
BYGG-022089$0$STANDARD
 70
     0
  3

  4

  5

  6

  7

 40
1.0
 41
0.18
 42
0.0625
 43
0.38
 44
0.18
 45
0.0
 46
0.0
 47
0.0
 48
0.0
140
0.18
141
0.09
142
0.0
143
25.399999999999999
144
1.0
145
0.0
146
1.0
147
0.09
 71
     0
 72
     0
 73
     1
 74
     1
 75
     0
 76
     0
 77
     0
 78
     0
170
     0
171
     2
172
     0
173
     0
174
     0
175
     0
176
     0
177
     0
178
     0
  0
DIMSTYLE
  2
BYGG-022089$0$MASKIN
 70
     0
  3

  4

  5

  6

  7

 40
0.0
 41
3.0
 42
1.5
 43
10.0
 44
1.5
 45
0.0
 46
0.0
 47
0.0
 48
0.0
140
3.0
141
-5.0
142
0.0
143
25.399999999999999
144
-1.0
145
0.0
146
1.0
147
1.0
 71
     0
 72
     0
 73
     0
 74
     0
 75
     0
 76
     0
 77
     1
 78
     8
170
     0
171
     0
172
     1
173
     0
174
     0
175
     0
176
   256
177
   256
178
     2
  0
DIMSTYLE
  2
BYGG-022089$0$ANNOTATIVE
 70
     0
  3

  4

  5

  6

  7

 40
1.0
 41
0.18
 42
0.0625
 43
0.38
 44
0.18
 45
0.0
 46
0.0
 47
0.0
 48
0.0
140
0.18
141
0.09
142
0.0
143
25.399999999999999
144
1.0
145
0.0
146
1.0
147
0.09
 71
     0
 72
     0
 73
     1
 74
     1
 75
     0
 76
     0
 77
     0
 78
     0
170
     0
171
     2
172
     0
173
     0
174
     0
175
     0
176
     0
177
     0
178
     0
  0
DIMSTYLE
  2
BYGG-018731$0$STANDARD
 70
     0
  3

  4

  5

  6

  7

 40
1.0
 41
0.18
 42
0.0625
 43
0.38
 44
0.18
 45
0.0
 46
0.0
 47
0.0
 48
0.0
140
0.18
141
0.09
142
0.0
143
25.399999999999999
144
1.0
145
0.0
146
1.0
147
0.09
 71
     0
 72
     0
 73
     1
 74
     1
 75
     0
 76
     0
 77
     0
 78
     0
170
     0
171
     2
172
     0
173
     0
174
     0
175
     0
176
     0
177
     0
178
     0
  0
DIMSTYLE
  2
BYGG-018731$0$MASKIN
 70
     0
  3

  4

  5

  6

  7

 40
0.0
 41
3.0
 42
1.5
 43
10.0
 44
1.5
 45
0.0
 46
0.0
 47
0.0
 48
0.0
140
3.0
141
-5.0
142
0.0
143
25.399999999999999
144
-1.0
145
0.0
146
1.0
147
1.0
 71
     0
 72
     0
 73
     0
 74
     0
 75
     0
 76
     0
 77
     1
 78
     8
170
     0
171
     0
172
     1
173
     0
174
     0
175
     0
176
   256
177
   256
178
     2
  0
DIMSTYLE
  2
BYGG-029261$0$STANDARD
 70
     0
  3

  4

  5

  6

  7

 40
1.0
 41
0.18
 42
0.0625
 43
0.38
 44
0.18
 45
0.0
 46
0.0
 47
0.0
 48
0.0
140
0.18
141
0.09
142
0.0
143
25.399999999999999
144
1.0
145
0.0
146
1.0
147
0.09
 71
     0
 72
     0
 73
     1
 74
     1
 75
     0
 76
     0
 77
     0
 78
     0
170
     0
171
     2
172
     0
173
     0
174
     0
175
     0
176
     0
177
     0
178
     0
  0
DIMSTYLE
  2
BYGG-029261$0$MASKIN
 70
     0
  3

  4

  5

  6

  7

 40
0.0
 41
3.0
 42
1.5
 43
10.0
 44
1.5
 45
0.0
 46
0.0
 47
0.0
 48
0.0
140
3.0
141
-5.0
142
0.0
143
25.399999999999999
144
-1.0
145
0.0
146
1.0
147
1.0
 71
     0
 72
     0
 73
     0
 74
     0
 75
     0
 76
     0
 77
     1
 78
     8
170
     0
171
     0
172
     1
173
     0
174
     0
175
     0
176
   256
177
   256
178
     2
  0
DIMSTYLE
  2
BYGG-029261$0$ISO-25
 70
     0
  3

  4

  5

  6

  7

 40
1.0
 41
2.5
 42
0.625
 43
3.75
 44
1.25
 45
0.0
 46
0.0
 47
0.0
 48
0.0
140
2.5
141
2.5
142
0.0
143
0.03937007874016
144
1.0
145
0.0
146
1.0
147
0.625
 71
     0
 72
     0
 73
     0
 74
     0
 75
     0
 76
     0
 77
     1
 78
     8
170
     0
171
     3
172
     1
173
     0
174
     0
175
     0
176
     0
177
     0
178
     0
  0
DIMSTYLE
  2
BYGG-019718$0$STANDARD
 70
     0
  3

  4

  5

  6

  7

 40
1.0
 41
0.18
 42
0.0625
 43
0.38
 44
0.18
 45
0.0
 46
0.0
 47
0.0
 48
0.0
140
0.18
141
0.09
142
0.0
143
25.399999999999999
144
1.0
145
0.0
146
1.0
147
0.09
 71
     0
 72
     0
 73
     1
 74
     1
 75
     0
 76
     0
 77
     0
 78
     0
170
     0
171
     2
172
     0
173
     0
174
     0
175
     0
176
     0
177
     0
178
     0
  0
DIMSTYLE
  2
BYGG-019718$0$MASKIN
 70
     0
  3

  4

  5

  6

  7

 40
0.0
 41
3.0
 42
1.5
 43
10.0
 44
1.5
 45
0.0
 46
0.0
 47
0.0
 48
0.0
140
3.0
141
-5.0
142
0.0
143
25.399999999999999
144
-1.0
145
0.0
146
1.0
147
1.0
 71
     0
 72
     0
 73
     0
 74
     0
 75
     0
 76
     0
 77
     1
 78
     8
170
     0
171
     0
172
     1
173
     0
174
     0
175
     0
176
   256
177
   256
178
     2
  0
DIMSTYLE
  2
BYGG-024973$0$STANDARD
 70
     0
  3

  4

  5

  6

  7

 40
1.0
 41
0.18
 42
0.0625
 43
0.38
 44
0.18
 45
0.0
 46
0.0
 47
0.0
 48
0.0
140
0.18
141
0.09
142
0.0
143
25.399999999999999
144
1.0
145
0.0
146
1.0
147
0.09
 71
     0
 72
     0
 73
     1
 74
     1
 75
     0
 76
     0
 77
     0
 78
     0
170
     0
171
     2
172
     0
173
     0
174
     0
175
     0
176
     0
177
     0
178
     0
  0
DIMSTYLE
  2
BYGG-024973$0$MASKIN
 70
     0
  3

  4

  5

  6

  7

 40
0.0
 41
3.0
 42
1.5
 43
10.0
 44
1.5
 45
0.0
 46
0.0
 47
0.0
 48
0.0
140
3.0
141
-5.0
142
0.0
143
25.399999999999999
144
-1.0
145
0.0
146
1.0
147
1.0
 71
     0
 72
     0
 73
     0
 74
     0
 75
     0
 76
     0
 77
     1
 78
     8
170
     0
171
     0
172
     1
173
     0
174
     0
175
     0
176
   256
177
   256
178
     2
  0
DIMSTYLE
  2
BYGG-024894$0$STANDARD
 70
     0
  3

  4

  5

  6

  7

 40
1.0
 41
0.18
 42
0.0625
 43
0.38
 44
0.18
 45
0.0
 46
0.0
 47
0.0
 48
0.0
140
0.18
141
0.09
142
0.0
143
25.399999999999999
144
1.0
145
0.0
146
1.0
147
0.09
 71
     0
 72
     0
 73
     1
 74
     1
 75
     0
 76
     0
 77
     0
 78
     0
170
     0
171
     2
172
     0
173
     0
174
     0
175
     0
176
     0
177
     0
178
     0
  0
DIMSTYLE
  2
BYGG-024894$0$MASKIN
 70
     0
  3

  4

  5

  6

  7

 40
0.0
 41
3.0
 42
1.5
 43
10.0
 44
1.5
 45
0.0
 46
0.0
 47
0.0
 48
0.0
140
3.0
141
-5.0
142
0.0
143
25.399999999999999
144
-1.0
145
0.0
146
1.0
147
1.0
 71
     0
 72
     0
 73
     0
 74
     0
 75
     0
 76
     0
 77
     1
 78
     8
170
     0
171
     0
172
     1
173
     0
174
     0
175
     0
176
   256
177
   256
178
     2
  0
DIMSTYLE
  2
BYGG-019612$0$STANDARD
 70
     0
  3

  4

  5

  6

  7

 40
1.0
 41
0.18
 42
0.0625
 43
0.38
 44
0.18
 45
0.0
 46
0.0
 47
0.0
 48
0.0
140
0.18
141
0.09
142
0.0
143
25.399999999999999
144
1.0
145
0.0
146
1.0
147
0.09
 71
     0
 72
     0
 73
     1
 74
     1
 75
     0
 76
     0
 77
     0
 78
     0
170
     0
171
     2
172
     0
173
     0
174
     0
175
     0
176
     0
177
     0
178
     0
  0
DIMSTYLE
  2
BYGG-019612$0$MASKIN
 70
     0
  3

  4

  5

  6

  7

 40
0.0
 41
3.0
 42
1.5
 43
10.0
 44
1.5
 45
0.0
 46
0.0
 47
0.0
 48
0.0
140
3.0
141
-5.0
142
0.0
143
25.399999999999999
144
-1.0
145
0.0
146
1.0
147
1.0
 71
     0
 72
     0
 73
     0
 74
     0
 75
     0
 76
     0
 77
     1
 78
     8
170
     0
171
     0
172
     1
173
     0
174
     0
175
     0
176
   256
177
   256
178
     2
  0
ENDTAB
  0
ENDSEC
  0
SECTION
  2
BLOCKS
  0
BLOCK
  8
0
  2
$MODEL_SPACE
 70
     0
 10
0.0
 20
0.0
 30
0.0
  3
$MODEL_SPACE
  1

  0
ENDBLK
  5
37
  8
0
  0
BLOCK
 67
     1
  8
0
  2
$PAPER_SPACE
 70
     0
 10
0.0
 20
0.0
 30
0.0
  3
$PAPER_SPACE
  1

  0
ENDBLK
  5
35
 67
     1
  8
0
  0
BLOCK
  8
0
  2
*X78
 70
     1
 10
0.0
 20
0.0
 30
0.0
  3
*X78
  1

  0
LINE
  5
1615
  8
0
 62
     0
 10
36.512489758140632
 20
-37.120008703646398
 30
0.0
 11
36.753441921496382
 21
-36.702667314520603
 31
0.0
  0
LINE
  5
1616
  8
0
 62
     0
 10
35.32186475814062
 20
-39.182231696408103
 30
0.0
 11
35.718739758140622
 21
-38.494824032154199
 31
0.0
  0
LINE
  5
1617
  8
0
 62
     0
 10
36.512490042636742
 20
-34.370378210884716
 30
0.0
 11
36.909365042636743
 21
-33.68297054663082
 31
0.0
  0
LINE
  5
1618
  8
0
 62
     0
 10
35.32186504263673
 20
-36.432601203646414
 30
0.0
 11
35.718740042636732
 21
-35.74519353939251
 31
0.0
  0
LINE
  5
1619
  8
0
 62
     0
 10
34.131240042636733
 20
-38.494824196408103
 30
0.0
 11
34.528115042636728
 21
-37.8074165321542
 31
0.0
  0
LINE
  5
161A
  8
0
 62
     0
 10
33.028011272308362
 20
-40.405672478988564
 30
0.0
 11
33.33749004263673
 21
-39.86963952491589
 31
0.0
  0
LINE
  5
161B
  8
0
 62
     0
 10
36.512490327132831
 20
-31.620747718123031
 30
0.0
 11
36.909365327132832
 21
-30.933340053869131
 31
0.0
  0
LINE
  5
161C
  8
0
 62
     0
 10
35.321865327132819
 20
-33.682970710884717
 30
0.0
 11
35.718740327132821
 21
-32.995563046630821
 31
0.0
  0
LINE
  5
161D
  8
0
 62
     0
 10
34.131240327132822
 20
-35.745193703646407
 30
0.0
 11
34.528115327132817
 21
-35.057786039392511
 31
0.0
  0
LINE
  5
161E
  8
0
 62
     0
 10
32.940615327132811
 20
-37.807416696408097
 30
0.0
 11
33.337490327132812
 21
-37.120009032154201
 31
0.0
  0
LINE
  5
161F
  8
0
 62
     0
 10
31.875541576687699
 20
-39.65217854598697
 30
0.0
 11
32.146865327132808
 21
-39.182232024915891
 31
0.0
  0
LINE
  5
1620
  8
0
 62
     0
 10
31.74999032713281
 20
-39.869639689169801
 30
0.0
 11
31.875541576687699
 21
-39.65217854598697
 31
0.0
  0
LINE
  5
1621
  8
0
 62
     0
 10
36.512490611628927
 20
-28.871117225361331
 30
0.0
 11
36.665904448563793
 21
-28.605396665206062
 31
0.0
  0
LINE
  5
1622
  8
0
 62
     0
 10
35.321865611628922
 20
-30.933340218123021
 30
0.0
 11
35.718740611628931
 21
-30.245932553869121
 31
0.0
  0
LINE
  5
1623
  8
0
 62
     0
 10
34.131240611628918
 20
-32.995563210884711
 30
0.0
 11
34.52811561162892
 21
-32.308155546630807
 31
0.0
  0
LINE
  5
1624
  8
0
 62
     0
 10
32.940615611628907
 20
-35.057786203646401
 30
0.0
 11
33.337490611628922
 21
-34.370378539392497
 31
0.0
  0
LINE
  5
1625
  8
0
 62
     0
 10
31.74999061162891
 20
-37.120009196408091
 30
0.0
 11
32.146865611628911
 21
-36.432601532154202
 31
0.0
  0
LINE
  5
1626
  8
0
 62
     0
 10
30.559365611628909
 20
-39.182232189169802
 30
0.0
 11
30.956240611628921
 21
-38.494824524915899
 31
0.0
  0
LINE
  5
1627
  8
0
 62
     0
 10
35.321865896125018
 20
-28.183709725361329
 30
0.0
 11
35.71874089612502
 21
-27.496302061107439
 31
0.0
  0
LINE
  5
1628
  8
0
 62
     0
 10
34.131240896125021
 20
-30.245932718123029
 30
0.0
 11
34.528115896125023
 21
-29.558525053869129
 31
0.0
  0
LINE
  5
1629
  8
0
 62
     0
 10
32.94061589612501
 20
-32.308155710884719
 30
0.0
 11
33.337490896125011
 21
-31.620748046630819
 31
0.0
  0
LINE
  5
162A
  8
0
 62
     0
 10
31.749990896125009
 20
-34.370378703646409
 30
0.0
 11
32.146865896125007
 21
-33.682971039392513
 31
0.0
  0
LINE
  5
162B
  8
0
 62
     0
 10
30.559365896125009
 20
-36.432601696408099
 30
0.0
 11
30.95624089612501
 21
-35.74519403215421
 31
0.0
  0
LINE
  5
162C
  8
0
 62
     0
 10
29.368740896125011
 20
-38.494824689169803
 30
0.0
 11
29.765615896125009
 21
-37.8074170249159
 31
0.0
  0
LINE
  5
162D
  8
0
 62
     0
 10
28.26551241029275
 20
-40.405672478988564
 30
0.0
 11
28.574990896125009
 21
-39.86964001767759
 31
0.0
  0
LINE
  5
162E
  8
0
 62
     0
 10
34.131241180621117
 20
-27.49630222536133
 30
0.0
 11
34.528116180621119
 21
-26.808894561107429
 31
0.0
  0
LINE
  5
162F
  8
0
 62
     0
 10
32.940616180621113
 20
-29.55852521812302
 30
0.0
 11
33.337491180621122
 21
-28.87111755386913
 31
0.0
  0
LINE
  5
1630
  8
0
 62
     0
 10
31.749991180621109
 20
-31.62074821088472
 30
0.0
 11
32.14686618062111
 21
-30.93334054663082
 31
0.0
  0
LINE
  5
1631
  8
0
 62
     0
 10
30.559366180621112
 20
-33.68297120364641
 30
0.0
 11
30.95624118062112
 21
-32.995563539392521
 31
0.0
  0
LINE
  5
1632
  8
0
 62
     0
 10
29.368741180621111
 20
-35.7451941964081
 30
0.0
 11
29.765616180621109
 21
-35.057786532154211
 31
0.0
  0
LINE
  5
1633
  8
0
 62
     0
 10
28.17811618062111
 20
-37.807417189169797
 30
0.0
 11
28.574991180621112
 21
-37.120009524915901
 31
0.0
  0
LINE
  5
1634
  8
0
 62
     0
 10
27.091886479391871
 20
-39.688822220389191
 30
0.0
 11
27.384366180621111
 21
-39.182232517677591
 31
0.0
  0
LINE
  5
1635
  8
0
 62
     0
 10
32.940616465117223
 20
-26.80889472536132
 30
0.0
 11
33.135668226836472
 21
-26.471055163957761
 31
0.0
  0
LINE
  5
1636
  8
0
 62
     0
 10
31.749991465117208
 20
-28.87111771812301
 30
0.0
 11
32.146866465117213
 21
-28.18371005386911
 31
0.0
  0
LINE
  5
1637
  8
0
 62
     0
 10
30.559366465117211
 20
-30.93334071088471
 30
0.0
 11
30.956241465117209
 21
-30.24593304663081
 31
0.0
  0
LINE
  5
1638
  8
0
 62
     0
 10
29.368741465117211
 20
-32.995563703646397
 30
0.0
 11
29.765616465117208
 21
-32.3081560393925
 31
0.0
  0
LINE
  5
1639
  8
0
 62
     0
 10
28.421219398656319
 20
-34.636720064049307
 30
0.0
 11
28.574991465117211
 21
-34.37037903215419
 31
0.0
  0
LINE
  5
163A
  8
0
 62
     0
 10
33.135668226836458
 20
-26.471055163957761
 30
0.0
 11
33.337491465117211
 21
-26.12148706110742
 31
0.0
  0
LINE
  5
163B
  8
0
 62
     0
 10
28.17811646511721
 20
-35.057786696408101
 30
0.0
 11
28.421219398656319
 21
-34.636720064049307
 31
0.0
  0
LINE
  5
163C
  8
0
 62
     0
 10
26.987491465117209
 20
-37.120009689169777
 30
0.0
 11
27.384366465117211
 21
-36.432602024915887
 31
0.0
  0
LINE
  5
163D
  8
0
 62
     0
 10
30.5593667496133
 20
-28.183710218123011
 30
0.0
 11
30.661788635188021
 21
-28.006310308500581
 31
0.0
  0
LINE
  5
163E
  8
0
 62
     0
 10
29.368741749613299
 20
-30.245933210884711
 30
0.0
 11
29.765616749613301
 21
-29.558525546630811
 31
0.0
  0
LINE
  5
163F
  8
0
 62
     0
 10
28.178116749613299
 20
-32.308156203646398
 30
0.0
 11
28.5749917496133
 21
-31.620748539392501
 31
0.0
  0
LINE
  5
1640
  8
0
 62
     0
 10
31.749991749613301
 20
-26.121487225361321
 30
0.0
 11
32.146866749613302
 21
-25.434079561107421
 31
0.0
  0
LINE
  5
1641
  8
0
 62
     0
 10
30.661788635188032
 20
-28.006310308500581
 30
0.0
 11
30.956241749613302
 21
-27.496302553869111
 31
0.0
  0
LINE
  5
1642
  8
0
 62
     0
 10
26.987491749613302
 20
-34.370379196408102
 30
0.0
 11
27.384366749613299
 21
-33.682971532154212
 31
0.0
  0
LINE
  5
1643
  8
0
 62
     0
 10
25.796866749613301
 20
-36.432602189169792
 30
0.0
 11
26.193741749613299
 21
-35.745194524915888
 31
0.0
  0
LINE
  5
1644
  8
0
 62
     0
 10
30.5593670341094
 20
-25.434079725361318
 30
0.0
 11
30.809982864734039
 21
-25.000000373538359
 31
0.0
  0
LINE
  5
1645
  8
0
 62
     0
 10
29.368742034109399
 20
-27.496302718123019
 30
0.0
 11
29.7656170341094
 21
-26.808895053869119
 31
0.0
  0
LINE
  5
1646
  8
0
 62
     0
 10
28.178117034109398
 20
-29.558525710884709
 30
0.0
 11
28.5749920341094
 21
-28.871118046630809
 31
0.0
  0
LINE
  5
1647
  8
0
 62
     0
 10
26.987492034109401
 20
-31.620748703646399
 30
0.0
 11
27.384367034109399
 21
-30.933341039392509
 31
0.0
  0
LINE
  5
1648
  8
0
 62
     0
 10
25.7968670341094
 20
-33.682971696408103
 30
0.0
 11
26.193742034109398
 21
-32.995564032154199
 31
0.0
  0
LINE
  5
1649
  8
0
 62
     0
 10
28.178117318605501
 20
-26.80889521812302
 30
0.0
 11
28.574992318605499
 21
-26.12148755386912
 31
0.0
  0
LINE
  5
164A
  8
0
 62
     0
 10
26.987492318605501
 20
-28.87111821088471
 30
0.0
 11
27.384367318605499
 21
-28.18371054663082
 31
0.0
  0
LINE
  5
164B
  8
0
 62
     0
 10
25.7968673186055
 20
-30.9333412036464
 30
0.0
 11
26.193742318605501
 21
-30.24593353939251
 31
0.0
  0
LINE
  5
164C
  8
0
 62
     0
 10
34.528121586046943
 20
-26.80890162402504
 30
0.0
 11
34.131246586046942
 21
-26.121493959771151
 31
0.0
  0
LINE
  5
164D
  8
0
 62
     0
 10
35.71874658604694
 20
-28.871124616786741
 30
0.0
 11
35.321871586046932
 21
-28.183716952532841
 31
0.0
  0
LINE
  5
164E
  8
0
 62
     0
 10
36.90937158604693
 20
-30.933347609548431
 30
0.0
 11
36.512496586046929
 21
-30.245939945294531
 31
0.0
  0
LINE
  5
164F
  8
0
 62
     0
 10
32.146871870543023
 20
-25.434086131263349
 30
0.0
 11
31.896252341469118
 21
-25.000000373538359
 31
0.0
  0
LINE
  5
1650
  8
0
 62
     0
 10
33.337496870543028
 20
-27.49630912402505
 30
0.0
 11
32.940621870543033
 21
-26.80890145977115
 31
0.0
  0
LINE
  5
1651
  8
0
 62
     0
 10
34.528121870543018
 20
-29.55853211678674
 30
0.0
 11
34.131246870543031
 21
-28.87112445253285
 31
0.0
  0
LINE
  5
1652
  8
0
 62
     0
 10
35.718746870543022
 20
-31.62075510954844
 30
0.0
 11
35.321871870543021
 21
-30.93334744529454
 31
0.0
  0
LINE
  5
1653
  8
0
 62
     0
 10
36.909371870543019
 20
-33.68297810231013
 30
0.0
 11
36.512496870543018
 21
-32.995570438056241
 31
0.0
  0
LINE
  5
1654
  8
0
 62
     0
 10
30.956247155039119
 20
-26.121493631263348
 30
0.0
 11
30.559372155039132
 21
-25.434085967009459
 31
0.0
  0
LINE
  5
1655
  8
0
 62
     0
 10
32.146872155039127
 20
-28.183716624025049
 30
0.0
 11
31.749997155039129
 21
-27.496308959771159
 31
0.0
  0
LINE
  5
1656
  8
0
 62
     0
 10
33.337497155039131
 20
-30.24593961678675
 30
0.0
 11
32.940622155039122
 21
-29.558531952532849
 31
0.0
  0
LINE
  5
1657
  8
0
 62
     0
 10
34.528122155039121
 20
-32.30816260954844
 30
0.0
 11
34.131247155039119
 21
-31.620754945294539
 31
0.0
  0
LINE
  5
1658
  8
0
 62
     0
 10
35.718747155039118
 20
-34.37038560231013
 30
0.0
 11
35.321872155039117
 21
-33.682977938056233
 31
0.0
  0
LINE
  5
1659
  8
0
 62
     0
 10
36.86051398184545
 20
-36.347983756735402
 30
0.0
 11
36.512497155039121
 21
-35.74520093081793
 31
0.0
  0
LINE
  5
165A
  8
0
 62
     0
 10
29.765622439535228
 20
-26.808901131263351
 30
0.0
 11
29.36874743953523
 21
-26.121493467009461
 31
0.0
  0
LINE
  5
165B
  8
0
 62
     0
 10
30.956247439535229
 20
-28.871124124025052
 30
0.0
 11
30.559372439535231
 21
-28.183716459771158
 31
0.0
  0
LINE
  5
165C
  8
0
 62
     0
 10
32.146872439535223
 20
-30.933347116786749
 30
0.0
 11
31.749997439535221
 21
-30.245939452532848
 31
0.0
  0
LINE
  5
165D
  8
0
 62
     0
 10
33.33749743953522
 20
-32.995570109548439
 30
0.0
 11
32.940622439535218
 21
-32.308162445294542
 31
0.0
  0
LINE
  5
165E
  8
0
 62
     0
 10
34.528122439535217
 20
-35.057793102310129
 30
0.0
 11
34.131247439535223
 21
-34.370385438056232
 31
0.0
  0
LINE
  5
165F
  8
0
 62
     0
 10
35.718747439535221
 20
-37.120016095071819
 30
0.0
 11
35.321872439535213
 21
-36.432608430817922
 31
0.0
  0
LINE
  5
1660
  8
0
 62
     0
 10
28.574997724031331
 20
-27.496308631263361
 30
0.0
 11
28.178122724031329
 21
-26.808900967009471
 31
0.0
  0
LINE
  5
1661
  8
0
 62
     0
 10
29.765622724031321
 20
-29.558531624025061
 30
0.0
 11
29.36874772403133
 21
-28.871123959771161
 31
0.0
  0
LINE
  5
1662
  8
0
 62
     0
 10
30.956247724031321
 20
-31.620754616786751
 30
0.0
 11
30.559372724031331
 21
-30.933346952532862
 31
0.0
  0
LINE
  5
1663
  8
0
 62
     0
 10
32.146872724031319
 20
-33.682977609548452
 30
0.0
 11
31.749997724031321
 21
-32.995569945294548
 31
0.0
  0
LINE
  5
1664
  8
0
 62
     0
 10
33.337497724031323
 20
-35.745200602310142
 30
0.0
 11
32.940622724031307
 21
-35.057792938056238
 31
0.0
  0
LINE
  5
1665
  8
0
 62
     0
 10
34.528122724031313
 20
-37.807423595071832
 30
0.0
 11
34.131247724031311
 21
-37.120015930817928
 31
0.0
  0
LINE
  5
1666
  8
0
 62
     0
 10
35.49406762049729
 20
-39.480489233062762
 30
0.0
 11
35.321872724031309
 21
-39.182238923579618
 31
0.0
  0
LINE
  5
1667
  8
0
 62
     0
 10
27.384373008527419
 20
-28.18371613126337
 30
0.0
 11
26.987498008527421
 21
-27.49630846700947
 31
0.0
  0
LINE
  5
1668
  8
0
 62
     0
 10
28.57499800852742
 20
-30.24593912402506
 30
0.0
 11
28.178123008527422
 21
-29.55853145977116
 31
0.0
  0
LINE
  5
1669
  8
0
 62
     0
 10
29.76562300852741
 20
-32.308162116786747
 30
0.0
 11
29.368748008527419
 21
-31.620754452532861
 31
0.0
  0
LINE
  5
166A
  8
0
 62
     0
 10
30.95624800852741
 20
-34.370385109548437
 30
0.0
 11
30.559373008527409
 21
-33.682977445294547
 31
0.0
  0
LINE
  5
166B
  8
0
 62
     0
 10
32.146873008527407
 20
-36.432608102310141
 30
0.0
 11
31.74999800852741
 21
-35.745200438056237
 31
0.0
  0
LINE
  5
166C
  8
0
 62
     0
 10
33.337498008527412
 20
-38.494831095071831
 30
0.0
 11
32.940623008527403
 21
-37.807423430817927
 31
0.0
  0
LINE
  5
166D
  8
0
 62
     0
 10
34.440722795910418
 20
-40.405672478988578
 30
0.0
 11
34.1312480085274
 21
-39.869646423579617
 31
0.0
  0
LINE
  5
166E
  8
0
 62
     0
 10
26.193748293023528
 20
-28.87112363126338
 30
0.0
 11
26.085181662286619
 21
-28.68308071082048
 31
0.0
  0
LINE
  5
166F
  8
0
 62
     0
 10
27.384373293023518
 20
-30.93334662402507
 30
0.0
 11
26.987498293023521
 21
-30.24593895977117
 31
0.0
  0
LINE
  5
1670
  8
0
 62
     0
 10
28.574998293023519
 20
-32.99556961678676
 30
0.0
 11
28.178123293023521
 21
-32.308161952532863
 31
0.0
  0
LINE
  5
1671
  8
0
 62
     0
 10
29.76562329302352
 20
-35.05779260954845
 30
0.0
 11
29.368748293023518
 21
-34.370384945294553
 31
0.0
  0
LINE
  5
1672
  8
0
 62
     0
 10
30.956248293023521
 20
-37.12001560231014
 30
0.0
 11
30.559373293023519
 21
-36.432607938056243
 31
0.0
  0
LINE
  5
1673
  8
0
 62
     0
 10
32.146873293023511
 20
-39.18223859507183
 30
0.0
 11
31.749998293023509
 21
-38.49483093081794
 31
0.0
  0
LINE
  5
1674
  8
0
 62
     0
 10
26.19374857751961
 20
-31.620754124025051
 30
0.0
 11
25.796873577519609
 21
-30.933346459771151
 31
0.0
  0
LINE
  5
1675
  8
0
 62
     0
 10
27.384373577519622
 20
-33.682977116786752
 30
0.0
 11
26.98749857751962
 21
-32.995569452532862
 31
0.0
  0
LINE
  5
1676
  8
0
 62
     0
 10
28.574998577519612
 20
-35.745200109548442
 30
0.0
 11
28.17812357751961
 21
-35.057792445294552
 31
0.0
  0
LINE
  5
1677
  8
0
 62
     0
 10
29.765623577519609
 20
-37.807423102310132
 30
0.0
 11
29.368748577519611
 21
-37.120015438056228
 31
0.0
  0
LINE
  5
1678
  8
0
 62
     0
 10
30.956248577519609
 20
-39.869646095071822
 30
0.0
 11
30.559373577519612
 21
-39.182238430817932
 31
0.0
  0
LINE
  5
1679
  8
0
 62
     0
 10
26.19374886201571
 20
-34.370384616786751
 30
0.0
 11
25.796873862015708
 21
-33.682976952532862
 31
0.0
  0
LINE
  5
167A
  8
0
 62
     0
 10
27.38437386201571
 20
-36.432607609548441
 30
0.0
 11
26.987498862015709
 21
-35.745199945294551
 31
0.0
  0
LINE
  5
167B
  8
0
 62
     0
 10
28.574998862015711
 20
-38.494830602310131
 30
0.0
 11
28.17812386201571
 21
-37.807422938056227
 31
0.0
  0
LINE
  5
167C
  8
0
 62
     0
 10
29.67822393389481
 20
-40.405672478988571
 30
0.0
 11
29.3687488620157
 21
-39.869645930817917
 31
0.0
  0
LINE
  5
167D
  8
0
 62
     0
 10
26.193749146511799
 20
-37.12001510954844
 30
0.0
 11
25.796874146511811
 21
-36.432607445294543
 31
0.0
  0
LINE
  5
167E
  8
0
 62
     0
 10
27.384374146511799
 20
-39.182238102310123
 30
0.0
 11
26.987499146511801
 21
-38.494830438056233
 31
0.0
  0
LINE
  5
167F
  8
0
 62
     0
 10
33.337500000000126
 20
-39.869635747076231
 30
0.0
 11
34.131250000000129
 21
-39.869635747076231
 31
0.0
  0
LINE
  5
1680
  8
0
 62
     0
 10
30.956250000000122
 20
-39.869635747076231
 30
0.0
 11
31.750000000000121
 21
-39.869635747076231
 31
0.0
  0
LINE
  5
1681
  8
0
 62
     0
 10
28.57500000000012
 20
-39.869635747076231
 30
0.0
 11
29.36875000000013
 21
-39.869635747076231
 31
0.0
  0
LINE
  5
1682
  8
0
 62
     0
 10
35.718750000000128
 20
-38.494820747076233
 30
0.0
 11
36.033015156590103
 21
-38.494820747076233
 31
0.0
  0
LINE
  5
1683
  8
0
 62
     0
 10
33.337500000000126
 20
-38.494820747076233
 30
0.0
 11
34.131250000000129
 21
-38.494820747076233
 31
0.0
  0
LINE
  5
1684
  8
0
 62
     0
 10
31.07842866525743
 20
-38.494820747076233
 30
0.0
 11
31.750000000000131
 21
-38.494820747076233
 31
0.0
  0
LINE
  5
1685
  8
0
 62
     0
 10
30.956250000000122
 20
-38.494820747076233
 30
0.0
 11
31.07842866525743
 21
-38.494820747076233
 31
0.0
  0
LINE
  5
1686
  8
0
 62
     0
 10
28.57500000000012
 20
-38.494820747076233
 30
0.0
 11
29.368750000000119
 21
-38.494820747076233
 31
0.0
  0
LINE
  5
1687
  8
0
 62
     0
 10
26.421665207648829
 20
-38.494820747076233
 30
0.0
 11
26.987500000000122
 21
-38.494820747076233
 31
0.0
  0
LINE
  5
1688
  8
0
 62
     0
 10
35.718750000000128
 20
-37.120005747076227
 30
0.0
 11
36.512500000000131
 21
-37.120005747076227
 31
0.0
  0
LINE
  5
1689
  8
0
 62
     0
 10
33.337500000000126
 20
-37.120005747076227
 30
0.0
 11
34.131250000000129
 21
-37.120005747076227
 31
0.0
  0
LINE
  5
168A
  8
0
 62
     0
 10
30.956250000000122
 20
-37.120005747076227
 30
0.0
 11
31.750000000000131
 21
-37.120005747076227
 31
0.0
  0
LINE
  5
168B
  8
0
 62
     0
 10
28.57500000000012
 20
-37.120005747076227
 30
0.0
 11
29.36875000000013
 21
-37.120005747076227
 31
0.0
  0
LINE
  5
168C
  8
0
 62
     0
 10
26.193750000000129
 20
-37.120005747076227
 30
0.0
 11
26.987500000000129
 21
-37.120005747076227
 31
0.0
  0
LINE
  5
168D
  8
0
 62
     0
 10
35.718750000000121
 20
-35.745190747076229
 30
0.0
 11
36.512500000000117
 21
-35.745190747076229
 31
0.0
  0
LINE
  5
168E
  8
0
 62
     0
 10
33.337500000000119
 20
-35.745190747076229
 30
0.0
 11
34.131250000000122
 21
-35.745190747076229
 31
0.0
  0
LINE
  5
168F
  8
0
 62
     0
 10
30.956250000000122
 20
-35.745190747076229
 30
0.0
 11
31.750000000000121
 21
-35.745190747076229
 31
0.0
  0
LINE
  5
1690
  8
0
 62
     0
 10
29.184662038619749
 20
-35.745190747076229
 30
0.0
 11
29.36875000000013
 21
-35.745190747076229
 31
0.0
  0
LINE
  5
1691
  8
0
 62
     0
 10
28.57500000000012
 20
-35.745190747076229
 30
0.0
 11
29.184662038619749
 21
-35.745190747076229
 31
0.0
  0
LINE
  5
1692
  8
0
 62
     0
 10
26.193750000000129
 20
-35.745190747076229
 30
0.0
 11
26.987500000000129
 21
-35.745190747076229
 31
0.0
  0
LINE
  5
1693
  8
0
 62
     0
 10
35.718750000000121
 20
-34.370375747076231
 30
0.0
 11
36.512500000000117
 21
-34.370375747076231
 31
0.0
  0
LINE
  5
1694
  8
0
 62
     0
 10
33.337500000000119
 20
-34.370375747076231
 30
0.0
 11
34.131250000000122
 21
-34.370375747076231
 31
0.0
  0
LINE
  5
1695
  8
0
 62
     0
 10
30.956250000000122
 20
-34.370375747076231
 30
0.0
 11
31.750000000000121
 21
-34.370375747076231
 31
0.0
  0
LINE
  5
1696
  8
0
 62
     0
 10
28.57500000000012
 20
-34.370375747076231
 30
0.0
 11
29.36875000000013
 21
-34.370375747076231
 31
0.0
  0
LINE
  5
1697
  8
0
 62
     0
 10
26.193750000000129
 20
-34.370375747076231
 30
0.0
 11
26.987500000000129
 21
-34.370375747076231
 31
0.0
  0
LINE
  5
1698
  8
0
 62
     0
 10
35.718750000000121
 20
-32.99556074707624
 30
0.0
 11
36.512500000000117
 21
-32.99556074707624
 31
0.0
  0
LINE
  5
1699
  8
0
 62
     0
 10
33.337500000000119
 20
-32.99556074707624
 30
0.0
 11
34.131250000000122
 21
-32.99556074707624
 31
0.0
  0
LINE
  5
169A
  8
0
 62
     0
 10
30.956250000000122
 20
-32.99556074707624
 30
0.0
 11
31.750000000000121
 21
-32.99556074707624
 31
0.0
  0
LINE
  5
169B
  8
0
 62
     0
 10
28.57500000000012
 20
-32.99556074707624
 30
0.0
 11
29.36875000000013
 21
-32.99556074707624
 31
0.0
  0
LINE
  5
169C
  8
0
 62
     0
 10
26.193750000000129
 20
-32.99556074707624
 30
0.0
 11
26.987500000000129
 21
-32.99556074707624
 31
0.0
  0
LINE
  5
169D
  8
0
 62
     0
 10
35.718750000000121
 20
-31.620745747076239
 30
0.0
 11
36.512500000000117
 21
-31.620745747076239
 31
0.0
  0
LINE
  5
169E
  8
0
 62
     0
 10
33.337500000000119
 20
-31.620745747076239
 30
0.0
 11
34.131250000000122
 21
-31.620745747076239
 31
0.0
  0
LINE
  5
169F
  8
0
 62
     0
 10
30.956250000000122
 20
-31.620745747076239
 30
0.0
 11
31.750000000000121
 21
-31.620745747076239
 31
0.0
  0
LINE
  5
16A0
  8
0
 62
     0
 10
28.57500000000012
 20
-31.620745747076239
 30
0.0
 11
29.36875000000013
 21
-31.620745747076239
 31
0.0
  0
LINE
  5
16A1
  8
0
 62
     0
 10
26.193750000000129
 20
-31.620745747076239
 30
0.0
 11
26.987500000000129
 21
-31.620745747076239
 31
0.0
  0
LINE
  5
16A2
  8
0
 62
     0
 10
35.718750000000121
 20
-30.24593074707623
 30
0.0
 11
36.512500000000117
 21
-30.24593074707623
 31
0.0
  0
LINE
  5
16A3
  8
0
 62
     0
 10
33.337500000000119
 20
-30.24593074707623
 30
0.0
 11
34.131250000000122
 21
-30.24593074707623
 31
0.0
  0
LINE
  5
16A4
  8
0
 62
     0
 10
30.956250000000122
 20
-30.24593074707623
 30
0.0
 11
31.750000000000121
 21
-30.24593074707623
 31
0.0
  0
LINE
  5
16A5
  8
0
 62
     0
 10
28.57500000000012
 20
-30.24593074707623
 30
0.0
 11
29.36875000000013
 21
-30.24593074707623
 31
0.0
  0
LINE
  5
16A6
  8
0
 62
     0
 10
26.193750000000129
 20
-30.24593074707623
 30
0.0
 11
26.987500000000129
 21
-30.24593074707623
 31
0.0
  0
LINE
  5
16A7
  8
0
 62
     0
 10
35.718750000000121
 20
-28.871115747076232
 30
0.0
 11
36.512500000000117
 21
-28.871115747076232
 31
0.0
  0
LINE
  5
16A8
  8
0
 62
     0
 10
33.337500000000119
 20
-28.871115747076232
 30
0.0
 11
34.131250000000122
 21
-28.871115747076232
 31
0.0
  0
LINE
  5
16A9
  8
0
 62
     0
 10
30.956250000000122
 20
-28.871115747076232
 30
0.0
 11
31.750000000000121
 21
-28.871115747076232
 31
0.0
  0
LINE
  5
16AA
  8
0
 62
     0
 10
28.57500000000012
 20
-28.871115747076232
 30
0.0
 11
29.36875000000013
 21
-28.871115747076232
 31
0.0
  0
LINE
  5
16AB
  8
0
 62
     0
 10
26.193750000000129
 20
-28.871115747076232
 30
0.0
 11
26.987500000000129
 21
-28.871115747076232
 31
0.0
  0
LINE
  5
16AC
  8
0
 62
     0
 10
35.718750000000128
 20
-27.49630074707623
 30
0.0
 11
36.2290697735978
 21
-27.49630074707623
 31
0.0
  0
LINE
  5
16AD
  8
0
 62
     0
 10
33.337500000000126
 20
-27.49630074707623
 30
0.0
 11
34.131250000000129
 21
-27.49630074707623
 31
0.0
  0
LINE
  5
16AE
  8
0
 62
     0
 10
31.483607894376352
 20
-27.49630074707623
 30
0.0
 11
31.750000000000131
 21
-27.49630074707623
 31
0.0
  0
LINE
  5
16AF
  8
0
 62
     0
 10
30.956250000000122
 20
-27.49630074707623
 30
0.0
 11
31.483607894376352
 21
-27.49630074707623
 31
0.0
  0
LINE
  5
16B0
  8
0
 62
     0
 10
28.57500000000012
 20
-27.49630074707623
 30
0.0
 11
29.368750000000119
 21
-27.49630074707623
 31
0.0
  0
LINE
  5
16B1
  8
0
 62
     0
 10
26.644698003846521
 20
-27.49630074707623
 30
0.0
 11
26.987500000000122
 21
-27.49630074707623
 31
0.0
  0
LINE
  5
16B2
  8
0
 62
     0
 10
33.698957429521492
 20
-26.121485747076239
 30
0.0
 11
34.131250000000122
 21
-26.121485747076239
 31
0.0
  0
LINE
  5
16B3
  8
0
 62
     0
 10
33.337500000000119
 20
-26.121485747076239
 30
0.0
 11
33.698957429521492
 21
-26.121485747076239
 31
0.0
  0
LINE
  5
16B4
  8
0
 62
     0
 10
30.956250000000122
 20
-26.121485747076239
 30
0.0
 11
31.750000000000121
 21
-26.121485747076239
 31
0.0
  0
LINE
  5
16B5
  8
0
 62
     0
 10
28.57500000000012
 20
-26.121485747076239
 30
0.0
 11
29.36875000000013
 21
-26.121485747076239
 31
0.0
  0
ENDBLK
  5
16B7
  8
0
  0
BLOCK
  8
0
  2
*X79
 70
     1
 10
0.0
 20
0.0
 30
0.0
  3
*X79
  1

  0
LINE
  5
16B9
  8
0
 62
     0
 10
43.601851205048682
 20
-25.6413397099865
 30
0.0
 11
42.960511868600541
 21
-25.000000373538359
 31
0.0
  0
LINE
  5
16BA
  8
0
 62
     0
 10
43.20402795058471
 20
-26.36604847065616
 30
0.0
 11
41.837979853466891
 21
-25.000000373538349
 31
0.0
  0
LINE
  5
16BB
  8
0
 62
     0
 10
42.841216162941173
 20
-27.12576869814627
 30
0.0
 11
40.715447838333247
 21
-25.000000373538359
 31
0.0
  0
LINE
  5
16BC
  8
0
 62
     0
 10
42.515608032255408
 20
-27.922692582594159
 30
0.0
 11
39.592915823199618
 21
-25.000000373538359
 31
0.0
  0
LINE
  5
16BD
  8
0
 62
     0
 10
42.230052206213671
 20
-28.759668771686059
 30
0.0
 11
38.470383808065982
 21
-25.000000373538359
 31
0.0
  0
LINE
  5
16BE
  8
0
 62
     0
 10
41.988265094661259
 20
-29.64041367526729
 30
0.0
 11
37.347851792932332
 21
-25.000000373538359
 31
0.0
  0
LINE
  5
16BF
  8
0
 62
     0
 10
41.795155057563868
 20
-30.569835653303539
 30
0.0
 11
36.225319777798688
 21
-25.000000373538359
 31
0.0
  0
LINE
  5
16C0
  8
0
 62
     0
 10
41.657339841680212
 20
-31.554552452553541
 30
0.0
 11
35.25723057330795
 21
-25.154443184181272
 31
0.0
  0
LINE
  5
16C1
  8
0
 62
     0
 10
41.584016925856552
 20
-32.603761551863514
 30
0.0
 11
36.007454389033441
 21
-27.027199015040392
 31
0.0
  0
LINE
  5
16C2
  8
0
 62
     0
 10
41.588532528454202
 20
-33.730809169594806
 30
0.0
 11
36.764835970541263
 21
-28.907112611681871
 31
0.0
  0
LINE
  5
16C3
  8
0
 62
     0
 10
41.691488369315792
 20
-34.95629702559004
 30
0.0
 11
37.138893663564488
 21
-30.40370231983875
 31
0.0
  0
LINE
  5
16C4
  8
0
 62
     0
 10
41.927771999337288
 20
-36.315112670745187
 30
0.0
 11
37.314727406496523
 21
-31.702068077904411
 31
0.0
  0
LINE
  5
16C5
  8
0
 62
     0
 10
42.366136402087697
 20
-37.876009088629253
 30
0.0
 11
37.360021210659461
 21
-32.869893897201003
 31
0.0
  0
LINE
  5
16C6
  8
0
 62
     0
 10
43.18954000742103
 20
-39.821944709096222
 30
0.0
 11
37.308695033872311
 21
-33.941099735547489
 31
0.0
  0
LINE
  5
16C7
  8
0
 62
     0
 10
42.650735762179728
 20
-40.405672478988549
 30
0.0
 11
37.180607446869772
 21
-34.9355441636786
 31
0.0
  0
LINE
  5
16C8
  8
0
 62
     0
 10
41.528203747046078
 20
-40.405672478988549
 30
0.0
 11
36.988521397337387
 21
-35.865990129279858
 31
0.0
  0
LINE
  5
16C9
  8
0
 62
     0
 10
40.405671731912442
 20
-40.405672478988549
 30
0.0
 11
36.741153344464749
 21
-36.741154091540871
 31
0.0
  0
LINE
  5
16CA
  8
0
 62
     0
 10
39.283139716778798
 20
-40.405672478988549
 30
0.0
 11
36.444702295169137
 21
-37.567235057378902
 31
0.0
  0
LINE
  5
16CB
  8
0
 62
     0
 10
38.160607701645148
 20
-40.405672478988549
 30
0.0
 11
36.103692405788323
 21
-38.348757183131717
 31
0.0
  0
LINE
  5
16CC
  8
0
 62
     0
 10
37.038075686511512
 20
-40.405672478988549
 30
0.0
 11
35.721469997254381
 21
-39.089066789731419
 31
0.0
  0
LINE
  5
16CD
  8
0
 62
     0
 10
35.915543671377868
 20
-40.405672478988549
 30
0.0
 11
35.300511360837923
 21
-39.790640168448611
 31
0.0
  0
LINE
  5
16CE
  8
0
 62
     0
 10
42.661697387977469
 20
-40.405672478988549
 30
0.0
 11
43.208466879525801
 21
-39.858902987440231
 31
0.0
  0
LINE
  5
16CF
  8
0
 62
     0
 10
41.539165372843819
 20
-40.405672478988549
 30
0.0
 11
42.845235499899402
 21
-39.099602351932973
 31
0.0
  0
LINE
  5
16D0
  8
0
 62
     0
 10
40.416633357710182
 20
-40.405672478988549
 30
0.0
 11
42.51917877499276
 21
-38.303127061705972
 31
0.0
  0
LINE
  5
16D1
  8
0
 62
     0
 10
39.294101342576539
 20
-40.405672478988549
 30
0.0
 11
42.233136651296917
 21
-37.466637170268157
 31
0.0
  0
LINE
  5
16D2
  8
0
 62
     0
 10
38.171569327442889
 20
-40.405672478988549
 30
0.0
 11
41.990813834233329
 21
-36.586427972198123
 31
0.0
  0
LINE
  5
16D3
  8
0
 62
     0
 10
37.049037312309252
 20
-40.405672478988549
 30
0.0
 11
41.797102296658487
 21
-35.657607494639322
 31
0.0
  0
LINE
  5
16D4
  8
0
 62
     0
 10
35.926505297175609
 20
-40.405672478988549
 30
0.0
 11
41.658595762212457
 21
-34.673582013951702
 31
0.0
  0
LINE
  5
16D5
  8
0
 62
     0
 10
35.062560703635477
 20
-40.147085057395032
 30
0.0
 11
41.584454479276403
 21
-33.625191281754113
 31
0.0
  0
LINE
  5
16D6
  8
0
 62
     0
 10
36.393797545182963
 20
-37.693316200713923
 30
0.0
 11
41.587962736843771
 21
-32.499151009053087
 31
0.0
  0
LINE
  5
16D7
  8
0
 62
     0
 10
36.951583173479143
 20
-36.012998557284092
 30
0.0
 11
41.689608922548423
 21
-31.274972808214809
 31
0.0
  0
LINE
  5
16D8
  8
0
 62
     0
 10
37.23103937172425
 20
-34.611010343905342
 30
0.0
 11
41.924042305931259
 21
-29.918007409698319
 31
0.0
  0
LINE
  5
16D9
  8
0
 62
     0
 10
37.347025917850146
 20
-33.372491782645803
 30
0.0
 11
42.359387723581449
 21
-28.360129976914489
 31
0.0
  0
LINE
  5
16DA
  8
0
 62
     0
 10
37.349057574319417
 20
-32.247928111042881
 30
0.0
 11
43.17597295199414
 21
-26.421012733368158
 31
0.0
  0
LINE
  5
16DB
  8
0
 62
     0
 10
37.263898260557738
 20
-31.210555409670921
 30
0.0
 11
43.474453296690299
 21
-25.000000373538359
 31
0.0
  0
LINE
  5
16DC
  8
0
 62
     0
 10
37.107922140085591
 20
-30.243999515009421
 30
0.0
 11
42.351921281556663
 21
-25.000000373538359
 31
0.0
  0
LINE
  5
16DD
  8
0
 62
     0
 10
36.891954798002182
 20
-29.33743484195919
 30
0.0
 11
41.229389266423013
 21
-25.000000373538359
 31
0.0
  0
LINE
  5
16DE
  8
0
 62
     0
 10
36.62353053005063
 20
-28.483327094777099
 30
0.0
 11
40.106857251289362
 21
-25.000000373538359
 31
0.0
  0
LINE
  5
16DF
  8
0
 62
     0
 10
36.308074195030052
 20
-27.676251414664041
 30
0.0
 11
38.984325236155733
 21
-25.000000373538349
 31
0.0
  0
LINE
  5
16E0
  8
0
 62
     0
 10
35.949572970854703
 20
-26.912220623705728
 30
0.0
 11
37.86179322102209
 21
-25.000000373538349
 31
0.0
  0
LINE
  5
16E1
  8
0
 62
     0
 10
35.550981565434029
 20
-26.18828001399276
 30
0.0
 11
36.73926120588844
 21
-25.000000373538349
 31
0.0
  0
LINE
  5
16E2
  8
0
 62
     0
 10
35.114477025715651
 20
-25.502252538577501
 30
0.0
 11
35.616729190754789
 21
-25.000000373538359
 31
0.0
  0
ENDBLK
  5
16E4
  8
0
  0
BLOCK
  8
0
  2
*X80
 70
     1
 10
0.0
 20
0.0
 30
0.0
  3
*X80
  1

  0
LINE
  5
1CBF
  8
0
 62
     0
 10
-69.82230508962266
 20
10.999999999999609
 30
0.0
 11
-68.999999999999361
 21
11.82230508962291
 31
0.0
  0
LINE
  5
1CC0
  8
0
 62
     0
 10
-70.944837104756303
 20
10.99999999999962
 30
0.0
 11
-68.999999999999361
 21
12.94483710475656
 31
0.0
  0
LINE
  5
1CC1
  8
0
 62
     0
 10
-71.999999999999361
 20
11.0673691198902
 30
0.0
 11
-68.999999999999361
 21
14.0673691198902
 31
0.0
  0
LINE
  5
1CC2
  8
0
 62
     0
 10
-71.999999999999361
 20
12.18990113502384
 30
0.0
 11
-68.999999999999361
 21
15.18990113502384
 31
0.0
  0
LINE
  5
1CC3
  8
0
 62
     0
 10
-71.999999999999361
 20
13.31243315015748
 30
0.0
 11
-68.999999999999361
 21
16.312433150157482
 31
0.0
  0
LINE
  5
1CC4
  8
0
 62
     0
 10
-71.999999999999361
 20
14.43496516529113
 30
0.0
 11
-68.999999999999361
 21
17.434965165291128
 31
0.0
  0
LINE
  5
1CC5
  8
0
 62
     0
 10
-71.999999999999361
 20
15.55749718042477
 30
0.0
 11
-68.999999999999361
 21
18.557497180424772
 31
0.0
  0
LINE
  5
1CC6
  8
0
 62
     0
 10
-71.999999999999361
 20
16.680029195558419
 30
0.0
 11
-68.999999999999361
 21
19.680029195558411
 31
0.0
  0
LINE
  5
1CC7
  8
0
 62
     0
 10
-71.999999999999361
 20
17.802561210692058
 30
0.0
 11
-68.999999999999361
 21
20.802561210692058
 31
0.0
  0
LINE
  5
1CC8
  8
0
 62
     0
 10
-71.999999999999375
 20
18.925093225825702
 30
0.0
 11
-68.999999999999375
 21
21.925093225825702
 31
0.0
  0
LINE
  5
1CC9
  8
0
 62
     0
 10
-71.999999999999375
 20
20.047625240959349
 30
0.0
 11
-68.999999999999361
 21
23.047625240959349
 31
0.0
  0
LINE
  5
1CCA
  8
0
 62
     0
 10
-72.19075511673131
 20
20.979402139361049
 30
0.0
 11
-68.999999999999375
 21
24.170157256092988
 31
0.0
  0
LINE
  5
1CCB
  8
0
 62
     0
 10
-82.17015725609275
 20
10.999999999999609
 30
0.0
 11
-81.999999999999375
 21
11.17015725609299
 31
0.0
  0
LINE
  5
1CCC
  8
0
 62
     0
 10
-73.292689271226394
 20
20.99999999999962
 30
0.0
 11
-68.999999999999375
 21
25.292689271226639
 31
0.0
  0
LINE
  5
1CCD
  8
0
 62
     0
 10
-83.292689271226394
 20
10.999999999999609
 30
0.0
 11
-81.999999999999375
 21
12.29268927122664
 31
0.0
  0
LINE
  5
1CCE
  8
0
 62
     0
 10
-74.415221286360037
 20
20.99999999999962
 30
0.0
 11
-69.415221286360037
 21
25.99999999999962
 31
0.0
  0
LINE
  5
1CCF
  8
0
 62
     0
 10
-84.415221286360037
 20
10.999999999999609
 30
0.0
 11
-81.999999999999375
 21
13.41522128636028
 31
0.0
  0
LINE
  5
1CD0
  8
0
 62
     0
 10
-75.537753301493666
 20
20.99999999999962
 30
0.0
 11
-70.537753301493666
 21
25.99999999999962
 31
0.0
  0
LINE
  5
1CD1
  8
0
 62
     0
 10
-84.999999999999375
 20
11.537753301493931
 30
0.0
 11
-81.999999999999375
 21
14.537753301493931
 31
0.0
  0
LINE
  5
1CD2
  8
0
 62
     0
 10
-76.660285316627323
 20
20.99999999999962
 30
0.0
 11
-71.660285316627323
 21
25.99999999999962
 31
0.0
  0
LINE
  5
1CD3
  8
0
 62
     0
 10
-84.999999999999361
 20
12.660285316627579
 30
0.0
 11
-81.999999999999375
 21
15.66028531662757
 31
0.0
  0
LINE
  5
1CD4
  8
0
 62
     0
 10
-77.782817331760967
 20
20.99999999999962
 30
0.0
 11
-72.782817331760967
 21
25.99999999999962
 31
0.0
  0
LINE
  5
1CD5
  8
0
 62
     0
 10
-84.999999999999375
 20
13.782817331761221
 30
0.0
 11
-81.999999999999375
 21
16.782817331761208
 31
0.0
  0
LINE
  5
1CD6
  8
0
 62
     0
 10
-78.90534934689461
 20
20.99999999999962
 30
0.0
 11
-73.90534934689461
 21
25.99999999999962
 31
0.0
  0
LINE
  5
1CD7
  8
0
 62
     0
 10
-84.999999999999361
 20
14.905349346894861
 30
0.0
 11
-81.999999999999375
 21
17.905349346894859
 31
0.0
  0
LINE
  5
1CD8
  8
0
 62
     0
 10
-80.027881362028225
 20
20.99999999999962
 30
0.0
 11
-75.027881362028253
 21
25.999999999999609
 31
0.0
  0
LINE
  5
1CD9
  8
0
 62
     0
 10
-84.999999999999375
 20
16.027881362028499
 30
0.0
 11
-81.999999999999375
 21
19.027881362028499
 31
0.0
  0
LINE
  5
1CDA
  8
0
 62
     0
 10
-81.150413377161897
 20
20.99999999999962
 30
0.0
 11
-76.150413377161897
 21
25.999999999999609
 31
0.0
  0
LINE
  5
1CDB
  8
0
 62
     0
 10
-84.999999999999361
 20
17.150413377162149
 30
0.0
 11
-81.999999999999375
 21
20.150413377162149
 31
0.0
  0
LINE
  5
1CDC
  8
0
 62
     0
 10
-84.999999999999375
 20
18.272945392295789
 30
0.0
 11
-77.272945392295554
 21
25.999999999999609
 31
0.0
  0
LINE
  5
1CDD
  8
0
 62
     0
 10
-84.999999999999361
 20
19.395477407429439
 30
0.0
 11
-78.395477407429183
 21
25.99999999999962
 31
0.0
  0
LINE
  5
1CDE
  8
0
 62
     0
 10
-84.999999999999375
 20
20.518009422563079
 30
0.0
 11
-79.518009422562827
 21
25.999999999999609
 31
0.0
  0
LINE
  5
1CDF
  8
0
 62
     0
 10
-84.999999999999361
 20
21.640541437696719
 30
0.0
 11
-80.64054143769647
 21
25.999999999999609
 31
0.0
  0
LINE
  5
1CE0
  8
0
 62
     0
 10
-84.999999999999375
 20
22.763073452830369
 30
0.0
 11
-81.763073452830113
 21
25.99999999999962
 31
0.0
  0
LINE
  5
1CE1
  8
0
 62
     0
 10
-84.999999999999361
 20
23.885605467964009
 30
0.0
 11
-82.885605467963757
 21
25.999999999999609
 31
0.0
  0
LINE
  5
1CE2
  8
0
 62
     0
 10
-84.999999999999375
 20
25.008137483097659
 30
0.0
 11
-84.0081374830974
 21
25.99999999999962
 31
0.0
  0
LINE
  5
1CE3
  8
0
 62
     0
 10
-84.999999999999375
 20
12.03541901631265
 30
0.0
 11
-83.964580983686346
 21
10.99999999999962
 31
0.0
  0
LINE
  5
1CE4
  8
0
 62
     0
 10
-84.999999999999375
 20
13.15795103144629
 30
0.0
 11
-82.842048968552689
 21
10.999999999999609
 31
0.0
  0
LINE
  5
1CE5
  8
0
 62
     0
 10
-84.999999999999375
 20
14.28048304657994
 30
0.0
 11
-81.999999999999375
 21
11.28048304657993
 31
0.0
  0
LINE
  5
1CE6
  8
0
 62
     0
 10
-84.999999999999375
 20
15.40301506171358
 30
0.0
 11
-81.999999999999375
 21
12.403015061713569
 31
0.0
  0
LINE
  5
1CE7
  8
0
 62
     0
 10
-84.999999999999375
 20
16.525547076847221
 30
0.0
 11
-81.999999999999375
 21
13.52554707684722
 31
0.0
  0
LINE
  5
1CE8
  8
0
 62
     0
 10
-84.999999999999375
 20
17.648079091980868
 30
0.0
 11
-81.999999999999375
 21
14.64807909198087
 31
0.0
  0
LINE
  5
1CE9
  8
0
 62
     0
 10
-84.999999999999375
 20
18.770611107114512
 30
0.0
 11
-81.999999999999375
 21
15.770611107114499
 31
0.0
  0
LINE
  5
1CEA
  8
0
 62
     0
 10
-84.999999999999375
 20
19.893143122248151
 30
0.0
 11
-81.999999999999375
 21
16.893143122248151
 31
0.0
  0
LINE
  5
1CEB
  8
0
 62
     0
 10
-84.999999999999375
 20
21.015675137381798
 30
0.0
 11
-81.999999999999375
 21
18.015675137381798
 31
0.0
  0
LINE
  5
1CEC
  8
0
 62
     0
 10
-84.999999999999375
 20
22.138207152515449
 30
0.0
 11
-81.999999999999375
 21
19.138207152515442
 31
0.0
  0
LINE
  5
1CED
  8
0
 62
     0
 10
-84.999999999999375
 20
23.260739167649099
 30
0.0
 11
-81.999999999999375
 21
20.260739167649088
 31
0.0
  0
LINE
  5
1CEE
  8
0
 62
     0
 10
-71.999999999999375
 20
11.38327118278273
 30
0.0
 11
-71.616728817216256
 21
10.999999999999609
 31
0.0
  0
LINE
  5
1CEF
  8
0
 62
     0
 10
-84.999999999999375
 20
24.383271182782732
 30
0.0
 11
-81.616728817216256
 21
20.99999999999962
 31
0.0
  0
LINE
  5
1CF0
  8
0
 62
     0
 10
-71.999999999999375
 20
12.50580319791637
 30
0.0
 11
-70.494196802082627
 21
10.99999999999962
 31
0.0
  0
LINE
  5
1CF1
  8
0
 62
     0
 10
-84.999999999999375
 20
25.505803197916389
 30
0.0
 11
-80.494196802082612
 21
20.99999999999962
 31
0.0
  0
LINE
  5
1CF2
  8
0
 62
     0
 10
-71.999999999999375
 20
13.62833521305002
 30
0.0
 11
-69.371664786948983
 21
10.99999999999962
 31
0.0
  0
LINE
  5
1CF3
  8
0
 62
     0
 10
-84.371664786948955
 20
25.999999999999609
 30
0.0
 11
-79.371664786948969
 21
20.999999999999609
 31
0.0
  0
LINE
  5
1CF4
  8
0
 62
     0
 10
-71.999999999999375
 20
14.75086722818366
 30
0.0
 11
-68.999999999999375
 21
11.750867228183649
 31
0.0
  0
LINE
  5
1CF5
  8
0
 62
     0
 10
-83.249132771815312
 20
25.999999999999609
 30
0.0
 11
-78.24913277181534
 21
20.99999999999962
 31
0.0
  0
LINE
  5
1CF6
  8
0
 62
     0
 10
-71.999999999999375
 20
15.8733992433173
 30
0.0
 11
-68.999999999999375
 21
12.8733992433173
 31
0.0
  0
LINE
  5
1CF7
  8
0
 62
     0
 10
-82.126600756681682
 20
25.99999999999962
 30
0.0
 11
-77.126600756681682
 21
20.99999999999962
 31
0.0
  0
LINE
  5
1CF8
  8
0
 62
     0
 10
-71.999999999999375
 20
16.995931258450948
 30
0.0
 11
-68.999999999999375
 21
13.99593125845095
 31
0.0
  0
LINE
  5
1CF9
  8
0
 62
     0
 10
-81.004068741548039
 20
25.99999999999962
 30
0.0
 11
-76.004068741548039
 21
20.99999999999962
 31
0.0
  0
LINE
  5
1CFA
  8
0
 62
     0
 10
-71.999999999999375
 20
18.118463273584592
 30
0.0
 11
-68.999999999999375
 21
15.11846327358459
 31
0.0
  0
LINE
  5
1CFB
  8
0
 62
     0
 10
-79.881536726414396
 20
25.999999999999609
 30
0.0
 11
-74.881536726414396
 21
20.999999999999609
 31
0.0
  0
LINE
  5
1CFC
  8
0
 62
     0
 10
-71.999999999999375
 20
19.240995288718231
 30
0.0
 11
-68.999999999999375
 21
16.240995288718231
 31
0.0
  0
LINE
  5
1CFD
  8
0
 62
     0
 10
-78.759004711280753
 20
25.999999999999609
 30
0.0
 11
-73.759004711280753
 21
20.99999999999962
 31
0.0
  0
LINE
  5
1CFE
  8
0
 62
     0
 10
-71.999999999999375
 20
20.363527303851878
 30
0.0
 11
-68.999999999999375
 21
17.363527303851878
 31
0.0
  0
LINE
  5
1CFF
  8
0
 62
     0
 10
-77.636472696147109
 20
25.99999999999962
 30
0.0
 11
-72.636472696147109
 21
20.99999999999962
 31
0.0
  0
LINE
  5
1D00
  8
0
 62
     0
 10
-76.513940681013466
 20
25.99999999999962
 30
0.0
 11
-68.999999999999375
 21
18.486059318985522
 31
0.0
  0
LINE
  5
1D01
  8
0
 62
     0
 10
-75.391408665879823
 20
25.999999999999609
 30
0.0
 11
-68.999999999999375
 21
19.608591334119161
 31
0.0
  0
LINE
  5
1D02
  8
0
 62
     0
 10
-74.268876650746179
 20
25.99999999999962
 30
0.0
 11
-68.999999999999375
 21
20.731123349252819
 31
0.0
  0
LINE
  5
1D03
  8
0
 62
     0
 10
-73.146344635612536
 20
25.99999999999962
 30
0.0
 11
-68.999999999999375
 21
21.853655364386459
 31
0.0
  0
LINE
  5
1D04
  8
0
 62
     0
 10
-72.023812620478878
 20
25.99999999999962
 30
0.0
 11
-68.999999999999375
 21
22.976187379520098
 31
0.0
  0
LINE
  5
1D05
  8
0
 62
     0
 10
-70.901280605345235
 20
25.99999999999962
 30
0.0
 11
-68.999999999999375
 21
24.098719394653749
 31
0.0
  0
LINE
  5
1D06
  8
0
 62
     0
 10
-69.778748590211606
 20
25.99999999999962
 30
0.0
 11
-68.999999999999375
 21
25.221251409787389
 31
0.0
  0
ENDBLK
  5
1D08
  8
0
  0
BLOCK
  8
0
  2
*X81
 70
     1
 10
0.0
 20
0.0
 30
0.0
  3
*X81
  1

  0
LINE
  5
1D21
  8
0
 62
     0
 10
-69.82230508962266
 20
10.999999999999609
 30
0.0
 11
-68.999999999999361
 21
11.82230508962291
 31
0.0
  0
LINE
  5
1D22
  8
0
 62
     0
 10
-70.944837104756303
 20
10.99999999999962
 30
0.0
 11
-68.999999999999361
 21
12.94483710475656
 31
0.0
  0
LINE
  5
1D23
  8
0
 62
     0
 10
-71.999999999999361
 20
11.0673691198902
 30
0.0
 11
-68.999999999999361
 21
14.0673691198902
 31
0.0
  0
LINE
  5
1D24
  8
0
 62
     0
 10
-71.999999999999361
 20
12.18990113502384
 30
0.0
 11
-68.999999999999361
 21
15.18990113502384
 31
0.0
  0
LINE
  5
1D25
  8
0
 62
     0
 10
-71.999999999999361
 20
13.31243315015748
 30
0.0
 11
-68.999999999999361
 21
16.312433150157482
 31
0.0
  0
LINE
  5
1D26
  8
0
 62
     0
 10
-71.999999999999361
 20
14.43496516529113
 30
0.0
 11
-68.999999999999361
 21
17.434965165291128
 31
0.0
  0
LINE
  5
1D27
  8
0
 62
     0
 10
-71.999999999999361
 20
15.55749718042477
 30
0.0
 11
-68.999999999999361
 21
18.557497180424772
 31
0.0
  0
LINE
  5
1D28
  8
0
 62
     0
 10
-71.999999999999361
 20
16.680029195558419
 30
0.0
 11
-68.999999999999361
 21
19.680029195558411
 31
0.0
  0
LINE
  5
1D29
  8
0
 62
     0
 10
-71.999999999999361
 20
17.802561210692058
 30
0.0
 11
-68.999999999999361
 21
20.802561210692058
 31
0.0
  0
LINE
  5
1D2A
  8
0
 62
     0
 10
-71.999999999999375
 20
18.925093225825702
 30
0.0
 11
-68.999999999999375
 21
21.925093225825702
 31
0.0
  0
LINE
  5
1D2B
  8
0
 62
     0
 10
-71.999999999999375
 20
20.047625240959349
 30
0.0
 11
-68.999999999999361
 21
23.047625240959349
 31
0.0
  0
LINE
  5
1D2C
  8
0
 62
     0
 10
-72.19075511673131
 20
20.979402139361049
 30
0.0
 11
-68.999999999999375
 21
24.170157256092988
 31
0.0
  0
LINE
  5
1D2D
  8
0
 62
     0
 10
-82.17015725609275
 20
10.999999999999609
 30
0.0
 11
-81.999999999999375
 21
11.17015725609299
 31
0.0
  0
LINE
  5
1D2E
  8
0
 62
     0
 10
-73.292689271226394
 20
20.99999999999962
 30
0.0
 11
-68.999999999999375
 21
25.292689271226639
 31
0.0
  0
LINE
  5
1D2F
  8
0
 62
     0
 10
-83.292689271226394
 20
10.999999999999609
 30
0.0
 11
-81.999999999999375
 21
12.29268927122664
 31
0.0
  0
LINE
  5
1D30
  8
0
 62
     0
 10
-74.415221286360037
 20
20.99999999999962
 30
0.0
 11
-69.415221286360037
 21
25.99999999999962
 31
0.0
  0
LINE
  5
1D31
  8
0
 62
     0
 10
-84.415221286360037
 20
10.999999999999609
 30
0.0
 11
-81.999999999999375
 21
13.41522128636028
 31
0.0
  0
LINE
  5
1D32
  8
0
 62
     0
 10
-75.537753301493666
 20
20.99999999999962
 30
0.0
 11
-70.537753301493666
 21
25.99999999999962
 31
0.0
  0
LINE
  5
1D33
  8
0
 62
     0
 10
-84.999999999999375
 20
11.537753301493931
 30
0.0
 11
-81.999999999999375
 21
14.537753301493931
 31
0.0
  0
LINE
  5
1D34
  8
0
 62
     0
 10
-76.660285316627323
 20
20.99999999999962
 30
0.0
 11
-71.660285316627323
 21
25.99999999999962
 31
0.0
  0
LINE
  5
1D35
  8
0
 62
     0
 10
-84.999999999999361
 20
12.660285316627579
 30
0.0
 11
-81.999999999999375
 21
15.66028531662757
 31
0.0
  0
LINE
  5
1D36
  8
0
 62
     0
 10
-77.782817331760967
 20
20.99999999999962
 30
0.0
 11
-72.782817331760967
 21
25.99999999999962
 31
0.0
  0
LINE
  5
1D37
  8
0
 62
     0
 10
-84.999999999999375
 20
13.782817331761221
 30
0.0
 11
-81.999999999999375
 21
16.782817331761208
 31
0.0
  0
LINE
  5
1D38
  8
0
 62
     0
 10
-78.90534934689461
 20
20.99999999999962
 30
0.0
 11
-73.90534934689461
 21
25.99999999999962
 31
0.0
  0
LINE
  5
1D39
  8
0
 62
     0
 10
-84.999999999999361
 20
14.905349346894861
 30
0.0
 11
-81.999999999999375
 21
17.905349346894859
 31
0.0
  0
LINE
  5
1D3A
  8
0
 62
     0
 10
-80.027881362028225
 20
20.99999999999962
 30
0.0
 11
-75.027881362028253
 21
25.999999999999609
 31
0.0
  0
LINE
  5
1D3B
  8
0
 62
     0
 10
-84.999999999999375
 20
16.027881362028499
 30
0.0
 11
-81.999999999999375
 21
19.027881362028499
 31
0.0
  0
LINE
  5
1D3C
  8
0
 62
     0
 10
-81.150413377161897
 20
20.99999999999962
 30
0.0
 11
-76.150413377161897
 21
25.999999999999609
 31
0.0
  0
LINE
  5
1D3D
  8
0
 62
     0
 10
-84.999999999999361
 20
17.150413377162149
 30
0.0
 11
-81.999999999999375
 21
20.150413377162149
 31
0.0
  0
LINE
  5
1D3E
  8
0
 62
     0
 10
-84.999999999999375
 20
18.272945392295789
 30
0.0
 11
-77.272945392295554
 21
25.999999999999609
 31
0.0
  0
LINE
  5
1D3F
  8
0
 62
     0
 10
-84.999999999999361
 20
19.395477407429439
 30
0.0
 11
-78.395477407429183
 21
25.99999999999962
 31
0.0
  0
LINE
  5
1D40
  8
0
 62
     0
 10
-84.999999999999375
 20
20.518009422563079
 30
0.0
 11
-79.518009422562827
 21
25.999999999999609
 31
0.0
  0
LINE
  5
1D41
  8
0
 62
     0
 10
-84.999999999999361
 20
21.640541437696719
 30
0.0
 11
-80.64054143769647
 21
25.999999999999609
 31
0.0
  0
LINE
  5
1D42
  8
0
 62
     0
 10
-84.999999999999375
 20
22.763073452830369
 30
0.0
 11
-81.763073452830113
 21
25.99999999999962
 31
0.0
  0
LINE
  5
1D43
  8
0
 62
     0
 10
-84.999999999999361
 20
23.885605467964009
 30
0.0
 11
-82.885605467963757
 21
25.999999999999609
 31
0.0
  0
LINE
  5
1D44
  8
0
 62
     0
 10
-84.999999999999375
 20
25.008137483097659
 30
0.0
 11
-84.0081374830974
 21
25.99999999999962
 31
0.0
  0
LINE
  5
1D45
  8
0
 62
     0
 10
-84.999999999999375
 20
12.03541901631265
 30
0.0
 11
-83.964580983686346
 21
10.99999999999962
 31
0.0
  0
LINE
  5
1D46
  8
0
 62
     0
 10
-84.999999999999375
 20
13.15795103144629
 30
0.0
 11
-82.842048968552689
 21
10.999999999999609
 31
0.0
  0
LINE
  5
1D47
  8
0
 62
     0
 10
-84.999999999999375
 20
14.28048304657994
 30
0.0
 11
-81.999999999999375
 21
11.28048304657993
 31
0.0
  0
LINE
  5
1D48
  8
0
 62
     0
 10
-84.999999999999375
 20
15.40301506171358
 30
0.0
 11
-81.999999999999375
 21
12.403015061713569
 31
0.0
  0
LINE
  5
1D49
  8
0
 62
     0
 10
-84.999999999999375
 20
16.525547076847221
 30
0.0
 11
-81.999999999999375
 21
13.52554707684722
 31
0.0
  0
LINE
  5
1D4A
  8
0
 62
     0
 10
-84.999999999999375
 20
17.648079091980868
 30
0.0
 11
-81.999999999999375
 21
14.64807909198087
 31
0.0
  0
LINE
  5
1D4B
  8
0
 62
     0
 10
-84.999999999999375
 20
18.770611107114512
 30
0.0
 11
-81.999999999999375
 21
15.770611107114499
 31
0.0
  0
LINE
  5
1D4C
  8
0
 62
     0
 10
-84.999999999999375
 20
19.893143122248151
 30
0.0
 11
-81.999999999999375
 21
16.893143122248151
 31
0.0
  0
LINE
  5
1D4D
  8
0
 62
     0
 10
-84.999999999999375
 20
21.015675137381798
 30
0.0
 11
-81.999999999999375
 21
18.015675137381798
 31
0.0
  0
LINE
  5
1D4E
  8
0
 62
     0
 10
-84.999999999999375
 20
22.138207152515449
 30
0.0
 11
-81.999999999999375
 21
19.138207152515442
 31
0.0
  0
LINE
  5
1D4F
  8
0
 62
     0
 10
-84.999999999999375
 20
23.260739167649099
 30
0.0
 11
-81.999999999999375
 21
20.260739167649088
 31
0.0
  0
LINE
  5
1D50
  8
0
 62
     0
 10
-71.999999999999375
 20
11.38327118278273
 30
0.0
 11
-71.616728817216256
 21
10.999999999999609
 31
0.0
  0
LINE
  5
1D51
  8
0
 62
     0
 10
-84.999999999999375
 20
24.383271182782732
 30
0.0
 11
-81.616728817216256
 21
20.99999999999962
 31
0.0
  0
LINE
  5
1D52
  8
0
 62
     0
 10
-71.999999999999375
 20
12.50580319791637
 30
0.0
 11
-70.494196802082627
 21
10.99999999999962
 31
0.0
  0
LINE
  5
1D53
  8
0
 62
     0
 10
-84.999999999999375
 20
25.505803197916389
 30
0.0
 11
-80.494196802082612
 21
20.99999999999962
 31
0.0
  0
LINE
  5
1D54
  8
0
 62
     0
 10
-71.999999999999375
 20
13.62833521305002
 30
0.0
 11
-69.371664786948983
 21
10.99999999999962
 31
0.0
  0
LINE
  5
1D55
  8
0
 62
     0
 10
-84.371664786948955
 20
25.999999999999609
 30
0.0
 11
-79.371664786948969
 21
20.999999999999609
 31
0.0
  0
LINE
  5
1D56
  8
0
 62
     0
 10
-71.999999999999375
 20
14.75086722818366
 30
0.0
 11
-68.999999999999375
 21
11.750867228183649
 31
0.0
  0
LINE
  5
1D57
  8
0
 62
     0
 10
-83.249132771815312
 20
25.999999999999609
 30
0.0
 11
-78.24913277181534
 21
20.99999999999962
 31
0.0
  0
LINE
  5
1D58
  8
0
 62
     0
 10
-71.999999999999375
 20
15.8733992433173
 30
0.0
 11
-68.999999999999375
 21
12.8733992433173
 31
0.0
  0
LINE
  5
1D59
  8
0
 62
     0
 10
-82.126600756681682
 20
25.99999999999962
 30
0.0
 11
-77.126600756681682
 21
20.99999999999962
 31
0.0
  0
LINE
  5
1D5A
  8
0
 62
     0
 10
-71.999999999999375
 20
16.995931258450948
 30
0.0
 11
-68.999999999999375
 21
13.99593125845095
 31
0.0
  0
LINE
  5
1D5B
  8
0
 62
     0
 10
-81.004068741548039
 20
25.99999999999962
 30
0.0
 11
-76.004068741548039
 21
20.99999999999962
 31
0.0
  0
LINE
  5
1D5C
  8
0
 62
     0
 10
-71.999999999999375
 20
18.118463273584592
 30
0.0
 11
-68.999999999999375
 21
15.11846327358459
 31
0.0
  0
LINE
  5
1D5D
  8
0
 62
     0
 10
-79.881536726414396
 20
25.999999999999609
 30
0.0
 11
-74.881536726414396
 21
20.999999999999609
 31
0.0
  0
LINE
  5
1D5E
  8
0
 62
     0
 10
-71.999999999999375
 20
19.240995288718231
 30
0.0
 11
-68.999999999999375
 21
16.240995288718231
 31
0.0
  0
LINE
  5
1D5F
  8
0
 62
     0
 10
-78.759004711280753
 20
25.999999999999609
 30
0.0
 11
-73.759004711280753
 21
20.99999999999962
 31
0.0
  0
LINE
  5
1D60
  8
0
 62
     0
 10
-71.999999999999375
 20
20.363527303851878
 30
0.0
 11
-68.999999999999375
 21
17.363527303851878
 31
0.0
  0
LINE
  5
1D61
  8
0
 62
     0
 10
-77.636472696147109
 20
25.99999999999962
 30
0.0
 11
-72.636472696147109
 21
20.99999999999962
 31
0.0
  0
LINE
  5
1D62
  8
0
 62
     0
 10
-76.513940681013466
 20
25.99999999999962
 30
0.0
 11
-68.999999999999375
 21
18.486059318985522
 31
0.0
  0
LINE
  5
1D63
  8
0
 62
     0
 10
-75.391408665879823
 20
25.999999999999609
 30
0.0
 11
-68.999999999999375
 21
19.608591334119161
 31
0.0
  0
LINE
  5
1D64
  8
0
 62
     0
 10
-74.268876650746179
 20
25.99999999999962
 30
0.0
 11
-68.999999999999375
 21
20.731123349252819
 31
0.0
  0
LINE
  5
1D65
  8
0
 62
     0
 10
-73.146344635612536
 20
25.99999999999962
 30
0.0
 11
-68.999999999999375
 21
21.853655364386459
 31
0.0
  0
LINE
  5
1D66
  8
0
 62
     0
 10
-72.023812620478878
 20
25.99999999999962
 30
0.0
 11
-68.999999999999375
 21
22.976187379520098
 31
0.0
  0
LINE
  5
1D67
  8
0
 62
     0
 10
-70.901280605345235
 20
25.99999999999962
 30
0.0
 11
-68.999999999999375
 21
24.098719394653749
 31
0.0
  0
LINE
  5
1D68
  8
0
 62
     0
 10
-69.778748590211606
 20
25.99999999999962
 30
0.0
 11
-68.999999999999375
 21
25.221251409787389
 31
0.0
  0
ENDBLK
  5
1D6A
  8
0
  0
BLOCK
  8
0
  2
*X82
 70
     1
 10
0.0
 20
0.0
 30
0.0
  3
*X82
  1

  0
LINE
  5
1D6C
  8
0
 62
     0
 10
-82.686703172473457
 20
-11.0000000000312
 30
0.0
 11
-82.383642826746609
 21
-10.696939654304339
 31
0.0
  0
LINE
  5
1D6D
  8
0
 62
     0
 10
-83.809235187605253
 20
-11.00000000002934
 30
0.0
 11
-82.703511100033126
 21
-9.8942759124572106
 31
0.0
  0
LINE
  5
1D6E
  8
0
 62
     0
 10
-84.931767202737035
 20
-11.00000000002747
 30
0.0
 11
-83.023379373319614
 21
-9.0916121706100768
 31
0.0
  0
LINE
  5
1D6F
  8
0
 62
     0
 10
-86.054299217868817
 20
-11.00000000002561
 30
0.0
 11
-83.343247646606159
 21
-8.2889484287629571
 31
0.0
  0
LINE
  5
1D70
  8
0
 62
     0
 10
-87.176831233000598
 20
-11.00000000002375
 30
0.0
 11
-83.518049417474288
 21
-7.3412181844974631
 31
0.0
  0
LINE
  5
1D71
  8
0
 62
     0
 10
-88.299363248132366
 20
-11.00000000002189
 30
0.0
 11
-83.64861541385423
 21
-6.3492521657437564
 31
0.0
  0
LINE
  5
1D72
  8
0
 62
     0
 10
-89.421895263264162
 20
-11.00000000002003
 30
0.0
 11
-83.761784635376756
 21
-5.3398893721326166
 31
0.0
  0
LINE
  5
1D73
  8
0
 62
     0
 10
-90.544427278395915
 20
-11.00000000001816
 30
0.0
 11
-83.856730604169144
 21
-4.3123033257913832
 31
0.0
  0
LINE
  5
1D74
  8
0
 62
     0
 10
-91.666959293527725
 20
-11.0000000000163
 30
0.0
 11
-83.932536645080347
 21
-3.2655773515689499
 31
0.0
  0
LINE
  5
1D75
  8
0
 62
     0
 10
-92.668415046783991
 20
-10.87892373813893
 30
0.0
 11
-83.988181896717222
 21
-2.1986905880721599
 31
0.0
  0
LINE
  5
1D76
  8
0
 62
     0
 10
-92.300977157480489
 20
-9.3889538337017822
 30
0.0
 11
-84.022524356228445
 21
-1.1105010324497391
 31
0.0
  0
LINE
  5
1D77
  8
0
 62
     0
 10
-91.982558817055434
 20
-7.9480034781430779
 30
0.0
 11
-84.034280149613835
 21
0.0002751892985273
 31
0.0
  0
LINE
  5
1D78
  8
0
 62
     0
 10
-91.707949990161964
 20
-6.5508626361159719
 30
0.0
 11
-84.021997944811744
 21
1.135089409234225
 31
0.0
  0
LINE
  5
1D79
  8
0
 62
     0
 10
-91.472863846576914
 20
-5.193244477397279
 30
0.0
 11
-83.984027036596444
 21
2.2955923325831971
 31
0.0
  0
LINE
  5
1D7A
  8
0
 62
     0
 10
-91.273722114685825
 20
-3.871570730372532
 30
0.0
 11
-83.91847707384062
 21
3.48367431047265
 31
0.0
  0
LINE
  5
1D7B
  8
0
 62
     0
 10
-91.107500778606408
 20
-2.5828173791594931
 30
0.0
 11
-83.823166580980228
 21
4.7015168184666862
 31
0.0
  0
LINE
  5
1D7C
  8
0
 62
     0
 10
-90.971616576736466
 20
-1.3244011621558931
 30
0.0
 11
-83.695556199812856
 21
5.9516592147677008
 31
0.0
  0
LINE
  5
1D7D
  8
0
 62
     0
 10
-90.8638418294681
 20
-0.0940943997538924
 30
0.0
 11
-83.532660699172112
 21
7.2370867305420878
 31
0.0
  0
LINE
  5
1D7E
  8
0
 62
     0
 10
-90.782239396270697
 20
1.1100400485771471
 30
0.0
 11
-83.276016532801464
 21
8.6162629120463876
 31
0.0
  0
LINE
  5
1D7F
  8
0
 62
     0
 10
-90.725112229572645
 20
2.2896992304088419
 30
0.0
 11
-82.878862034929625
 21
10.13594942505188
 31
0.0
  0
LINE
  5
1D80
  8
0
 62
     0
 10
-90.690963706113507
 20
3.4463797690016369
 30
0.0
 11
-83.137343475115543
 21
10.99999999999959
 31
0.0
  0
LINE
  5
1D81
  8
0
 62
     0
 10
-90.678466044980951
 20
4.5814094452678367
 30
0.0
 11
-84.259875490249186
 21
10.9999999999996
 31
0.0
  0
LINE
  5
1D82
  8
0
 62
     0
 10
-90.686434881807727
 20
5.6959726235747041
 30
0.0
 11
-85.382407505382844
 21
10.999999999999609
 31
0.0
  0
LINE
  5
1D83
  8
0
 62
     0
 10
-90.713808591175706
 20
6.7911309293403681
 30
0.0
 11
-86.504939520516473
 21
10.9999999999996
 31
0.0
  0
LINE
  5
1D84
  8
0
 62
     0
 10
-90.759631315047415
 20
7.8678402206023099
 30
0.0
 11
-87.627471535650145
 21
10.99999999999959
 31
0.0
  0
LINE
  5
1D85
  8
0
 62
     0
 10
-90.823038915313987
 20
8.926964635469389
 30
0.0
 11
-88.750003550783745
 21
10.9999999999996
 31
0.0
  0
LINE
  5
1D86
  8
0
 62
     0
 10
-90.903247256542983
 20
9.9692883093740292
 30
0.0
 11
-89.872535565917417
 21
10.99999999999959
 31
0.0
  0
LINE
  5
1D87
  8
0
 62
     0
 10
-90.999542362674816
 20
10.995525218375841
 30
0.0
 11
-90.995067581051046
 21
10.9999999999996
 31
0.0
  0
LINE
  5
1D88
  8
0
 62
     0
 10
-92.643928602126692
 20
-10.78436258627929
 30
0.0
 11
-92.428291188390972
 21
-11.000000000015021
 31
0.0
  0
LINE
  5
1D89
  8
0
 62
     0
 10
-92.41931228935897
 20
-9.8864468839133863
 30
0.0
 11
-91.305759173255467
 21
-11.000000000016881
 31
0.0
  0
LINE
  5
1D8A
  8
0
 62
     0
 10
-92.206257759421433
 20
-8.9769693987172516
 30
0.0
 11
-90.183227158119948
 21
-11.00000000001876
 31
0.0
  0
LINE
  5
1D8B
  8
0
 62
     0
 10
-92.005094258620545
 20
-8.0556008843845035
 30
0.0
 11
-89.060695142984414
 21
-11.00000000002062
 31
0.0
  0
LINE
  5
1D8C
  8
0
 62
     0
 10
-91.816175563649907
 20
-7.1219875642215049
 30
0.0
 11
-87.938163127848924
 21
-11.00000000002248
 31
0.0
  0
LINE
  5
1D8D
  8
0
 62
     0
 10
-91.639882400579921
 20
-6.175748712157854
 30
0.0
 11
-86.815631112713419
 21
-11.00000000002434
 31
0.0
  0
LINE
  5
1D8E
  8
0
 62
     0
 10
-91.476625191098364
 20
-5.2164739065057608
 30
0.0
 11
-85.693099097577914
 21
-11.000000000026221
 31
0.0
  0
LINE
  5
1D8F
  8
0
 62
     0
 10
-91.326847181573115
 20
-4.2437199008973669
 30
0.0
 11
-84.570567082442409
 21
-11.000000000028081
 31
0.0
  0
LINE
  5
1D90
  8
0
 62
     0
 10
-91.191028022064884
 20
-3.2570070452719402
 30
0.0
 11
-83.448035067306904
 21
-11.00000000002994
 31
0.0
  0
LINE
  5
1D91
  8
0
 62
     0
 10
-91.069687876843901
 20
-2.2558151753592952
 30
0.0
 11
-82.325503052171399
 21
-11.0000000000318
 31
0.0
  0
LINE
  5
1D92
  8
0
 62
     0
 10
-90.963392166091694
 20
-1.2395788709778439
 30
0.0
 11
-82.965089993265664
 21
-9.2378810438038741
 31
0.0
  0
LINE
  5
1D93
  8
0
 62
     0
 10
-90.872757061418469
 20
-0.2076819605174407
 30
0.0
 11
-83.480880366019619
 21
-7.599558655916268
 31
0.0
  0
LINE
  5
1D94
  8
0
 62
     0
 10
-90.798455887100175
 20
0.8405488802979235
 30
0.0
 11
-83.654141609388816
 21
-6.3037653974134491
 31
0.0
  0
LINE
  5
1D95
  8
0
 62
     0
 10
-90.741226616598183
 20
1.905851624929596
 30
0.0
 11
-83.791197785003618
 21
-5.0441772066649833
 31
0.0
  0
LINE
  5
1D96
  8
0
 62
     0
 10
-90.701880702792764
 20
2.9890377262578189
 30
0.0
 11
-83.895176839828707
 21
-3.817666136706257
 31
0.0
  0
LINE
  5
1D97
  8
0
 62
     0
 10
-90.681313544389866
 20
4.0910025829885512
 30
0.0
 11
-83.968731643977364
 21
-2.621579317423957
 31
0.0
  0
LINE
  5
1D98
  8
0
 62
     0
 10
-90.680516975707974
 20
5.2127380294402954
 30
0.0
 11
-84.014135269779004
 21
-1.453643676488674
 31
0.0
  0
LINE
  5
1D99
  8
0
 62
     0
 10
-90.700594280472146
 20
6.3553473493381034
 30
0.0
 11
-84.033352929343479
 21
-0.3118940017905345
 31
0.0
  0
LINE
  5
1D9A
  8
0
 62
     0
 10
-90.742778383858365
 20
7.5200634678579732
 30
0.0
 11
-84.028097209067568
 21
0.8053822930671898
 31
0.0
  0
LINE
  5
1D9B
  8
0
 62
     0
 10
-90.808454087810446
 20
8.7082711869436977
 30
0.0
 11
-83.999871115660099
 21
1.899688214793364
 31
0.0
  0
LINE
  5
1D9C
  8
0
 62
     0
 10
-90.899185507981926
 20
9.9215346222488332
 30
0.0
 11
-83.950002072189264
 21
2.972351186456172
 31
0.0
  0
LINE
  5
1D9D
  8
0
 62
     0
 10
-90.855118870599057
 20
10.999999999999609
 30
0.0
 11
-83.879669089202579
 21
4.0245502186031166
 31
0.0
  0
LINE
  5
1D9E
  8
0
 62
     0
 10
-89.732586855465428
 20
10.999999999999609
 30
0.0
 11
-83.789924716347656
 21
5.0573378608818373
 31
0.0
  0
LINE
  5
1D9F
  8
0
 62
     0
 10
-88.610054840331756
 20
10.9999999999996
 30
0.0
 11
-83.681712951358122
 21
6.071658111025946
 31
0.0
  0
LINE
  5
1DA0
  8
0
 62
     0
 10
-87.487522825198127
 20
10.9999999999996
 30
0.0
 11
-83.555883981597688
 21
7.0683611563991633
 31
0.0
  0
LINE
  5
1DA1
  8
0
 62
     0
 10
-86.364990810064484
 20
10.99999999999959
 30
0.0
 11
-83.413206417591283
 21
8.0482156075264086
 31
0.0
  0
LINE
  5
1DA2
  8
0
 62
     0
 10
-85.242458794930855
 20
10.9999999999996
 30
0.0
 11
-83.189556301580339
 21
8.9470975066491132
 31
0.0
  0
LINE
  5
1DA3
  8
0
 62
     0
 10
-84.119926779797197
 20
10.9999999999996
 30
0.0
 11
-82.956976428609337
 21
9.8370496488117425
 31
0.0
  0
LINE
  5
1DA4
  8
0
 62
     0
 10
-82.997394764663554
 20
10.9999999999996
 30
0.0
 11
-82.724396555638336
 21
10.727001790974381
 31
0.0
  0
ENDBLK
  5
1DA6
  8
0
  0
BLOCK
  8
0
  2
*X83
 70
     1
 10
0.0
 20
0.0
 30
0.0
  3
*X83
  1

  0
LINE
  5
1DA8
  8
0
 62
     0
 10
-82.686703172473457
 20
-11.0000000000312
 30
0.0
 11
-82.383642826746609
 21
-10.696939654304339
 31
0.0
  0
LINE
  5
1DA9
  8
0
 62
     0
 10
-83.809235187605253
 20
-11.00000000002934
 30
0.0
 11
-82.703511100033126
 21
-9.8942759124572106
 31
0.0
  0
LINE
  5
1DAA
  8
0
 62
     0
 10
-84.931767202737035
 20
-11.00000000002747
 30
0.0
 11
-83.023379373319614
 21
-9.0916121706100768
 31
0.0
  0
LINE
  5
1DAB
  8
0
 62
     0
 10
-86.054299217868817
 20
-11.00000000002561
 30
0.0
 11
-83.343247646606159
 21
-8.2889484287629571
 31
0.0
  0
LINE
  5
1DAC
  8
0
 62
     0
 10
-87.176831233000598
 20
-11.00000000002375
 30
0.0
 11
-83.518049417474288
 21
-7.3412181844974631
 31
0.0
  0
LINE
  5
1DAD
  8
0
 62
     0
 10
-88.299363248132366
 20
-11.00000000002189
 30
0.0
 11
-83.64861541385423
 21
-6.3492521657437564
 31
0.0
  0
LINE
  5
1DAE
  8
0
 62
     0
 10
-89.421895263264162
 20
-11.00000000002003
 30
0.0
 11
-83.761784635376756
 21
-5.3398893721326166
 31
0.0
  0
LINE
  5
1DAF
  8
0
 62
     0
 10
-90.544427278395915
 20
-11.00000000001816
 30
0.0
 11
-83.856730604169144
 21
-4.3123033257913832
 31
0.0
  0
LINE
  5
1DB0
  8
0
 62
     0
 10
-91.666959293527725
 20
-11.0000000000163
 30
0.0
 11
-83.932536645080347
 21
-3.2655773515689499
 31
0.0
  0
LINE
  5
1DB1
  8
0
 62
     0
 10
-92.668415046783991
 20
-10.87892373813893
 30
0.0
 11
-83.988181896717222
 21
-2.1986905880721599
 31
0.0
  0
LINE
  5
1DB2
  8
0
 62
     0
 10
-92.300977157480489
 20
-9.3889538337017822
 30
0.0
 11
-84.022524356228445
 21
-1.1105010324497391
 31
0.0
  0
LINE
  5
1DB3
  8
0
 62
     0
 10
-91.982558817055434
 20
-7.9480034781430779
 30
0.0
 11
-84.034280149613835
 21
0.0002751892985273
 31
0.0
  0
LINE
  5
1DB4
  8
0
 62
     0
 10
-91.707949990161964
 20
-6.5508626361159719
 30
0.0
 11
-84.021997944811744
 21
1.135089409234225
 31
0.0
  0
LINE
  5
1DB5
  8
0
 62
     0
 10
-91.472863846576914
 20
-5.193244477397279
 30
0.0
 11
-83.984027036596444
 21
2.2955923325831971
 31
0.0
  0
LINE
  5
1DB6
  8
0
 62
     0
 10
-91.273722114685825
 20
-3.871570730372532
 30
0.0
 11
-83.91847707384062
 21
3.48367431047265
 31
0.0
  0
LINE
  5
1DB7
  8
0
 62
     0
 10
-91.107500778606408
 20
-2.5828173791594931
 30
0.0
 11
-83.823166580980228
 21
4.7015168184666862
 31
0.0
  0
LINE
  5
1DB8
  8
0
 62
     0
 10
-90.971616576736466
 20
-1.3244011621558931
 30
0.0
 11
-83.695556199812856
 21
5.9516592147677008
 31
0.0
  0
LINE
  5
1DB9
  8
0
 62
     0
 10
-90.8638418294681
 20
-0.0940943997538924
 30
0.0
 11
-83.532660699172112
 21
7.2370867305420878
 31
0.0
  0
LINE
  5
1DBA
  8
0
 62
     0
 10
-90.782239396270697
 20
1.1100400485771471
 30
0.0
 11
-83.276016532801464
 21
8.6162629120463876
 31
0.0
  0
LINE
  5
1DBB
  8
0
 62
     0
 10
-90.725112229572645
 20
2.2896992304088419
 30
0.0
 11
-82.878862034929625
 21
10.13594942505188
 31
0.0
  0
LINE
  5
1DBC
  8
0
 62
     0
 10
-90.690963706113507
 20
3.4463797690016369
 30
0.0
 11
-83.137343475115543
 21
10.99999999999959
 31
0.0
  0
LINE
  5
1DBD
  8
0
 62
     0
 10
-90.678466044980951
 20
4.5814094452678367
 30
0.0
 11
-84.259875490249186
 21
10.9999999999996
 31
0.0
  0
LINE
  5
1DBE
  8
0
 62
     0
 10
-90.686434881807727
 20
5.6959726235747041
 30
0.0
 11
-85.382407505382844
 21
10.999999999999609
 31
0.0
  0
LINE
  5
1DBF
  8
0
 62
     0
 10
-90.713808591175706
 20
6.7911309293403681
 30
0.0
 11
-86.504939520516473
 21
10.9999999999996
 31
0.0
  0
LINE
  5
1DC0
  8
0
 62
     0
 10
-90.759631315047415
 20
7.8678402206023099
 30
0.0
 11
-87.627471535650145
 21
10.99999999999959
 31
0.0
  0
LINE
  5
1DC1
  8
0
 62
     0
 10
-90.823038915313987
 20
8.926964635469389
 30
0.0
 11
-88.750003550783745
 21
10.9999999999996
 31
0.0
  0
LINE
  5
1DC2
  8
0
 62
     0
 10
-90.903247256542983
 20
9.9692883093740292
 30
0.0
 11
-89.872535565917417
 21
10.99999999999959
 31
0.0
  0
LINE
  5
1DC3
  8
0
 62
     0
 10
-90.999542362674816
 20
10.995525218375841
 30
0.0
 11
-90.995067581051046
 21
10.9999999999996
 31
0.0
  0
LINE
  5
1DC4
  8
0
 62
     0
 10
-92.643928602126692
 20
-10.78436258627929
 30
0.0
 11
-92.428291188390972
 21
-11.000000000015021
 31
0.0
  0
LINE
  5
1DC5
  8
0
 62
     0
 10
-92.41931228935897
 20
-9.8864468839133863
 30
0.0
 11
-91.305759173255467
 21
-11.000000000016881
 31
0.0
  0
LINE
  5
1DC6
  8
0
 62
     0
 10
-92.206257759421433
 20
-8.9769693987172516
 30
0.0
 11
-90.183227158119948
 21
-11.00000000001876
 31
0.0
  0
LINE
  5
1DC7
  8
0
 62
     0
 10
-92.005094258620545
 20
-8.0556008843845035
 30
0.0
 11
-89.060695142984414
 21
-11.00000000002062
 31
0.0
  0
LINE
  5
1DC8
  8
0
 62
     0
 10
-91.816175563649907
 20
-7.1219875642215049
 30
0.0
 11
-87.938163127848924
 21
-11.00000000002248
 31
0.0
  0
LINE
  5
1DC9
  8
0
 62
     0
 10
-91.639882400579921
 20
-6.175748712157854
 30
0.0
 11
-86.815631112713419
 21
-11.00000000002434
 31
0.0
  0
LINE
  5
1DCA
  8
0
 62
     0
 10
-91.476625191098364
 20
-5.2164739065057608
 30
0.0
 11
-85.693099097577914
 21
-11.000000000026221
 31
0.0
  0
LINE
  5
1DCB
  8
0
 62
     0
 10
-91.326847181573115
 20
-4.2437199008973669
 30
0.0
 11
-84.570567082442409
 21
-11.000000000028081
 31
0.0
  0
LINE
  5
1DCC
  8
0
 62
     0
 10
-91.191028022064884
 20
-3.2570070452719402
 30
0.0
 11
-83.448035067306904
 21
-11.00000000002994
 31
0.0
  0
LINE
  5
1DCD
  8
0
 62
     0
 10
-91.069687876843901
 20
-2.2558151753592952
 30
0.0
 11
-82.325503052171399
 21
-11.0000000000318
 31
0.0
  0
LINE
  5
1DCE
  8
0
 62
     0
 10
-90.963392166091694
 20
-1.2395788709778439
 30
0.0
 11
-82.965089993265664
 21
-9.2378810438038741
 31
0.0
  0
LINE
  5
1DCF
  8
0
 62
     0
 10
-90.872757061418469
 20
-0.2076819605174407
 30
0.0
 11
-83.480880366019619
 21
-7.599558655916268
 31
0.0
  0
LINE
  5
1DD0
  8
0
 62
     0
 10
-90.798455887100175
 20
0.8405488802979235
 30
0.0
 11
-83.654141609388816
 21
-6.3037653974134491
 31
0.0
  0
LINE
  5
1DD1
  8
0
 62
     0
 10
-90.741226616598183
 20
1.905851624929596
 30
0.0
 11
-83.791197785003618
 21
-5.0441772066649833
 31
0.0
  0
LINE
  5
1DD2
  8
0
 62
     0
 10
-90.701880702792764
 20
2.9890377262578189
 30
0.0
 11
-83.895176839828707
 21
-3.817666136706257
 31
0.0
  0
LINE
  5
1DD3
  8
0
 62
     0
 10
-90.681313544389866
 20
4.0910025829885512
 30
0.0
 11
-83.968731643977364
 21
-2.621579317423957
 31
0.0
  0
LINE
  5
1DD4
  8
0
 62
     0
 10
-90.680516975707974
 20
5.2127380294402954
 30
0.0
 11
-84.014135269779004
 21
-1.453643676488674
 31
0.0
  0
LINE
  5
1DD5
  8
0
 62
     0
 10
-90.700594280472146
 20
6.3553473493381034
 30
0.0
 11
-84.033352929343479
 21
-0.3118940017905345
 31
0.0
  0
LINE
  5
1DD6
  8
0
 62
     0
 10
-90.742778383858365
 20
7.5200634678579732
 30
0.0
 11
-84.028097209067568
 21
0.8053822930671898
 31
0.0
  0
LINE
  5
1DD7
  8
0
 62
     0
 10
-90.808454087810446
 20
8.7082711869436977
 30
0.0
 11
-83.999871115660099
 21
1.899688214793364
 31
0.0
  0
LINE
  5
1DD8
  8
0
 62
     0
 10
-90.899185507981926
 20
9.9215346222488332
 30
0.0
 11
-83.950002072189264
 21
2.972351186456172
 31
0.0
  0
LINE
  5
1DD9
  8
0
 62
     0
 10
-90.855118870599057
 20
10.999999999999609
 30
0.0
 11
-83.879669089202579
 21
4.0245502186031166
 31
0.0
  0
LINE
  5
1DDA
  8
0
 62
     0
 10
-89.732586855465428
 20
10.999999999999609
 30
0.0
 11
-83.789924716347656
 21
5.0573378608818373
 31
0.0
  0
LINE
  5
1DDB
  8
0
 62
     0
 10
-88.610054840331756
 20
10.9999999999996
 30
0.0
 11
-83.681712951358122
 21
6.071658111025946
 31
0.0
  0
LINE
  5
1DDC
  8
0
 62
     0
 10
-87.487522825198127
 20
10.9999999999996
 30
0.0
 11
-83.555883981597688
 21
7.0683611563991633
 31
0.0
  0
LINE
  5
1DDD
  8
0
 62
     0
 10
-86.364990810064484
 20
10.99999999999959
 30
0.0
 11
-83.413206417591283
 21
8.0482156075264086
 31
0.0
  0
LINE
  5
1DDE
  8
0
 62
     0
 10
-85.242458794930855
 20
10.9999999999996
 30
0.0
 11
-83.189556301580339
 21
8.9470975066491132
 31
0.0
  0
LINE
  5
1DDF
  8
0
 62
     0
 10
-84.119926779797197
 20
10.9999999999996
 30
0.0
 11
-82.956976428609337
 21
9.8370496488117425
 31
0.0
  0
LINE
  5
1DE0
  8
0
 62
     0
 10
-82.997394764663554
 20
10.9999999999996
 30
0.0
 11
-82.724396555638336
 21
10.727001790974381
 31
0.0
  0
ENDBLK
  5
1DE2
  8
0
  0
BLOCK
  8
0
  2
*X84
 70
     1
 10
0.0
 20
0.0
 30
0.0
  3
*X84
  1

  0
LINE
  5
1DE4
  8
0
 62
     0
 10
-63.3721232642215
 20
-24.447500000000002
 30
0.0
 11
-41.627876733616027
 21
-24.447500000000002
 31
0.0
  0
LINE
  5
1DE5
  8
0
 62
     0
 10
-63.776585187049797
 20
-23.33625
 30
0.0
 11
-41.223414810787723
 21
-23.33625
 31
0.0
  0
LINE
  5
1DE6
  8
0
 62
     0
 10
-42.947308432911193
 20
-22.225000000000001
 30
0.0
 11
-40.818952887959419
 21
-22.225000000000001
 31
0.0
  0
LINE
  5
1DE7
  8
0
 62
     0
 10
-64.181047109878108
 20
-22.225000000000001
 30
0.0
 11
-62.052691564926299
 21
-22.225000000000001
 31
0.0
  0
LINE
  5
1DE8
  8
0
 62
     0
 10
-39.631136872384978
 20
-22.225000000000001
 30
0.0
 11
-37.499999998918781
 21
-22.225000000000001
 31
0.0
  0
LINE
  5
1DE9
  8
0
 62
     0
 10
-67.499999998918781
 20
-22.225000000000001
 30
0.0
 11
-65.368863125452478
 21
-22.225000000000001
 31
0.0
  0
LINE
  5
1DEA
  8
0
 62
     0
 10
-42.542846510082867
 20
-21.11375
 30
0.0
 11
-37.499999998918753
 21
-21.11375
 31
0.0
  0
LINE
  5
1DEB
  8
0
 62
     0
 10
-67.499999998918781
 20
-21.11375
 30
0.0
 11
-62.45715348775461
 21
-21.11375
 31
0.0
  0
LINE
  5
1DEC
  8
0
 62
     0
 10
-40.260096422327727
 20
-20.002500000000001
 30
0.0
 11
-37.499999998918739
 21
-20.002500000000001
 31
0.0
  0
LINE
  5
1DED
  8
0
 62
     0
 10
-67.499999998918781
 20
-20.002500000000001
 30
0.0
 11
-64.739903575513722
 21
-20.002500000000001
 31
0.0
  0
ENDBLK
  5
1DEF
  8
0
  0
BLOCK
  8
0
  2
*X85
 70
     1
 10
0.0
 20
0.0
 30
0.0
  3
*X85
  1

  0
LINE
  5
1DF1
  8
0
 62
     0
 10
-66.388750149734548
 20
-7.0736521207108618
 30
0.0
 11
-66.388750149734548
 21
-10.87613020762053
 31
0.0
  0
LINE
  5
1DF2
  8
0
 62
     0
 10
-65.27750014973455
 20
-8.106728331474498
 30
0.0
 11
-65.27750014973455
 21
-10.23454972098358
 31
0.0
  0
LINE
  5
1DF3
  8
0
 62
     0
 10
-64.166250149734552
 20
-7.7343456861231177
 30
0.0
 11
-64.166250149734552
 21
-9.9743349342099776
 31
0.0
  0
LINE
  5
1DF4
  8
0
 62
     0
 10
-63.055000149734539
 20
-5.1030948324285408
 30
0.0
 11
-63.055000149734539
 21
-9.8412870711687752
 31
0.0
  0
LINE
  5
1DF5
  8
0
 62
     0
 10
-61.943750149734548
 20
-5.0795952152120547
 30
0.0
 11
-61.943750149734548
 21
-7.4756859217113112
 31
0.0
  0
LINE
  5
1DF6
  8
0
 62
     0
 10
-60.832500149734543
 20
-5.0795952152120591
 30
0.0
 11
-60.832500149734543
 21
-6.879595215212011
 31
0.0
  0
LINE
  5
1DF7
  8
0
 62
     0
 10
-59.721250149734537
 20
-5.0795952152120609
 30
0.0
 11
-59.721250149734537
 21
-6.8795952152120181
 31
0.0
  0
LINE
  5
1DF8
  8
0
 62
     0
 10
-58.610000149734553
 20
-5.0795952152120654
 30
0.0
 11
-58.610000149734553
 21
-6.8795952152120261
 31
0.0
  0
LINE
  5
1DF9
  8
0
 62
     0
 10
-57.498750149734541
 20
-5.079595215212068
 30
0.0
 11
-57.498750149734541
 21
-6.8795952152120332
 31
0.0
  0
LINE
  5
1DFA
  8
0
 62
     0
 10
-56.387500149734549
 20
-5.0795952152120707
 30
0.0
 11
-56.387500149734549
 21
-6.8795952152120403
 31
0.0
  0
LINE
  5
1DFB
  8
0
 62
     0
 10
-55.276250149734551
 20
-5.0795952152120751
 30
0.0
 11
-55.276250149734551
 21
-6.8795952152120492
 31
0.0
  0
LINE
  5
1DFC
  8
0
 62
     0
 10
-54.165000149734553
 20
-5.0795952152120778
 30
0.0
 11
-54.165000149734553
 21
-6.8795952152120554
 31
0.0
  0
LINE
  5
1DFD
  8
0
 62
     0
 10
-53.053750149734547
 20
-5.0795952152120813
 30
0.0
 11
-53.053750149734547
 21
-6.8795952152120616
 31
0.0
  0
LINE
  5
1DFE
  8
0
 62
     0
 10
-51.942500149734549
 20
-5.0795952152120858
 30
0.0
 11
-51.942500149734549
 21
-6.8795952152120643
 31
0.0
  0
LINE
  5
1DFF
  8
0
 62
     0
 10
-50.831250149734537
 20
-5.079595215212092
 30
0.0
 11
-50.831250149734537
 21
-6.8795952152120652
 31
0.0
  0
LINE
  5
1E00
  8
0
 62
     0
 10
-49.720000149734538
 20
-5.0795952152120991
 30
0.0
 11
-49.720000149734538
 21
-6.8795952152120652
 31
0.0
  0
LINE
  5
1E01
  8
0
 62
     0
 10
-48.608750149734547
 20
-5.0795952152121053
 30
0.0
 11
-48.608750149734547
 21
-6.8795952152120661
 31
0.0
  0
LINE
  5
1E02
  8
0
 62
     0
 10
-47.497500149734549
 20
-5.0795952152121107
 30
0.0
 11
-47.497500149734549
 21
-6.8795952152120661
 31
0.0
  0
LINE
  5
1E03
  8
0
 62
     0
 10
-46.386250149734551
 20
-5.0795952152121169
 30
0.0
 11
-46.386250149734551
 21
-6.8795952152120661
 31
0.0
  0
LINE
  5
1E04
  8
0
 62
     0
 10
-45.275000149734552
 20
-5.0795952152121231
 30
0.0
 11
-45.275000149734552
 21
-6.8795952152120661
 31
0.0
  0
LINE
  5
1E05
  8
0
 62
     0
 10
-44.163750149734547
 20
-5.0795952152121311
 30
0.0
 11
-44.163750149734547
 21
-6.879595215212067
 31
0.0
  0
LINE
  5
1E06
  8
0
 62
     0
 10
-43.052500149734549
 20
-5.0795952152121373
 30
0.0
 11
-43.052500149734549
 21
-7.4859881333082869
 31
0.0
  0
LINE
  5
1E07
  8
0
 62
     0
 10
-41.94125014973455
 20
-5.1044613247894821
 30
0.0
 11
-41.94125014973455
 21
-9.8434319267387629
 31
0.0
  0
LINE
  5
1E08
  8
0
 62
     0
 10
-40.830000149734552
 20
-7.7446478977201378
 30
0.0
 11
-40.830000149734552
 21
-9.9743349342101197
 31
0.0
  0
LINE
  5
1E09
  8
0
 62
     0
 10
-39.718750149734547
 20
-8.1041005550305272
 30
0.0
 11
-39.718750149734547
 21
-10.23671461034597
 31
0.0
  0
LINE
  5
1E0A
  8
0
 62
     0
 10
-38.607500149734548
 20
-7.070352299245088
 30
0.0
 11
-38.607500149734548
 21
-10.878295096982971
 31
0.0
  0
ENDBLK
  5
1E0C
  8
0
  0
BLOCK
  8
0
  2
*X86
 70
     1
 10
0.0
 20
0.0
 30
0.0
  3
*X86
  1

  0
LINE
  5
1E54
  8
0
 62
     0
 10
-63.3721232642215
 20
-24.447500000000002
 30
0.0
 11
-41.627876733616027
 21
-24.447500000000002
 31
0.0
  0
LINE
  5
1E55
  8
0
 62
     0
 10
-63.776585187049797
 20
-23.33625
 30
0.0
 11
-41.223414810787723
 21
-23.33625
 31
0.0
  0
LINE
  5
1E56
  8
0
 62
     0
 10
-42.947308432911193
 20
-22.225000000000001
 30
0.0
 11
-40.818952887959419
 21
-22.225000000000001
 31
0.0
  0
LINE
  5
1E57
  8
0
 62
     0
 10
-64.181047109878108
 20
-22.225000000000001
 30
0.0
 11
-62.052691564926299
 21
-22.225000000000001
 31
0.0
  0
LINE
  5
1E58
  8
0
 62
     0
 10
-39.631136872384978
 20
-22.225000000000001
 30
0.0
 11
-37.499999998918781
 21
-22.225000000000001
 31
0.0
  0
LINE
  5
1E59
  8
0
 62
     0
 10
-67.499999998918781
 20
-22.225000000000001
 30
0.0
 11
-65.368863125452478
 21
-22.225000000000001
 31
0.0
  0
LINE
  5
1E5A
  8
0
 62
     0
 10
-42.542846510082867
 20
-21.11375
 30
0.0
 11
-37.499999998918753
 21
-21.11375
 31
0.0
  0
LINE
  5
1E5B
  8
0
 62
     0
 10
-67.499999998918781
 20
-21.11375
 30
0.0
 11
-62.45715348775461
 21
-21.11375
 31
0.0
  0
LINE
  5
1E5C
  8
0
 62
     0
 10
-40.260096422327727
 20
-20.002500000000001
 30
0.0
 11
-37.499999998918739
 21
-20.002500000000001
 31
0.0
  0
LINE
  5
1E5D
  8
0
 62
     0
 10
-67.499999998918781
 20
-20.002500000000001
 30
0.0
 11
-64.739903575513722
 21
-20.002500000000001
 31
0.0
  0
ENDBLK
  5
1E5F
  8
0
  0
BLOCK
  8
0
  2
*X87
 70
     1
 10
0.0
 20
0.0
 30
0.0
  3
*X87
  1

  0
LINE
  5
1E61
  8
0
 62
     0
 10
-66.388750149734548
 20
-7.0736521207108618
 30
0.0
 11
-66.388750149734548
 21
-10.87613020762053
 31
0.0
  0
LINE
  5
1E62
  8
0
 62
     0
 10
-65.27750014973455
 20
-8.106728331474498
 30
0.0
 11
-65.27750014973455
 21
-10.23454972098358
 31
0.0
  0
LINE
  5
1E63
  8
0
 62
     0
 10
-64.166250149734552
 20
-7.7343456861231177
 30
0.0
 11
-64.166250149734552
 21
-9.9743349342099776
 31
0.0
  0
LINE
  5
1E64
  8
0
 62
     0
 10
-63.055000149734539
 20
-5.1030948324285408
 30
0.0
 11
-63.055000149734539
 21
-9.8412870711687752
 31
0.0
  0
LINE
  5
1E65
  8
0
 62
     0
 10
-61.943750149734548
 20
-5.0795952152120547
 30
0.0
 11
-61.943750149734548
 21
-7.4756859217113112
 31
0.0
  0
LINE
  5
1E66
  8
0
 62
     0
 10
-60.832500149734543
 20
-5.0795952152120591
 30
0.0
 11
-60.832500149734543
 21
-6.879595215212011
 31
0.0
  0
LINE
  5
1E67
  8
0
 62
     0
 10
-59.721250149734537
 20
-5.0795952152120609
 30
0.0
 11
-59.721250149734537
 21
-6.8795952152120181
 31
0.0
  0
LINE
  5
1E68
  8
0
 62
     0
 10
-58.610000149734553
 20
-5.0795952152120654
 30
0.0
 11
-58.610000149734553
 21
-6.8795952152120261
 31
0.0
  0
LINE
  5
1E69
  8
0
 62
     0
 10
-57.498750149734541
 20
-5.079595215212068
 30
0.0
 11
-57.498750149734541
 21
-6.8795952152120332
 31
0.0
  0
LINE
  5
1E6A
  8
0
 62
     0
 10
-56.387500149734549
 20
-5.0795952152120707
 30
0.0
 11
-56.387500149734549
 21
-6.8795952152120403
 31
0.0
  0
LINE
  5
1E6B
  8
0
 62
     0
 10
-55.276250149734551
 20
-5.0795952152120751
 30
0.0
 11
-55.276250149734551
 21
-6.8795952152120492
 31
0.0
  0
LINE
  5
1E6C
  8
0
 62
     0
 10
-54.165000149734553
 20
-5.0795952152120778
 30
0.0
 11
-54.165000149734553
 21
-6.8795952152120554
 31
0.0
  0
LINE
  5
1E6D
  8
0
 62
     0
 10
-53.053750149734547
 20
-5.0795952152120813
 30
0.0
 11
-53.053750149734547
 21
-6.8795952152120616
 31
0.0
  0
LINE
  5
1E6E
  8
0
 62
     0
 10
-51.942500149734549
 20
-5.0795952152120858
 30
0.0
 11
-51.942500149734549
 21
-6.8795952152120643
 31
0.0
  0
LINE
  5
1E6F
  8
0
 62
     0
 10
-50.831250149734537
 20
-5.079595215212092
 30
0.0
 11
-50.831250149734537
 21
-6.8795952152120652
 31
0.0
  0
LINE
  5
1E70
  8
0
 62
     0
 10
-49.720000149734538
 20
-5.0795952152120991
 30
0.0
 11
-49.720000149734538
 21
-6.8795952152120652
 31
0.0
  0
LINE
  5
1E71
  8
0
 62
     0
 10
-48.608750149734547
 20
-5.0795952152121053
 30
0.0
 11
-48.608750149734547
 21
-6.8795952152120661
 31
0.0
  0
LINE
  5
1E72
  8
0
 62
     0
 10
-47.497500149734549
 20
-5.0795952152121107
 30
0.0
 11
-47.497500149734549
 21
-6.8795952152120661
 31
0.0
  0
LINE
  5
1E73
  8
0
 62
     0
 10
-46.386250149734551
 20
-5.0795952152121169
 30
0.0
 11
-46.386250149734551
 21
-6.8795952152120661
 31
0.0
  0
LINE
  5
1E74
  8
0
 62
     0
 10
-45.275000149734552
 20
-5.0795952152121231
 30
0.0
 11
-45.275000149734552
 21
-6.8795952152120661
 31
0.0
  0
LINE
  5
1E75
  8
0
 62
     0
 10
-44.163750149734547
 20
-5.0795952152121311
 30
0.0
 11
-44.163750149734547
 21
-6.879595215212067
 31
0.0
  0
LINE
  5
1E76
  8
0
 62
     0
 10
-43.052500149734549
 20
-5.0795952152121373
 30
0.0
 11
-43.052500149734549
 21
-7.4859881333082869
 31
0.0
  0
LINE
  5
1E77
  8
0
 62
     0
 10
-41.94125014973455
 20
-5.1044613247894821
 30
0.0
 11
-41.94125014973455
 21
-9.8434319267387629
 31
0.0
  0
LINE
  5
1E78
  8
0
 62
     0
 10
-40.830000149734552
 20
-7.7446478977201378
 30
0.0
 11
-40.830000149734552
 21
-9.9743349342101197
 31
0.0
  0
LINE
  5
1E79
  8
0
 62
     0
 10
-39.718750149734547
 20
-8.1041005550305272
 30
0.0
 11
-39.718750149734547
 21
-10.23671461034597
 31
0.0
  0
LINE
  5
1E7A
  8
0
 62
     0
 10
-38.607500149734548
 20
-7.070352299245088
 30
0.0
 11
-38.607500149734548
 21
-10.878295096982971
 31
0.0
  0
ENDBLK
  5
1E7C
  8
0
  0
BLOCK
  8
0
  2
*X88
 70
     1
 10
0.0
 20
0.0
 30
0.0
  3
*X88
  1

  0
LINE
  5
1ED7
  8
0
 62
     0
 10
-40.4225040338222
 20
22.109570128551731
 30
0.0
 11
-38.267489994908743
 21
19.954556089638281
 31
0.0
  0
LINE
  5
1ED8
  8
0
 62
     0
 10
-39.942633318595057
 20
22.75223142845822
 30
0.0
 11
-37.110071828622338
 21
19.919669938485491
 31
0.0
  0
LINE
  5
1ED9
  8
0
 62
     0
 10
-39.24169938885764
 20
23.173829513854439
 30
0.0
 11
-36.173716876846207
 21
20.105847001842999
 31
0.0
  0
LINE
  5
1EDA
  8
0
 62
     0
 10
-38.373265649925393
 20
23.427927790055818
 30
0.0
 11
-35.404861734264898
 21
20.45952387439532
 31
0.0
  0
LINE
  5
1EDB
  8
0
 62
     0
 10
-37.317427664699963
 20
23.49462181996401
 30
0.0
 11
-34.823410837976802
 21
21.000604993240849
 31
0.0
  0
LINE
  5
1EDC
  8
0
 62
     0
 10
-35.891816033944799
 20
23.191542204342479
 30
0.0
 11
-34.613331008382453
 21
21.913057178780129
 31
0.0
  0
LINE
  5
1EDD
  8
0
 62
     0
 10
-36.62484816234798
 20
19.989658054542701
 30
0.0
 11
-34.634313982195977
 21
21.980192234694702
 31
0.0
  0
LINE
  5
1EDE
  8
0
 62
     0
 10
-37.828754144530201
 20
19.908284087494049
 30
0.0
 11
-35.062127082003428
 21
22.674911150020868
 31
0.0
  0
LINE
  5
1EDF
  8
0
 62
     0
 10
-38.791649497959213
 20
20.06792074919872
 30
0.0
 11
-35.736520610087673
 21
23.12304963707021
 31
0.0
  0
LINE
  5
1EE0
  8
0
 62
     0
 10
-39.584660980640713
 20
20.39744128165086
 30
0.0
 11
-36.58079800891943
 21
23.401304253372128
 31
0.0
  0
LINE
  5
1EE1
  8
0
 62
     0
 10
-40.197750230948429
 20
20.906884046476758
 30
0.0
 11
-37.604997640124971
 21
23.499636637300171
 31
0.0
  0
LINE
  5
1EE2
  8
0
 62
     0
 10
-40.499654870843301
 20
21.727511421715569
 30
0.0
 11
-38.940381881743349
 21
23.286784410815471
 31
0.0
  0
ENDBLK
  5
1EE4
  8
0
  0
BLOCK
  8
0
  2
*X89
 70
     1
 10
0.0
 20
0.0
 30
0.0
  3
*X89
  1

  0
LINE
  5
1F2A
  8
0
 62
     0
 10
-40.4225040338222
 20
22.109570128551731
 30
0.0
 11
-38.267489994908743
 21
19.954556089638281
 31
0.0
  0
LINE
  5
1F2B
  8
0
 62
     0
 10
-39.942633318595057
 20
22.75223142845822
 30
0.0
 11
-37.110071828622338
 21
19.919669938485491
 31
0.0
  0
LINE
  5
1F2C
  8
0
 62
     0
 10
-39.24169938885764
 20
23.173829513854439
 30
0.0
 11
-36.173716876846207
 21
20.105847001842999
 31
0.0
  0
LINE
  5
1F2D
  8
0
 62
     0
 10
-38.373265649925393
 20
23.427927790055818
 30
0.0
 11
-35.404861734264898
 21
20.45952387439532
 31
0.0
  0
LINE
  5
1F2E
  8
0
 62
     0
 10
-37.317427664699963
 20
23.49462181996401
 30
0.0
 11
-34.823410837976802
 21
21.000604993240849
 31
0.0
  0
LINE
  5
1F2F
  8
0
 62
     0
 10
-35.891816033944799
 20
23.191542204342479
 30
0.0
 11
-34.613331008382453
 21
21.913057178780129
 31
0.0
  0
LINE
  5
1F30
  8
0
 62
     0
 10
-36.62484816234798
 20
19.989658054542701
 30
0.0
 11
-34.634313982195977
 21
21.980192234694702
 31
0.0
  0
LINE
  5
1F31
  8
0
 62
     0
 10
-37.828754144530201
 20
19.908284087494049
 30
0.0
 11
-35.062127082003428
 21
22.674911150020868
 31
0.0
  0
LINE
  5
1F32
  8
0
 62
     0
 10
-38.791649497959213
 20
20.06792074919872
 30
0.0
 11
-35.736520610087673
 21
23.12304963707021
 31
0.0
  0
LINE
  5
1F33
  8
0
 62
     0
 10
-39.584660980640713
 20
20.39744128165086
 30
0.0
 11
-36.58079800891943
 21
23.401304253372128
 31
0.0
  0
LINE
  5
1F34
  8
0
 62
     0
 10
-40.197750230948429
 20
20.906884046476758
 30
0.0
 11
-37.604997640124971
 21
23.499636637300171
 31
0.0
  0
LINE
  5
1F35
  8
0
 62
     0
 10
-40.499654870843301
 20
21.727511421715569
 30
0.0
 11
-38.940381881743349
 21
23.286784410815471
 31
0.0
  0
ENDBLK
  5
1F37
  8
0
  0
ENDSEC
  0
SECTION
  2
ENTITIES
  0
POLYLINE
  5
ED0
  8
SAPA_ANSLUTNING
 66
     1
 10
0.0
 20
0.0
 30
0.0
  0
VERTEX
  5
160F
  8
SAPA_ANSLUTNING
 10
-152.33078550257889
 20
-46.868799024475393
 30
0.0
  0
VERTEX
  5
1610
  8
SAPA_ANSLUTNING
 10
-132.55300818718359
 20
-42.680973856848709
 30
0.0
  0
VERTEX
  5
1611
  8
SAPA_ANSLUTNING
 10
-120.3479548987133
 20
-52.188889722754027
 30
0.0
  0
VERTEX
  5
1612
  8
SAPA_ANSLUTNING
 10
-102.47253732342961
 20
-48.332344514503873
 30
0.0
  0
SEQEND
  5
1613
  8
SAPA_ANSLUTNING
  0
LINE
  5
ED1
  8
SAPA_ANSLUTNING
 10
-32.783160070159497
 20
-40.392352644353537
 30
0.0
 11
61.056759434175788
 21
-40.392352644353537
 31
0.0
  0
ARC
  5
ED2
  8
SAPA_ANSLUTNING
 10
56.345028206697421
 20
-33.108153284584382
 30
0.0
 40
14.76962643580225
 50
146.70329074687709
 51
209.78717132801009
  0
ARC
  5
ED3
  8
SAPA_ANSLUTNING
 10
24.423052085403029
 20
-32.786859433643151
 30
0.0
 40
12.93723559613799
 50
323.60653541113101
 51
37.226406989329298
  0
ARC
  5
ED4
  8
SAPA_ANSLUTNING
 10
37.230821022653593
 20
-33.212492155289858
 30
0.0
 40
12.030828931734179
 50
136.6917593956739
 51
217.05992870659031
  0
INSERT
  5
ED5
  8
SAPA_ANSLUTNING
  6
CONTINUOUS
  2
*X78
 10
0.0
 20
0.0
 30
0.0
1001
ACAD
1000
HATCH
1002
{
1070
    19
1000
HEX
1040
0.25
1040
0.0
1000
R14_HATCH_DATA
1000
ED5
1011
1.0
1021
0.0
1031
0.0
1021
0.0
1031
0.0
1011
0.0
1021
0.0
1031
0.0
1021
1.0
1031
0.0
1011
0.0
1021
0.0
1031
0.0
1021
0.0
1031
1.0
1040
0.0
1010
0.0
1020
0.0
1030
1.0
1000
HEX
1070
     0
1070
     0
1071
        1
1071
        7
1070
     1
1070
     1
1071
       16
1040
29.86810411894977
1040
-28.343713330612449
1040
-0.754764512512243
1040
30.330524021658011
1040
-28.211888503916342
1040
0.0
1040
34.988746992423337
1040
-25.321060347025441
1040
0.0076814917560647
1040
34.754406829483763
1040
-25.000000373538359
1040
0.0
1040
28.43901668456034
1040
-25.000000373538359
1040
0.3628247603846906
1040
27.587222025629231
1040
-40.405672478988549
1040
0.0
1040
32.394499277793798
1040
-40.405672478988549
1040
0.0
1040
27.18851562691545
1040
-32.846911740143142
1040
-0.6041705852269828
1040
26.796710795305462
1040
-32.641020045963621
1040
-1.0
1040
27.296710795305462
1040
-32.641020045963621
1040
-0.2467502012680361
1040
27.18851562691545
1040
-32.846911740143142
1040
0.0
1040
32.394499277793798
1040
-40.405672478988549
1040
0.0
1040
34.878947678323371
1040
-40.405672478988549
1040
0.3216652329132922
1040
34.988746992423337
1040
-25.321060347025441
1040
0.0
1040
30.330524021658011
1040
-28.211888503916342
1040
-0.1397540728337868
1040
30.36810411894978
1040
-28.343713330612449
1040
-1.0
1071
        0
1070
     0
1070
     1
1040
0.0
1040
0.25
1070
     0
1070
     3
1040
0.0
1040
0.0000000000001279
1040
-0.0000007470762355
1040
0.0
1040
1.374814999999999
1070
     2
1040
0.79375
1040
-1.587499999999999
1040
2.0943951023931939
1040
0.0000000000001279
1040
-0.0000007470762355
1040
-1.190624715503902
1040
-0.6874074999999996
1070
     2
1040
0.7937499999999995
1040
-1.587499999999999
1040
1.047197551196597
1040
0.7937500000001166
1040
-0.0000007470762355
1040
-1.190624715503902
1040
0.6874075000000001
1070
     2
1040
0.79375
1040
-1.587499999999999
1040
0.0622435331576015
1071
        1
1040
29.828145939864509
1040
-31.301231252675969
1040
0.0
1002
}
  0
INSERT
  5
ED6
  8
SAPA_ANSLUTNING
  6
CONTINUOUS
  2
*X79
 10
0.0
 20
0.0
 30
0.0
1001
ACAD
1000
HATCH
1002
{
1070
    19
1000
ANSI37
1040
0.25
1040
0.0
1000
R14_HATCH_DATA
1000
ED6
1011
1.0
1021
0.0
1031
0.0
1021
0.0
1031
0.0
1011
0.0
1021
0.0
1031
0.0
1021
1.0
1031
0.0
1011
0.0
1021
0.0
1031
0.0
1021
0.0
1031
1.0
1040
0.0
1010
0.0
1020
0.0
1030
1.0
1000
ANSI37
1070
     0
1070
     0
1071
        1
1071
        7
1070
     1
1070
     1
1071
        5
1040
34.878947678323371
1040
-40.405672478988549
1040
0.0
1040
43.504152899287433
1040
-40.405672478988549
1040
-0.2815885454835446
1040
43.999999999996369
1040
-25.000000373538359
1040
0.0
1040
35.506096645298847
1040
-25.000000373538359
1040
0.0
1040
34.988746992423337
1040
-25.321060347025441
1040
-0.3216652329132927
1071
        0
1070
     0
1070
     1
1040
0.0
1040
0.25
1070
     0
1070
     2
1040
0.7853981633974483
1040
0.0000000000001279
1040
-0.0000007470762355
1040
-0.5612660075668221
1040
0.5612660075668221
1070
     0
1040
2.3561944901923439
1040
0.0000000000001279
1040
-0.0000007470762355
1040
-0.5612660075668221
1040
-0.5612660075668221
1070
     0
1040
0.0622435331576015
1071
        1
1040
39.357263134785413
1040
-30.180847297513431
1040
0.0
1002
}
  0
POLYLINE
  5
ED7
  8
SAPA_ANSLUTNING
 66
     1
 10
0.0
 20
0.0
 30
0.0
  0
VERTEX
  5
16E5
  8
SAPA_ANSLUTNING
 10
24.503154159254152
 20
-26.98668053890044
 30
0.0
  0
VERTEX
  5
16E6
  8
SAPA_ANSLUTNING
 10
24.503154159249799
 20
-38.429551727732139
 30
0.0
 42
-0.9999999999999998
  0
VERTEX
  5
16E7
  8
SAPA_ANSLUTNING
 10
20.503154159250141
 20
-38.429551727732139
 30
0.0
  0
VERTEX
  5
16E8
  8
SAPA_ANSLUTNING
 10
20.503154159254152
 20
-26.986680538897829
 30
0.0
 42
0.9999999999999998
  0
VERTEX
  5
16E9
  8
SAPA_ANSLUTNING
 10
16.50315415925472
 20
-26.986680538897719
 30
0.0
  0
VERTEX
  5
16EA
  8
SAPA_ANSLUTNING
 10
16.503154159250261
 20
-38.429551727729297
 30
0.0
 42
-0.9999999999999998
  0
VERTEX
  5
16EB
  8
SAPA_ANSLUTNING
 10
12.503154159250601
 20
-38.429551727729297
 30
0.0
  0
VERTEX
  5
16EC
  8
SAPA_ANSLUTNING
 10
12.50315415925483
 20
-26.98668053889681
 30
0.0
 42
0.9999999999999998
  0
VERTEX
  5
16ED
  8
SAPA_ANSLUTNING
 10
8.5031541592551747
 20
-26.98668053889681
 30
0.0
  0
VERTEX
  5
16EE
  8
SAPA_ANSLUTNING
 10
8.5031541592548052
 20
-38.429551727729297
 30
0.0
 42
-0.9999999999999998
  0
VERTEX
  5
16EF
  8
SAPA_ANSLUTNING
 10
4.5031541592551463
 20
-38.429551727729297
 30
0.0
  0
VERTEX
  5
16F0
  8
SAPA_ANSLUTNING
 10
4.5031541592589264
 20
-26.986680538892141
 30
0.0
 42
0.9999999999999998
  0
VERTEX
  5
16F1
  8
SAPA_ANSLUTNING
 10
0.5031541592594948
 20
-26.986680538892031
 30
0.0
  0
VERTEX
  5
16F2
  8
SAPA_ANSLUTNING
 10
0.5031541592550611
 20
-38.42955172772362
 30
0.0
 42
-0.9999999999999998
  0
VERTEX
  5
16F3
  8
SAPA_ANSLUTNING
 10
-3.496845840744597
 20
-38.42955172772362
 30
0.0
  0
VERTEX
  5
16F4
  8
SAPA_ANSLUTNING
 10
-3.4968458407403911
 20
-26.986680538891111
 30
0.0
 42
0.9999999999999998
  0
VERTEX
  5
16F5
  8
SAPA_ANSLUTNING
 10
-7.4968458407400496
 20
-26.986680538891111
 30
0.0
  0
VERTEX
  5
16F6
  8
SAPA_ANSLUTNING
 10
-7.4968458407403906
 20
-28.891030426357769
 30
0.0
  0
VERTEX
  5
16F7
  8
SAPA_ANSLUTNING
 10
-7.4968458407403906
 20
-38.42955172772362
 30
0.0
 42
-0.9999999999999998
  0
VERTEX
  5
16F8
  8
SAPA_ANSLUTNING
 10
-11.49684584074005
 20
-38.42955172772362
 30
0.0
  0
VERTEX
  5
16F9
  8
SAPA_ANSLUTNING
 10
-11.49684584073573
 20
-33.675969649876222
 30
0.0
 42
0.9999999999999998
  0
VERTEX
  5
16FA
  8
SAPA_ANSLUTNING
 10
-15.496845840735499
 20
-33.675969649876222
 30
0.0
  0
VERTEX
  5
16FB
  8
SAPA_ANSLUTNING
 10
-15.49684584073573
 20
-38.429551727723563
 30
0.0
 42
-0.9999999999999998
  0
VERTEX
  5
16FC
  8
SAPA_ANSLUTNING
 10
-19.49684584073562
 20
-38.429551727723563
 30
0.0
  0
VERTEX
  5
16FD
  8
SAPA_ANSLUTNING
 10
-19.49684584073141
 20
-33.675969649876272
 30
0.0
 42
0.9999999999999998
  0
VERTEX
  5
16FE
  8
SAPA_ANSLUTNING
 10
-23.496845840731211
 20
-33.67596964987623
 30
0.0
  0
VERTEX
  5
16FF
  8
SAPA_ANSLUTNING
 10
-23.496845840731179
 20
-38.429551727723563
 30
0.0
 42
-0.9999999999999998
  0
VERTEX
  5
1700
  8
SAPA_ANSLUTNING
 10
-27.496845840731069
 20
-38.429551727723563
 30
0.0
  0
VERTEX
  5
1701
  8
SAPA_ANSLUTNING
 10
-27.496845840726639
 20
-33.675969649876158
 30
0.0
 42
0.9999999999999998
  0
VERTEX
  5
1702
  8
SAPA_ANSLUTNING
 10
-31.496845840726412
 20
-33.675969649876158
 30
0.0
  0
VERTEX
  5
1703
  8
SAPA_ANSLUTNING
 10
-31.496845840726749
 20
-38.429551727723499
 30
0.0
 42
-0.4142135623731617
  0
VERTEX
  5
1704
  8
SAPA_ANSLUTNING
 10
-33.496845840727012
 20
-40.429551727723378
 30
0.0
  0
SEQEND
  5
1705
  8
SAPA_ANSLUTNING
  0
LINE
  5
ED8
  8
SAPA_ANSLUTNING
 10
4.5031541592548328
 20
-29.006000226575459
 30
0.0
 11
4.5031541592589264
 21
-26.98668053889152
 31
0.0
  0
POLYLINE
  5
ED9
  8
SAPA_ANSLUTNING
 66
     1
 10
0.0
 20
0.0
 30
0.0
  0
VERTEX
  5
1706
  8
SAPA_ANSLUTNING
 10
27.43616435639483
 20
-25.217643520624499
 30
0.0
 42
0.5655052335197573
  0
VERTEX
  5
1707
  8
SAPA_ANSLUTNING
 10
24.503154159254152
 20
-26.991783978036189
 30
0.0
  0
SEQEND
  5
1708
  8
SAPA_ANSLUTNING
  0
POLYLINE
  5
EDA
  8
SAPA_ANSLUTNING
 66
     1
 10
0.0
 20
0.0
 30
0.0
 70
     1
  0
VERTEX
  5
1709
  8
SAPA_ANSLUTNING
 10
-165.08267230285489
 20
-75.301205434155236
 30
0.0
  0
VERTEX
  5
170A
  8
SAPA_ANSLUTNING
 10
-166.08267230285489
 20
-75.301205434155236
 30
0.0
  0
VERTEX
  5
170B
  8
SAPA_ANSLUTNING
 10
-166.08267230285489
 20
-87.523670202036669
 30
0.0
 42
-0.9999999999999998
  0
VERTEX
  5
170C
  8
SAPA_ANSLUTNING
 10
-167.08267230285489
 20
-87.523670202036669
 30
0.0
  0
VERTEX
  5
170D
  8
SAPA_ANSLUTNING
 10
-167.08267230285489
 20
-49.890806118461981
 30
0.0
  0
VERTEX
  5
170E
  8
SAPA_ANSLUTNING
 10
-90.917687232026921
 20
-33.950013152819032
 30
0.0
 42
0.3549979267869159
  0
VERTEX
  5
170F
  8
SAPA_ANSLUTNING
 10
-89.724968749069248
 20
-32.481824449251206
 30
0.0
  0
VERTEX
  5
1710
  8
SAPA_ANSLUTNING
 10
-89.724968749069248
 20
-13.681786431325239
 30
0.0
  0
VERTEX
  5
1711
  8
SAPA_ANSLUTNING
 10
-90.724968749069234
 20
-13.681786431325239
 30
0.0
  0
VERTEX
  5
1712
  8
SAPA_ANSLUTNING
 10
-90.724968749069234
 20
-32.47821736435759
 30
0.0
 42
-0.3550789480700978
  0
VERTEX
  5
1713
  8
SAPA_ANSLUTNING
 10
-91.12268243236359
 20
-32.967643057813483
 30
0.0
  0
VERTEX
  5
1714
  8
SAPA_ANSLUTNING
 10
-168.08267230285489
 20
-49.051706487284783
 30
0.0
  0
VERTEX
  5
1715
  8
SAPA_ANSLUTNING
 10
-168.08267230285489
 20
-87.523670202036669
 30
0.0
 42
0.9999999999999998
  0
VERTEX
  5
1716
  8
SAPA_ANSLUTNING
 10
-165.08267230285489
 20
-87.523670202036669
 30
0.0
  0
SEQEND
  5
1717
  8
SAPA_ANSLUTNING
  0
LINE
  5
EDB
  8
SAPA_ANSLUTNING
 10
-34.790089356639093
 20
-33.81435532818103
 30
0.0
 11
-43.720843316265672
 21
-35.96722630545765
 31
0.0
  0
LINE
  5
EDC
  8
SAPA_ANSLUTNING
 10
-32.783160070159269
 20
-40.39235264435348
 30
0.0
 11
-120.3432018121854
 21
-60.358521942356511
 31
0.0
  0
POLYLINE
  5
EDD
  8
SAPA_ANSLUTNING
 66
     1
 10
0.0
 20
0.0
 30
0.0
 70
     1
  0
VERTEX
  5
1718
  8
SAPA_ANSLUTNING
 10
-10.241109765019679
 20
-31.20722754127053
 30
0.0
  0
VERTEX
  5
1719
  8
SAPA_ANSLUTNING
 10
-10.241109765019679
 20
-27.207227541270541
 30
0.0
 42
0.4142135623730956
  0
VERTEX
  5
171A
  8
SAPA_ANSLUTNING
 10
-10.741109765019679
 20
-26.707227541270541
 30
0.0
  0
VERTEX
  5
171B
  8
SAPA_ANSLUTNING
 10
-29.74110976501969
 20
-26.707227541270541
 30
0.0
 42
0.4142135623730951
  0
VERTEX
  5
171C
  8
SAPA_ANSLUTNING
 10
-30.24110976501969
 20
-27.207227541270541
 30
0.0
  0
VERTEX
  5
171D
  8
SAPA_ANSLUTNING
 10
-30.24110976501969
 20
-31.20722754127053
 30
0.0
 42
0.4142135623730951
  0
VERTEX
  5
171E
  8
SAPA_ANSLUTNING
 10
-29.74110976501969
 20
-31.707227541270541
 30
0.0
  0
VERTEX
  5
171F
  8
SAPA_ANSLUTNING
 10
-10.741109765019679
 20
-31.707227541270541
 30
0.0
 42
0.4142135623730951
  0
SEQEND
  5
1720
  8
SAPA_ANSLUTNING
  0
LINE
  5
EDE
  8
SAPA_ANSLUTNING
 10
-103.7226941846904
 20
-48.602060532748013
 30
0.0
 11
-103.4042836140638
 21
-50.078117285912313
 31
0.0
  0
LINE
  5
EDF
  8
SAPA_ANSLUTNING
 10
-90.396987362440285
 20
-45.734097781918429
 30
0.0
 11
-90.078462867638976
 21
-47.210682653691102
 31
0.0
  0
LINE
  5
EE0
  8
SAPA_ANSLUTNING
 10
-43.892810072942183
 20
-35.225436622106152
 30
0.0
 11
-43.548876559589161
 21
-36.709015988809149
 31
0.0
  0
LINE
  5
EE1
  8
SAPA_ANSLUTNING
 10
-31.502951521061949
 20
-25.207227541270541
 30
0.0
 11
-31.502951521061949
 21
-26.707227541270541
 31
0.0
  0
LINE
  5
EE2
  8
SAPA_ANSLUTNING
 10
-34.50663562359999
 20
-33.43840038383167
 30
0.0
 11
-34.391824815773347
 21
-25.943614609530091
 31
0.0
  0
LINE
  5
EE3
  8
SAPA_ANSLUTNING
 10
-78.395986457186126
 20
-43.903582057334297
 30
0.0
 11
-90.237725115039865
 21
-46.472390217804737
 31
0.0
  0
LINE
  5
EE4
  8
SAPA_ANSLUTNING
 10
-103.56348889937701
 20
-49.340088909330177
 30
0.0
 11
-116.4210150660448
 21
-52.161750263339172
 31
0.0
  0
POLYLINE
  5
EE5
  8
SAPA_ANSLUTNING
 66
     1
 10
0.0
 20
0.0
 30
0.0
 70
     1
  0
VERTEX
  5
1721
  8
SAPA_ANSLUTNING
 10
-60.283087178547447
 20
-40.776141102605273
 30
0.0
  0
VERTEX
  5
1722
  8
SAPA_ANSLUTNING
 10
-34.323543089677948
 20
-34.466867476819409
 30
0.0
  0
VERTEX
  5
1723
  8
SAPA_ANSLUTNING
 10
-33.75663562359999
 20
-33.703064449508261
 30
0.0
  0
VERTEX
  5
1724
  8
SAPA_ANSLUTNING
 10
-33.75663562359999
 20
-27.70722754127053
 30
0.0
 42
-0.4142135623730951
  0
VERTEX
  5
1725
  8
SAPA_ANSLUTNING
 10
-32.75663562359999
 20
-26.707227541270541
 30
0.0
  0
VERTEX
  5
1726
  8
SAPA_ANSLUTNING
 10
-12.25663562359999
 20
-26.707227541270541
 30
0.0
  0
VERTEX
  5
1727
  8
SAPA_ANSLUTNING
 10
-12.25663562359999
 20
-25.207227541270541
 30
0.0
  0
VERTEX
  5
1728
  8
SAPA_ANSLUTNING
 10
-34.25663562359999
 20
-25.207227541270541
 30
0.0
  0
VERTEX
  5
1729
  8
SAPA_ANSLUTNING
 10
-35.25663562359999
 20
-25.867838106136801
 30
0.0
  0
VERTEX
  5
172A
  8
SAPA_ANSLUTNING
 10
-35.25663562359999
 20
-33.207227541269788
 30
0.0
  0
VERTEX
  5
172B
  8
SAPA_ANSLUTNING
 10
-35.25663562359999
 20
-33.207227541269788
 30
0.0
  0
VERTEX
  5
172C
  8
SAPA_ANSLUTNING
 10
-60.662377004015951
 20
-39.311980500241539
 30
0.0
  0
VERTEX
  5
172D
  8
SAPA_ANSLUTNING
 10
-126.9329704718004
 20
-53.646426526378271
 30
0.0
 42
0.35329840999121
  0
VERTEX
  5
172E
  8
SAPA_ANSLUTNING
 10
-127.3275237589245
 20
-54.135247799205928
 30
0.0
  0
VERTEX
  5
172F
  8
SAPA_ANSLUTNING
 10
-127.32289476805219
 20
-76.842974833154756
 30
0.0
  0
VERTEX
  5
1730
  8
SAPA_ANSLUTNING
 10
-125.8254625148213
 20
-76.842662681769752
 30
0.0
  0
VERTEX
  5
1731
  8
SAPA_ANSLUTNING
 10
-125.82992354509921
 20
-55.442499360707252
 30
0.0
 42
-0.3529338416976539
  0
VERTEX
  5
1732
  8
SAPA_ANSLUTNING
 10
-125.4360038877721
 20
-54.953815220772022
 30
0.0
  0
SEQEND
  5
1733
  8
SAPA_ANSLUTNING
  0
LINE
  5
EE6
  8
SAPA_ANSLUTNING
 10
-116.5851749904816
 20
-51.400753652620331
 30
0.0
 11
-116.26676441985489
 21
-52.876810405784632
 31
0.0
  0
LINE
  5
EE7
  8
SAPA_ANSLUTNING
 10
-78.585631369920264
 20
-43.171501756152452
 30
0.0
 11
-78.20634154445176
 21
-44.635662358516193
 31
0.0
  0
LINE
  5
EE8
  8
SAPA_ANSLUTNING
 10
-127.32289476805219
 20
-60.566991298498301
 30
0.0
 11
-125.8254625148213
 21
-60.566679147113291
 31
0.0
  0
LINE
  5
EE9
  8
SAPA_ANSLUTNING
 10
-126.5741786414366
 20
-60.566835222805771
 30
0.0
 11
-126.5741786414366
 21
-76.842818757462226
 31
0.0
  0
LINE
  5
EEA
  8
SAPA_ANSLUTNING
 10
-65.259924547670124
 20
-40.303539005322882
 30
0.0
 11
-64.941400052868829
 21
-41.780123877095548
 31
0.0
  0
LINE
  5
EEB
  8
SAPA_ANSLUTNING
 10
-53.298275885238333
 20
-38.310239071831923
 30
0.0
 11
-65.100662300269704
 21
-41.04183144120919
 31
0.0
  0
LINE
  5
EEC
  8
SAPA_ANSLUTNING
 10
-53.485454841287464
 20
-37.58743579386266
 30
0.0
 11
-53.11109692918896
 21
-39.033042349801192
 31
0.0
  0
LINE
  5
EED
  8
SAPA_ANSLUTNING
 10
-33.96725878842993
 20
-37.671063905229978
 30
0.0
 11
-49.920566845157943
 21
-41.32548193719515
 31
0.0
  0
LINE
  5
EEE
  8
SAPA_ANSLUTNING
 10
-49.920566845157943
 20
-41.32548193719515
 30
0.0
 11
-47.502474817548062
 21
-42.930647341272
 31
0.0
  0
LINE
  5
EEF
  8
SAPA_ANSLUTNING
 10
-49.920566845157943
 20
-41.32548193719515
 30
0.0
 11
-48.418162030825641
 21
-39.055877170144299
 31
0.0
  0
LINE
  5
EF0
  8
SAPA_ANSLUTNING
 10
-70.355065617393137
 20
-45.428211651906508
 30
0.0
 11
-86.308373674121157
 21
-49.082629683871701
 31
0.0
  0
LINE
  5
EF1
  8
SAPA_ANSLUTNING
 10
-86.308373674121157
 20
-49.082629683871701
 30
0.0
 11
-83.890281646511269
 21
-50.687795087948537
 31
0.0
  0
LINE
  5
EF2
  8
SAPA_ANSLUTNING
 10
-86.308373674121157
 20
-49.082629683871701
 30
0.0
 11
-84.805968859788862
 21
-46.813024916820837
 31
0.0
  0
LINE
  5
EF3
  8
SAPA_ANSLUTNING
 10
-101.49545356846011
 20
-53.074275065365157
 30
0.0
 11
-117.4487616251881
 21
-56.728693097330343
 31
0.0
  0
LINE
  5
EF4
  8
SAPA_ANSLUTNING
 10
-117.4487616251881
 20
-56.728693097330343
 30
0.0
 11
-115.0306695975782
 21
-58.333858501407178
 31
0.0
  0
LINE
  5
EF5
  8
SAPA_ANSLUTNING
 10
-117.4487616251881
 20
-56.728693097330343
 30
0.0
 11
-115.9463568108558
 21
-54.459088330279492
 31
0.0
  0
LINE
  5
EF6
  8
SAPA_ANSLUTNING
 10
-120.3432018121854
 20
-60.358521942356511
 30
0.0
 11
-120.3432018121854
 21
-86.561480730065853
 31
0.0
  0
LINE
  5
EF7
  8
SAPA_ANSLUTNING
 10
-123.2159850402997
 20
-65.08141021384705
 30
0.0
 11
-123.2159850402997
 21
-76.804102555863267
 31
0.0
  0
LINE
  5
EF8
  8
SAPA_ANSLUTNING
 10
-123.2159850402997
 20
-76.804102555863267
 30
0.0
 11
-124.6979905805221
 21
-75.21065845133154
 31
0.0
  0
LINE
  5
EF9
  8
SAPA_ANSLUTNING
 10
-123.2159850402997
 20
-76.804102555863267
 30
0.0
 11
-121.55821245881469
 21
-75.379652164804668
 31
0.0
  0
POLYLINE
  5
158B
  8
SAPA_PROFIL
  6
CONTINUOUS
 62
     7
 66
     1
 10
0.0
 20
0.0
 30
0.0
 70
     1
  0
VERTEX
  5
19F4
  8
SAPA_PROFIL
  6
CONTINUOUS
 62
     7
 10
-74.00000000095703
 20
-16.499999999998192
 30
0.0
  0
VERTEX
  5
19F5
  8
SAPA_PROFIL
  6
CONTINUOUS
 62
     7
 10
-77.000000000003254
 20
-16.499999999998192
 30
0.0
 42
-0.4142135623732074
  0
VERTEX
  5
19F6
  8
SAPA_PROFIL
  6
CONTINUOUS
 62
     7
 10
-77.500000000003254
 20
-15.999999999997989
 30
0.0
  0
VERTEX
  5
19F7
  8
SAPA_PROFIL
  6
CONTINUOUS
 62
     7
 10
-77.499999999999432
 20
-7.3999999999978954
 30
0.0
 42
0.4142135623730951
  0
VERTEX
  5
19F8
  8
SAPA_PROFIL
  6
CONTINUOUS
 62
     7
 10
-77.999999999999432
 20
-6.8999999999978954
 30
0.0
  0
VERTEX
  5
19F9
  8
SAPA_PROFIL
  6
CONTINUOUS
 62
     7
 10
-80.300000000000097
 20
-6.8999999999978954
 30
0.0
 42
-0.4142135623730951
  0
VERTEX
  5
19FA
  8
SAPA_PROFIL
  6
CONTINUOUS
 62
     7
 10
-81.300000000000097
 20
-5.8999999999978954
 30
0.0
  0
VERTEX
  5
19FB
  8
SAPA_PROFIL
  6
CONTINUOUS
 62
     7
 10
-81.300000000000097
 20
-5.0873697418224921
 30
0.0
 42
-0.2216946626429368
  0
VERTEX
  5
19FC
  8
SAPA_PROFIL
  6
CONTINUOUS
 62
     7
 10
-81.192836282906057
 20
-4.8575564088867997
 30
0.0
  0
VERTEX
  5
19FD
  8
SAPA_PROFIL
  6
CONTINUOUS
 62
     7
 10
-80.492836282905515
 20
-4.270186667062247
 30
0.0
 42
-0.6370702608061857
  0
VERTEX
  5
19FE
  8
SAPA_PROFIL
  6
CONTINUOUS
 62
     7
 10
-79.999999999999901
 20
-4.4999999999981881
 30
0.0
  0
VERTEX
  5
19FF
  8
SAPA_PROFIL
  6
CONTINUOUS
 62
     7
 10
-79.999999999999901
 20
-5.2999999999983842
 30
0.0
 42
0.4142135623730951
  0
VERTEX
  5
1A00
  8
SAPA_PROFIL
  6
CONTINUOUS
 62
     7
 10
-79.69999999999969
 20
-5.5999999999985803
 30
0.0
  0
VERTEX
  5
1A01
  8
SAPA_PROFIL
  6
CONTINUOUS
 62
     7
 10
-75.299999999999145
 20
-5.5999999999976398
 30
0.0
 42
0.4142135623730504
  0
VERTEX
  5
1A02
  8
SAPA_PROFIL
  6
CONTINUOUS
 62
     7
 10
-74.999999999999432
 20
-5.2999999999974872
 30
0.0
  0
VERTEX
  5
1A03
  8
SAPA_PROFIL
  6
CONTINUOUS
 62
     7
 10
-74.999999999999446
 20
5.3000000000019583
 30
0.0
 42
0.4142135623730878
  0
VERTEX
  5
1A04
  8
SAPA_PROFIL
  6
CONTINUOUS
 62
     7
 10
-75.299999999999145
 20
5.600000000002133
 30
0.0
  0
VERTEX
  5
1A05
  8
SAPA_PROFIL
  6
CONTINUOUS
 62
     7
 10
-79.699999999999704
 20
5.6000000000020611
 30
0.0
 42
0.4142135623735842
  0
VERTEX
  5
1A06
  8
SAPA_PROFIL
  6
CONTINUOUS
 62
     7
 10
-79.999999999999403
 20
5.3000000000028598
 30
0.0
  0
VERTEX
  5
1A07
  8
SAPA_PROFIL
  6
CONTINUOUS
 62
     7
 10
-79.999999999999901
 20
4.5000000000008731
 30
0.0
 42
-0.6370702608069853
  0
VERTEX
  5
1A08
  8
SAPA_PROFIL
  6
CONTINUOUS
 62
     7
 10
-80.492836282905515
 20
4.2701866670657864
 30
0.0
  0
VERTEX
  5
1A09
  8
SAPA_PROFIL
  6
CONTINUOUS
 62
     7
 10
-81.192836282906057
 20
4.8575564088903462
 30
0.0
 42
-0.2216946626431
  0
VERTEX
  5
1A0A
  8
SAPA_PROFIL
  6
CONTINUOUS
 62
     7
 10
-81.300000000000097
 20
5.0873697418262287
 30
0.0
  0
VERTEX
  5
1A0B
  8
SAPA_PROFIL
  6
CONTINUOUS
 62
     7
 10
-81.299999999999613
 20
5.9000000000032244
 30
0.0
 42
-0.4142135623730951
  0
VERTEX
  5
1A0C
  8
SAPA_PROFIL
  6
CONTINUOUS
 62
     7
 10
-80.299999999999613
 20
6.9000000000032244
 30
0.0
  0
VERTEX
  5
1A0D
  8
SAPA_PROFIL
  6
CONTINUOUS
 62
     7
 10
-72.799999999999855
 20
6.9000000000023318
 30
0.0
 42
-0.3178372451964626
  0
VERTEX
  5
1A0E
  8
SAPA_PROFIL
  6
CONTINUOUS
 62
     7
 10
-72.517157287524995
 20
6.7000000000016051
 30
0.0
 42
0.3178372451966722
  0
VERTEX
  5
1A0F
  8
SAPA_PROFIL
  6
CONTINUOUS
 62
     7
 10
-72.234314575049936
 20
6.5000000000008766
 30
0.0
  0
VERTEX
  5
1A10
  8
SAPA_PROFIL
  6
CONTINUOUS
 62
     7
 10
-70.799999999999613
 20
6.500000000001779
 30
0.0
 42
-0.4142135623726539
  0
VERTEX
  5
1A11
  8
SAPA_PROFIL
  6
CONTINUOUS
 62
     7
 10
-70.499999999999886
 20
6.200000000001598
 30
0.0
  0
VERTEX
  5
1A12
  8
SAPA_PROFIL
  6
CONTINUOUS
 62
     7
 10
-70.499999999999901
 20
5.6000000000010486
 30
0.0
 42
-0.4142135623730836
  0
VERTEX
  5
1A13
  8
SAPA_PROFIL
  6
CONTINUOUS
 62
     7
 10
-70.799999999999613
 20
5.3000000000017842
 30
0.0
  0
VERTEX
  5
1A14
  8
SAPA_PROFIL
  6
CONTINUOUS
 62
     7
 10
-72.199999999999704
 20
5.3000000000017771
 30
0.0
 42
0.4142135623730951
  0
VERTEX
  5
1A15
  8
SAPA_PROFIL
  6
CONTINUOUS
 62
     7
 10
-72.499999999999872
 20
5.0000000000016023
 30
0.0
  0
VERTEX
  5
1A16
  8
SAPA_PROFIL
  6
CONTINUOUS
 62
     7
 10
-72.499999999999872
 20
-4.9999999999989821
 30
0.0
 42
0.4142135623730743
  0
VERTEX
  5
1A17
  8
SAPA_PROFIL
  6
CONTINUOUS
 62
     7
 10
-72.199999999999704
 20
-5.2999999999981897
 30
0.0
  0
VERTEX
  5
1A18
  8
SAPA_PROFIL
  6
CONTINUOUS
 62
     7
 10
-70.799999999999613
 20
-5.2999999999990779
 30
0.0
 42
-0.4142135623721762
  0
VERTEX
  5
1A19
  8
SAPA_PROFIL
  6
CONTINUOUS
 62
     7
 10
-70.499999999999844
 20
-5.5999999999983858
 30
0.0
  0
VERTEX
  5
1A1A
  8
SAPA_PROFIL
  6
CONTINUOUS
 62
     7
 10
-70.499999999999432
 20
-6.1999999999989992
 30
0.0
 42
-0.4142135623730534
  0
VERTEX
  5
1A1B
  8
SAPA_PROFIL
  6
CONTINUOUS
 62
     7
 10
-70.799999999999599
 20
-6.4999999999982139
 30
0.0
  0
VERTEX
  5
1A1C
  8
SAPA_PROFIL
  6
CONTINUOUS
 62
     7
 10
-72.23431457505032
 20
-6.4999999999991021
 30
0.0
 42
0.3178372451963242
  0
VERTEX
  5
1A1D
  8
SAPA_PROFIL
  6
CONTINUOUS
 62
     7
 10
-72.517157287524995
 20
-6.6999999999980471
 30
0.0
 42
-0.3178372451964607
  0
VERTEX
  5
1A1E
  8
SAPA_PROFIL
  6
CONTINUOUS
 62
     7
 10
-72.799999999999841
 20
-6.8999999999987596
 30
0.0
  0
VERTEX
  5
1A1F
  8
SAPA_PROFIL
  6
CONTINUOUS
 62
     7
 10
-74.499999999999929
 20
-6.8999999999989798
 30
0.0
 42
0.4142135623730597
  0
VERTEX
  5
1A20
  8
SAPA_PROFIL
  6
CONTINUOUS
 62
     7
 10
-74.999999999999872
 20
-7.3999999999989798
 30
0.0
  0
VERTEX
  5
1A21
  8
SAPA_PROFIL
  6
CONTINUOUS
 62
     7
 10
-74.999999999999872
 20
-12.40192378920619
 30
0.0
 42
0.2679491923306345
  0
VERTEX
  5
1A22
  8
SAPA_PROFIL
  6
CONTINUOUS
 62
     7
 10
-74.750000000156746
 20
-12.83493649099549
 30
0.0
 42
-0.2679491923317589
  0
VERTEX
  5
1A23
  8
SAPA_PROFIL
  6
CONTINUOUS
 62
     7
 10
-73.500000000957016
 20
-14.999999999998179
 30
0.0
  0
VERTEX
  5
1A24
  8
SAPA_PROFIL
  6
CONTINUOUS
 62
     7
 10
-73.500000000957812
 20
-15.999999999998179
 30
0.0
 42
-0.4142135623730951
  0
SEQEND
  5
1A25
  8
SAPA_PROFIL
  6
CONTINUOUS
 62
     7
  0
POLYLINE
  5
158C
  8
SAPA_PROFIL
 62
     4
 66
     1
 10
0.0
 20
0.0
 30
0.0
 70
     1
  0
VERTEX
  5
1A26
  8
SAPA_PROFIL
 62
     4
 10
-64.46222152836674
 20
-22.0267571950349
 30
0.0
 42
-0.3137019356282051
  0
VERTEX
  5
1A27
  8
SAPA_PROFIL
 62
     4
 10
-64.181271744820435
 20
-22.224382820568319
 30
0.0
  0
VERTEX
  5
1A28
  8
SAPA_PROFIL
 62
     4
 10
-63.295794031949242
 20
-24.65721284211234
 30
0.0
 42
0.3152987888779321
  0
VERTEX
  5
1A29
  8
SAPA_PROFIL
 62
     4
 10
-62.919916983632838
 20
-24.920404784782072
 30
0.0
  0
VERTEX
  5
1A2A
  8
SAPA_PROFIL
 62
     4
 10
-52.499999998918732
 20
-24.920404784782029
 30
0.0
  0
VERTEX
  5
1A2B
  8
SAPA_PROFIL
 62
     4
 10
-42.080083014200618
 20
-24.920404784781969
 30
0.0
 42
0.3152987888779395
  0
VERTEX
  5
1A2C
  8
SAPA_PROFIL
 62
     4
 10
-41.704205965888256
 20
-24.657212842112251
 30
0.0
  0
VERTEX
  5
1A2D
  8
SAPA_PROFIL
 62
     4
 10
-40.818728253020083
 20
-22.224382820576562
 30
0.0
 42
-0.3138982169096283
  0
VERTEX
  5
1A2E
  8
SAPA_PROFIL
 62
     4
 10
-40.537778469505888
 20
-22.0267571950362
 30
0.0
 42
-0.0157923906855865
  0
VERTEX
  5
1A2F
  8
SAPA_PROFIL
 62
     4
 10
-40.186319937167042
 20
-22.02335406539661
 30
0.0
  0
VERTEX
  5
1A30
  8
SAPA_PROFIL
 62
     4
 10
-39.946136872384763
 20
-21.88468430829008
 30
0.0
 42
-0.5773502691889272
  0
VERTEX
  5
1A31
  8
SAPA_PROFIL
 62
     4
 10
-39.631136872385042
 20
-22.06654964308488
 30
0.0
  0
VERTEX
  5
1A32
  8
SAPA_PROFIL
 62
     4
 10
-39.631136872384928
 20
-22.333664171297791
 30
0.0
  0
VERTEX
  5
1A33
  8
SAPA_PROFIL
 62
     4
 10
-39.299999998918743
 20
-22.529886237082088
 30
0.0
  0
VERTEX
  5
1A34
  8
SAPA_PROFIL
 62
     4
 10
-38.316679860938223
 20
-23.09753040057954
 30
0.0
 42
0.1316524975869703
  0
VERTEX
  5
1A35
  8
SAPA_PROFIL
 62
     4
 10
-38.211679860939398
 20
-23.125665065784101
 30
0.0
  0
VERTEX
  5
1A36
  8
SAPA_PROFIL
 62
     4
 10
-37.899999998916833
 20
-23.125665065784212
 30
0.0
 42
0.4142135623775584
  0
VERTEX
  5
1A37
  8
SAPA_PROFIL
 62
     4
 10
-37.499999998918781
 20
-22.72566506578389
 30
0.0
  0
VERTEX
  5
1A38
  8
SAPA_PROFIL
 62
     4
 10
-37.499999998918732
 20
-19.32566506578414
 30
0.0
 42
0.4142135623773978
  0
VERTEX
  5
1A39
  8
SAPA_PROFIL
 62
     4
 10
-37.899999998918759
 20
-18.925665065784159
 30
0.0
  0
VERTEX
  5
1A3A
  8
SAPA_PROFIL
 62
     4
 10
-38.211679860942411
 20
-18.925665065784159
 30
0.0
 42
0.1316524975869708
  0
VERTEX
  5
1A3B
  8
SAPA_PROFIL
 62
     4
 10
-38.31667986093936
 20
-18.95379973098941
 30
0.0
  0
VERTEX
  5
1A3C
  8
SAPA_PROFIL
 62
     4
 10
-39.299999998918743
 20
-19.521519877351441
 30
0.0
  0
VERTEX
  5
1A3D
  8
SAPA_PROFIL
 62
     4
 10
-39.89474411058962
 20
-19.86489555032356
 30
0.0
 42
-0.1316524975869772
  0
VERTEX
  5
1A3E
  8
SAPA_PROFIL
 62
     4
 10
-40.49474411059299
 20
-20.025665065784072
 30
0.0
  0
VERTEX
  5
1A3F
  8
SAPA_PROFIL
 62
     4
 10
-41.446608443479413
 20
-20.025665065783851
 30
0.0
 42
0.3152987888780149
  0
VERTEX
  5
1A40
  8
SAPA_PROFIL
 62
     4
 10
-42.386301064250908
 20
-20.683644922458232
 30
0.0
  0
VERTEX
  5
1A41
  8
SAPA_PROFIL
 62
     4
 10
-43.177415089160768
 20
-22.857212842111931
 30
0.0
 42
-0.3152987888779391
  0
VERTEX
  5
1A42
  8
SAPA_PROFIL
 62
     4
 10
-43.553292137475303
 20
-23.12040478478205
 30
0.0
  0
VERTEX
  5
1A43
  8
SAPA_PROFIL
 62
     4
 10
-52.499999998918732
 20
-23.12040478478205
 30
0.0
  0
VERTEX
  5
1A44
  8
SAPA_PROFIL
 62
     4
 10
-61.44670786036221
 20
-23.12040478478211
 30
0.0
 42
-0.3152987888779318
  0
VERTEX
  5
1A45
  8
SAPA_PROFIL
 62
     4
 10
-61.82258490867536
 20
-22.85721284211569
 30
0.0
  0
VERTEX
  5
1A46
  8
SAPA_PROFIL
 62
     4
 10
-62.61369893358647
 20
-20.68364492245847
 30
0.0
 42
0.3152987888779361
  0
VERTEX
  5
1A47
  8
SAPA_PROFIL
 62
     4
 10
-63.553391554387069
 20
-20.025665065784139
 30
0.0
  0
VERTEX
  5
1A48
  8
SAPA_PROFIL
 62
     4
 10
-64.505255887244573
 20
-20.025665065784139
 30
0.0
 42
-0.1316524975869766
  0
VERTEX
  5
1A49
  8
SAPA_PROFIL
 62
     4
 10
-65.105255887237774
 20
-19.864895550329418
 30
0.0
  0
VERTEX
  5
1A4A
  8
SAPA_PROFIL
 62
     4
 10
-65.692820321946272
 20
-19.525665065784189
 30
0.0
  0
VERTEX
  5
1A4B
  8
SAPA_PROFIL
 62
     4
 10
-66.683320136898203
 20
-18.95379973098947
 30
0.0
 42
0.1316524975869832
  0
VERTEX
  5
1A4C
  8
SAPA_PROFIL
 62
     4
 10
-66.788320136901291
 20
-18.92566506578423
 30
0.0
  0
VERTEX
  5
1A4D
  8
SAPA_PROFIL
 62
     4
 10
-67.099999998918804
 20
-18.92566506578417
 30
0.0
 42
0.414213562371655
  0
VERTEX
  5
1A4E
  8
SAPA_PROFIL
 62
     4
 10
-67.499999998918781
 20
-19.325665065788129
 30
0.0
  0
VERTEX
  5
1A4F
  8
SAPA_PROFIL
 62
     4
 10
-67.499999998918781
 20
-22.725665065784192
 30
0.0
 42
0.4142135623716633
  0
VERTEX
  5
1A50
  8
SAPA_PROFIL
 62
     4
 10
-67.099999998916743
 20
-23.125665065784158
 30
0.0
  0
VERTEX
  5
1A51
  8
SAPA_PROFIL
 62
     4
 10
-66.788320136898093
 20
-23.125665065784158
 30
0.0
 42
0.1316524975869709
  0
VERTEX
  5
1A52
  8
SAPA_PROFIL
 62
     4
 10
-66.683320136897521
 20
-23.097530400578581
 30
0.0
  0
VERTEX
  5
1A53
  8
SAPA_PROFIL
 62
     4
 10
-65.368863125452521
 20
-22.333664171297801
 30
0.0
  0
VERTEX
  5
1A54
  8
SAPA_PROFIL
 62
     4
 10
-65.368863125452407
 20
-22.06654964308488
 30
0.0
 42
-0.5773502691889269
  0
VERTEX
  5
1A55
  8
SAPA_PROFIL
 62
     4
 10
-65.053863125452693
 20
-21.88468430829009
 30
0.0
  0
VERTEX
  5
1A56
  8
SAPA_PROFIL
 62
     4
 10
-64.813680060670393
 20
-22.023354065396621
 30
0.0
 42
-0.015792390685586
  0
SEQEND
  5
1A57
  8
SAPA_PROFIL
 62
     4
  0
POLYLINE
  5
158D
  8
SAPA_PROFIL
 66
     1
 10
0.0
 20
0.0
 30
0.0
 70
     1
  0
VERTEX
  5
1A58
  8
SAPA_PROFIL
 10
-37.49999999891876
 20
-22.952058268065279
 30
0.0
 42
0.2134217652834366
  0
VERTEX
  5
1A59
  8
SAPA_PROFIL
 10
-37.399999998918567
 20
-23.17566506581538
 30
0.0
 42
-0.7625858545243175
  0
VERTEX
  5
1A5A
  8
SAPA_PROFIL
 10
-37.58457920111605
 20
-23.50599114683239
 30
0.0
  0
VERTEX
  5
1A5B
  8
SAPA_PROFIL
 10
-37.77596220110977
 20
-23.4479175098433
 30
0.0
  0
VERTEX
  5
1A5C
  8
SAPA_PROFIL
 10
-39.661805892970833
 20
-22.36335306287156
 30
0.0
  0
VERTEX
  5
1A5D
  8
SAPA_PROFIL
 10
-39.651244526743859
 20
-22.041595334653309
 30
0.0
 42
0.5773502691897529
  0
VERTEX
  5
1A5E
  8
SAPA_PROFIL
 10
-39.945400826998693
 20
-21.85864159454313
 30
0.0
  0
VERTEX
  5
1A5F
  8
SAPA_PROFIL
 10
-40.230083110230368
 20
-22.0107755056519
 30
0.0
 42
0.2216946626430025
  0
VERTEX
  5
1A60
  8
SAPA_PROFIL
 10
-40.63589201538511
 20
-22.551655337128679
 30
0.0
  0
VERTEX
  5
1A61
  8
SAPA_PROFIL
 10
-41.017338611512827
 20
-24.364885807786941
 30
0.0
 42
0.4769755326981438
  0
VERTEX
  5
1A62
  8
SAPA_PROFIL
 10
-40.715085787006359
 20
-24.736542682732811
 30
0.0
  0
VERTEX
  5
1A63
  8
SAPA_PROFIL
 10
-39.211984706244358
 20
-24.736459074849151
 30
0.0
  0
VERTEX
  5
1A64
  8
SAPA_PROFIL
 10
-39.197466296997263
 20
-24.688613324850671
 30
0.0
 42
-0.4142135623731001
  0
VERTEX
  5
1A65
  8
SAPA_PROFIL
 10
-38.823281341521451
 20
-24.488649280343271
 30
0.0
  0
VERTEX
  5
1A66
  8
SAPA_PROFIL
 10
-37.50028050000018
 20
-25.000000000000728
 30
0.0
  0
VERTEX
  5
1A67
  8
SAPA_PROFIL
 10
-35.800000000001702
 20
-25.000000000000728
 30
0.0
 42
0.4142135623730951
  0
VERTEX
  5
1A68
  8
SAPA_PROFIL
 10
-35.500000000001741
 20
-24.700000000000539
 30
0.0
  0
VERTEX
  5
1A69
  8
SAPA_PROFIL
 10
-35.500000000001627
 20
-21.699999999999861
 30
0.0
 42
-0.4142135623730951
  0
VERTEX
  5
1A6A
  8
SAPA_PROFIL
 10
-35.200000000001673
 20
-21.39999999999991
 30
0.0
  0
VERTEX
  5
1A6B
  8
SAPA_PROFIL
 10
-34.800000000001873
 20
-21.39999999999991
 30
0.0
 42
0.4142135623731506
  0
VERTEX
  5
1A6C
  8
SAPA_PROFIL
 10
-34.500000000001862
 20
-21.099999999999952
 30
0.0
  0
VERTEX
  5
1A6D
  8
SAPA_PROFIL
 10
-34.500000000001968
 20
-19.700000000000198
 30
0.0
 42
0.4142135623731505
  0
VERTEX
  5
1A6E
  8
SAPA_PROFIL
 10
-34.80000000000198
 20
-19.400000000000251
 30
0.0
  0
VERTEX
  5
1A6F
  8
SAPA_PROFIL
 10
-35.200000000001729
 20
-19.400000000000251
 30
0.0
 42
-0.4142135623731506
  0
VERTEX
  5
1A70
  8
SAPA_PROFIL
 10
-35.500000000001741
 20
-19.100000000000289
 30
0.0
  0
VERTEX
  5
1A71
  8
SAPA_PROFIL
 10
-35.500000000001748
 20
-10.899999999993881
 30
0.0
 42
-0.4142135623731506
  0
VERTEX
  5
1A72
  8
SAPA_PROFIL
 10
-35.200000000001737
 20
-10.599999999993919
 30
0.0
  0
VERTEX
  5
1A73
  8
SAPA_PROFIL
 10
-34.80000000000193
 20
-10.599999999993869
 30
0.0
 42
0.4142135623730951
  0
VERTEX
  5
1A74
  8
SAPA_PROFIL
 10
-34.500000000001918
 20
-10.29999999999397
 30
0.0
  0
VERTEX
  5
1A75
  8
SAPA_PROFIL
 10
-34.500000000001748
 20
-8.8999999999942219
 30
0.0
 42
0.4142135623731505
  0
VERTEX
  5
1A76
  8
SAPA_PROFIL
 10
-34.800000000001759
 20
-8.5999999999942673
 30
0.0
  0
VERTEX
  5
1A77
  8
SAPA_PROFIL
 10
-35.20000000000168
 20
-8.5999999999942105
 30
0.0
 42
-0.4142135623730951
  0
VERTEX
  5
1A78
  8
SAPA_PROFIL
 10
-35.500000000001691
 20
-8.2999999999943128
 30
0.0
  0
VERTEX
  5
1A79
  8
SAPA_PROFIL
 10
-35.500000000001812
 20
-5.299999999993573
 30
0.0
 42
0.4142135623743715
  0
VERTEX
  5
1A7A
  8
SAPA_PROFIL
 10
-35.80000000000171
 20
-4.9999999999933911
 30
0.0
  0
VERTEX
  5
1A7B
  8
SAPA_PROFIL
 10
-37.500280500034982
 20
-4.9999999999933946
 30
0.0
  0
VERTEX
  5
1A7C
  8
SAPA_PROFIL
 10
-38.823281341521451
 20
-5.5113507196373241
 30
0.0
 42
-0.4142135623730744
  0
VERTEX
  5
1A7D
  8
SAPA_PROFIL
 10
-39.197466296997263
 20
-5.3113866751299268
 30
0.0
  0
VERTEX
  5
1A7E
  8
SAPA_PROFIL
 10
-39.211984706244372
 20
-5.2635409251314398
 30
0.0
  0
VERTEX
  5
1A7F
  8
SAPA_PROFIL
 10
-40.715085787006373
 20
-5.263457317247787
 30
0.0
 42
0.4769755326981443
  0
VERTEX
  5
1A80
  8
SAPA_PROFIL
 10
-41.017338611512827
 20
-5.6351141921936581
 30
0.0
  0
VERTEX
  5
1A81
  8
SAPA_PROFIL
 10
-40.635892015385181
 20
-7.4483446628519117
 30
0.0
 42
0.2216946626430325
  0
VERTEX
  5
1A82
  8
SAPA_PROFIL
 10
-40.230083110230332
 20
-7.9892244943286981
 30
0.0
  0
VERTEX
  5
1A83
  8
SAPA_PROFIL
 10
-39.945400826998693
 20
-8.1413584054374617
 30
0.0
 42
0.5773502691897529
  0
VERTEX
  5
1A84
  8
SAPA_PROFIL
 10
-39.651244526743866
 20
-7.958404665327282
 30
0.0
  0
VERTEX
  5
1A85
  8
SAPA_PROFIL
 10
-39.661805892970833
 20
-7.6366469371090382
 30
0.0
  0
VERTEX
  5
1A86
  8
SAPA_PROFIL
 10
-37.775962201109778
 20
-6.5520824901372983
 30
0.0
  0
VERTEX
  5
1A87
  8
SAPA_PROFIL
 10
-37.584579201116057
 20
-6.4940088531483191
 30
0.0
 42
-0.7625858545243173
  0
VERTEX
  5
1A88
  8
SAPA_PROFIL
 10
-37.399999998918631
 20
-6.8243349341652113
 30
0.0
 42
0.2134217652834366
  0
VERTEX
  5
1A89
  8
SAPA_PROFIL
 10
-37.499999998918767
 20
-7.0479417319153193
 30
0.0
  0
VERTEX
  5
1A8A
  8
SAPA_PROFIL
 10
-37.499999998918767
 20
-10.90072813649134
 30
0.0
 42
-0.4142135623730951
  0
VERTEX
  5
1A8B
  8
SAPA_PROFIL
 10
-37.799999998918722
 20
-11.200728136491289
 30
0.0
  0
VERTEX
  5
1A8C
  8
SAPA_PROFIL
 10
-38.099999998919131
 20
-11.200728136491289
 30
0.0
  0
VERTEX
  5
1A8D
  8
SAPA_PROFIL
 10
-39.699999998918592
 20
-10.276967705787669
 30
0.0
 42
0.577350269189529
  0
VERTEX
  5
1A8E
  8
SAPA_PROFIL
 10
-39.999999998918767
 20
-10.45017278654471
 30
0.0
  0
VERTEX
  5
1A8F
  8
SAPA_PROFIL
 10
-39.99999999891876
 20
-19.549827213449412
 30
0.0
 42
0.577350269189529
  0
VERTEX
  5
1A90
  8
SAPA_PROFIL
 10
-39.699999998918578
 20
-19.723032294206451
 30
0.0
  0
VERTEX
  5
1A91
  8
SAPA_PROFIL
 10
-38.099999998919131
 20
-18.799271863502831
 30
0.0
  0
VERTEX
  5
1A92
  8
SAPA_PROFIL
 10
-37.799999998918722
 20
-18.79927186350282
 30
0.0
 42
-0.4142135623730951
  0
VERTEX
  5
1A93
  8
SAPA_PROFIL
 10
-37.49999999891876
 20
-19.099271863502779
 30
0.0
  0
SEQEND
  5
1A94
  8
SAPA_PROFIL
  0
POLYLINE
  5
158E
  8
SAPA_PROFIL
  6
CONTINUOUS
 62
     7
 66
     1
 10
0.0
 20
0.0
 30
0.0
 70
     1
  0
VERTEX
  5
1A95
  8
SAPA_PROFIL
  6
CONTINUOUS
 62
     7
 10
-87.30000304709273
 20
-23.000000000035481
 30
0.0
  0
VERTEX
  5
1A96
  8
SAPA_PROFIL
  6
CONTINUOUS
 62
     7
 10
-87.30000304709273
 20
-21.350000000043121
 30
0.0
 42
-0.4142135623729003
  0
VERTEX
  5
1A97
  8
SAPA_PROFIL
  6
CONTINUOUS
 62
     7
 10
-87.000003047092775
 20
-21.050000000042932
 30
0.0
  0
VERTEX
  5
1A98
  8
SAPA_PROFIL
  6
CONTINUOUS
 62
     7
 10
-85.400000001070765
 20
-21.050000000042932
 30
0.0
 42
0.1806877882261281
  0
VERTEX
  5
1A99
  8
SAPA_PROFIL
  6
CONTINUOUS
 62
     7
 10
-83.400283406662609
 20
-20.302961906125269
 30
0.0
 42
0.9538213995949648
  0
VERTEX
  5
1A9A
  8
SAPA_PROFIL
  6
CONTINUOUS
 62
     7
 10
-84.328106923347306
 20
-19.126474928900279
 30
0.0
  0
VERTEX
  5
1A9B
  8
SAPA_PROFIL
  6
CONTINUOUS
 62
     7
 10
-84.585303985957779
 20
-19.057559183678681
 30
0.0
 42
0.4142135623719595
  0
VERTEX
  5
1A9C
  8
SAPA_PROFIL
  6
CONTINUOUS
 62
     7
 10
-84.891481088746957
 20
-19.234330616393891
 30
0.0
  0
VERTEX
  5
1A9D
  8
SAPA_PROFIL
  6
CONTINUOUS
 62
     7
 10
-84.958891075394448
 20
-19.485908111498301
 30
0.0
 42
-0.4299878773908156
  0
VERTEX
  5
1A9E
  8
SAPA_PROFIL
  6
CONTINUOUS
 62
     7
 10
-86.907390018256535
 20
-18.360936748081262
 30
0.0
  0
VERTEX
  5
1A9F
  8
SAPA_PROFIL
  6
CONTINUOUS
 62
     7
 10
-86.723221125915558
 20
-18.176767855739829
 30
0.0
 42
0.4142135623718706
  0
VERTEX
  5
1AA0
  8
SAPA_PROFIL
  6
CONTINUOUS
 62
     7
 10
-86.723221125915586
 20
-17.823224990309431
 30
0.0
  0
VERTEX
  5
1AA1
  8
SAPA_PROFIL
  6
CONTINUOUS
 62
     7
 10
-86.907388636179178
 20
-17.639057480044759
 30
0.0
 42
-0.429987877699598
  0
VERTEX
  5
1AA2
  8
SAPA_PROFIL
  6
CONTINUOUS
 62
     7
 10
-84.958885384142533
 20
-16.51409357811281
 30
0.0
  0
VERTEX
  5
1AA3
  8
SAPA_PROFIL
  6
CONTINUOUS
 62
     7
 10
-84.891474890507837
 20
-16.76567296531892
 30
0.0
 42
0.4142135623733942
  0
VERTEX
  5
1AA4
  8
SAPA_PROFIL
  6
CONTINUOUS
 62
     7
 10
-84.585297787718616
 20
-16.942444398034251
 30
0.0
  0
VERTEX
  5
1AA5
  8
SAPA_PROFIL
  6
CONTINUOUS
 62
     7
 10
-84.328101588454984
 20
-16.87352888414636
 30
0.0
 42
0.9538172250823233
  0
VERTEX
  5
1AA6
  8
SAPA_PROFIL
  6
CONTINUOUS
 62
     7
 10
-83.400283406534612
 20
-15.69703809381471
 30
0.0
 42
0.1806877881352354
  0
VERTEX
  5
1AA7
  8
SAPA_PROFIL
  6
CONTINUOUS
 62
     7
 10
-85.400000001070737
 20
-14.950000000043479
 30
0.0
  0
VERTEX
  5
1AA8
  8
SAPA_PROFIL
  6
CONTINUOUS
 62
     7
 10
-87.300000003219722
 20
-14.950000000043479
 30
0.0
 42
-0.4142135623728949
  0
VERTEX
  5
1AA9
  8
SAPA_PROFIL
  6
CONTINUOUS
 62
     7
 10
-87.6000000032206
 20
-14.65000000004239
 30
0.0
  0
VERTEX
  5
1AAA
  8
SAPA_PROFIL
  6
CONTINUOUS
 62
     7
 10
-87.600000003219691
 20
-13.000000000045389
 30
0.0
 42
-0.4142135623747599
  0
VERTEX
  5
1AAB
  8
SAPA_PROFIL
  6
CONTINUOUS
 62
     7
 10
-87.300000003218599
 20
-12.7000000000453
 30
0.0
  0
VERTEX
  5
1AAC
  8
SAPA_PROFIL
  6
CONTINUOUS
 62
     7
 10
-82.599999998920026
 20
-12.700000000056519
 30
0.0
 42
0.414213562374087
  0
VERTEX
  5
1AAD
  8
SAPA_PROFIL
  6
CONTINUOUS
 62
     7
 10
-82.299999998920086
 20
-12.400000000056339
 30
0.0
  0
VERTEX
  5
1AAE
  8
SAPA_PROFIL
  6
CONTINUOUS
 62
     7
 10
-82.299999998918935
 20
-11.300000000024969
 30
0.0
 42
0.4142135623632305
  0
VERTEX
  5
1AAF
  8
SAPA_PROFIL
  6
CONTINUOUS
 62
     7
 10
-82.599999998918065
 20
-11.000000000031759
 30
0.0
  0
VERTEX
  5
1AB0
  8
SAPA_PROFIL
  6
CONTINUOUS
 62
     7
 10
-92.7000000032196
 20
-11.000000000014561
 30
0.0
 42
0.4142135623563092
  0
VERTEX
  5
1AB1
  8
SAPA_PROFIL
  6
CONTINUOUS
 62
     7
 10
-93.000000003220705
 20
-11.300000000014739
 30
0.0
  0
VERTEX
  5
1AB2
  8
SAPA_PROFIL
  6
CONTINUOUS
 62
     7
 10
-93.000000003221601
 20
-19.200000000013379
 30
0.0
 42
0.414213562392466
  0
VERTEX
  5
1AB3
  8
SAPA_PROFIL
  6
CONTINUOUS
 62
     7
 10
-92.700000003220737
 20
-19.500000000014559
 30
0.0
  0
VERTEX
  5
1AB4
  8
SAPA_PROFIL
  6
CONTINUOUS
 62
     7
 10
-91.6000000032206
 20
-19.500000000035481
 30
0.0
 42
0.4142135623952085
  0
VERTEX
  5
1AB5
  8
SAPA_PROFIL
  6
CONTINUOUS
 62
     7
 10
-91.300000003220646
 20
-19.200000000013471
 30
0.0
  0
VERTEX
  5
1AB6
  8
SAPA_PROFIL
  6
CONTINUOUS
 62
     7
 10
-91.300000003219736
 20
-13.70000000003802
 30
0.0
 42
-0.9999999999999998
  0
VERTEX
  5
1AB7
  8
SAPA_PROFIL
  6
CONTINUOUS
 62
     7
 10
-89.300000003219736
 20
-13.70000000003802
 30
0.0
  0
VERTEX
  5
1AB8
  8
SAPA_PROFIL
  6
CONTINUOUS
 62
     7
 10
-89.300000003219736
 20
-15.60541036337418
 30
0.0
 42
0.1539147210606419
  0
VERTEX
  5
1AB9
  8
SAPA_PROFIL
  6
CONTINUOUS
 62
     7
 10
-89.245745616505644
 20
-15.777483294280501
 30
0.0
  0
VERTEX
  5
1ABA
  8
SAPA_PROFIL
  6
CONTINUOUS
 62
     7
 10
-88.354254389933658
 20
-17.050664712538431
 30
0.0
 42
-0.1539147210594121
  0
VERTEX
  5
1ABB
  8
SAPA_PROFIL
  6
CONTINUOUS
 62
     7
 10
-88.300000003220191
 20
-17.222737643443001
 30
0.0
  0
VERTEX
  5
1ABC
  8
SAPA_PROFIL
  6
CONTINUOUS
 62
     7
 10
-88.300000003219736
 20
-19.989341626523132
 30
0.0
 42
-0.1872522264746358
  0
VERTEX
  5
1ABD
  8
SAPA_PROFIL
  6
CONTINUOUS
 62
     7
 10
-88.378547314063269
 20
-20.191724201034059
 30
0.0
  0
VERTEX
  5
1ABE
  8
SAPA_PROFIL
  6
CONTINUOUS
 62
     7
 10
-89.221452692375806
 20
-21.11405490655131
 30
0.0
 42
0.1872522264746339
  0
VERTEX
  5
1ABF
  8
SAPA_PROFIL
  6
CONTINUOUS
 62
     7
 10
-89.300000003219736
 20
-21.316437481061261
 30
0.0
  0
VERTEX
  5
1AC0
  8
SAPA_PROFIL
  6
CONTINUOUS
 62
     7
 10
-89.300000003219736
 20
-24.700000000013549
 30
0.0
 42
0.4142135623952092
  0
VERTEX
  5
1AC1
  8
SAPA_PROFIL
  6
CONTINUOUS
 62
     7
 10
-89.000000003219867
 20
-25.000000000033321
 30
0.0
  0
VERTEX
  5
1AC2
  8
SAPA_PROFIL
  6
CONTINUOUS
 62
     7
 10
-86.080387804822067
 20
-25.000000000033332
 30
0.0
 42
0.131652497587394
  0
VERTEX
  5
1AC3
  8
SAPA_PROFIL
  6
CONTINUOUS
 62
     7
 10
-85.930387804822075
 20
-24.959807621168661
 30
0.0
  0
VERTEX
  5
1AC4
  8
SAPA_PROFIL
  6
CONTINUOUS
 62
     7
 10
-85.550003047092744
 20
-24.740192378898001
 30
0.0
 42
-0.2679491924311264
  0
VERTEX
  5
1AC5
  8
SAPA_PROFIL
  6
CONTINUOUS
 62
     7
 10
-85.250003047092733
 20
-24.740192378898008
 30
0.0
  0
VERTEX
  5
1AC6
  8
SAPA_PROFIL
  6
CONTINUOUS
 62
     7
 10
-84.869618289367835
 20
-24.95980762116611
 30
0.0
 42
0.1316524975876173
  0
VERTEX
  5
1AC7
  8
SAPA_PROFIL
  6
CONTINUOUS
 62
     7
 10
-84.719618289367617
 20
-25.00000000003077
 30
0.0
  0
VERTEX
  5
1AC8
  8
SAPA_PROFIL
  6
CONTINUOUS
 62
     7
 10
-67.499719497750689
 20
-25.000000000015451
 30
0.0
  0
VERTEX
  5
1AC9
  8
SAPA_PROFIL
  6
CONTINUOUS
 62
     7
 10
-66.176718656316098
 20
-24.48864928039157
 30
0.0
 42
-0.4142135623730732
  0
VERTEX
  5
1ACA
  8
SAPA_PROFIL
  6
CONTINUOUS
 62
     7
 10
-65.802533700840286
 20
-24.68861332489897
 30
0.0
  0
VERTEX
  5
1ACB
  8
SAPA_PROFIL
  6
CONTINUOUS
 62
     7
 10
-65.788015291593183
 20
-24.73645907489745
 30
0.0
  0
VERTEX
  5
1ACC
  8
SAPA_PROFIL
  6
CONTINUOUS
 62
     7
 10
-64.284914210831175
 20
-24.73654268278111
 30
0.0
 42
0.4769755326981473
  0
VERTEX
  5
1ACD
  8
SAPA_PROFIL
  6
CONTINUOUS
 62
     7
 10
-63.982661386324708
 20
-24.36488580783524
 30
0.0
  0
VERTEX
  5
1ACE
  8
SAPA_PROFIL
  6
CONTINUOUS
 62
     7
 10
-64.364107982452367
 20
-22.551655337176982
 30
0.0
 42
0.2216946626430328
  0
VERTEX
  5
1ACF
  8
SAPA_PROFIL
  6
CONTINUOUS
 62
     7
 10
-64.769916887607224
 20
-22.010775505700192
 30
0.0
  0
VERTEX
  5
1AD0
  8
SAPA_PROFIL
  6
CONTINUOUS
 62
     7
 10
-65.054599170838856
 20
-21.858641594591429
 30
0.0
 42
0.5773502691897292
  0
VERTEX
  5
1AD1
  8
SAPA_PROFIL
  6
CONTINUOUS
 62
     7
 10
-65.348755471093682
 20
-22.041595334701611
 30
0.0
  0
VERTEX
  5
1AD2
  8
SAPA_PROFIL
  6
CONTINUOUS
 62
     7
 10
-65.338194104866716
 20
-22.363353062919849
 30
0.0
  0
VERTEX
  5
1AD3
  8
SAPA_PROFIL
  6
CONTINUOUS
 62
     7
 10
-67.224037796727771
 20
-23.4479175098916
 30
0.0
  0
VERTEX
  5
1AD4
  8
SAPA_PROFIL
  6
CONTINUOUS
 62
     7
 10
-67.415420796721492
 20
-23.505991146880579
 30
0.0
 42
-0.7625858545243111
  0
VERTEX
  5
1AD5
  8
SAPA_PROFIL
  6
CONTINUOUS
 62
     7
 10
-67.599999998918918
 20
-23.175665065863679
 30
0.0
 42
0.2134217652834384
  0
VERTEX
  5
1AD6
  8
SAPA_PROFIL
  6
CONTINUOUS
 62
     7
 10
-67.499999998918781
 20
-22.952058268077959
 30
0.0
  0
VERTEX
  5
1AD7
  8
SAPA_PROFIL
  6
CONTINUOUS
 62
     7
 10
-67.499999998918781
 20
-19.099271863494319
 30
0.0
 42
-0.4142135623719642
  0
VERTEX
  5
1AD8
  8
SAPA_PROFIL
  6
CONTINUOUS
 62
     7
 10
-67.199999998918855
 20
-18.799271863493232
 30
0.0
  0
VERTEX
  5
1AD9
  8
SAPA_PROFIL
  6
CONTINUOUS
 62
     7
 10
-66.899999998918645
 20
-18.799271863494141
 30
0.0
  0
VERTEX
  5
1ADA
  8
SAPA_PROFIL
  6
CONTINUOUS
 62
     7
 10
-65.299999998918764
 20
-19.72303229419866
 30
0.0
 42
0.5773502691885648
  0
VERTEX
  5
1ADB
  8
SAPA_PROFIL
  6
CONTINUOUS
 62
     7
 10
-64.999999998918781
 20
-19.549827213440949
 30
0.0
  0
VERTEX
  5
1ADC
  8
SAPA_PROFIL
  6
CONTINUOUS
 62
     7
 10
-64.999999998918781
 20
-10.450172786622719
 30
0.0
 42
0.5773502691885171
  0
VERTEX
  5
1ADD
  8
SAPA_PROFIL
  6
CONTINUOUS
 62
     7
 10
-65.299999998918736
 20
-10.27696770586499
 30
0.0
  0
VERTEX
  5
1ADE
  8
SAPA_PROFIL
  6
CONTINUOUS
 62
     7
 10
-66.899999998918645
 20
-11.20072813656952
 30
0.0
  0
VERTEX
  5
1ADF
  8
SAPA_PROFIL
  6
CONTINUOUS
 62
     7
 10
-67.199999998918855
 20
-11.20072813656952
 30
0.0
 42
-0.4142135623719644
  0
VERTEX
  5
1AE0
  8
SAPA_PROFIL
  6
CONTINUOUS
 62
     7
 10
-67.499999998917872
 20
-10.90072813656934
 30
0.0
  0
VERTEX
  5
1AE1
  8
SAPA_PROFIL
  6
CONTINUOUS
 62
     7
 10
-67.499999998918781
 20
-7.0479417319636184
 30
0.0
 42
0.2134217652834359
  0
VERTEX
  5
1AE2
  8
SAPA_PROFIL
  6
CONTINUOUS
 62
     7
 10
-67.599999998918975
 20
-6.8243349342135096
 30
0.0
 42
-0.7625858545243172
  0
VERTEX
  5
1AE3
  8
SAPA_PROFIL
  6
CONTINUOUS
 62
     7
 10
-67.415420796721492
 20
-6.4940088531965037
 30
0.0
  0
VERTEX
  5
1AE4
  8
SAPA_PROFIL
  6
CONTINUOUS
 62
     7
 10
-67.224037796727771
 20
-6.5520824901855974
 30
0.0
  0
VERTEX
  5
1AE5
  8
SAPA_PROFIL
  6
CONTINUOUS
 62
     7
 10
-65.338194104866716
 20
-7.6366469371573373
 30
0.0
  0
VERTEX
  5
1AE6
  8
SAPA_PROFIL
  6
CONTINUOUS
 62
     7
 10
-65.348755471093682
 20
-7.9584046653755811
 30
0.0
 42
0.5773502691897293
  0
VERTEX
  5
1AE7
  8
SAPA_PROFIL
  6
CONTINUOUS
 62
     7
 10
-65.054599170838856
 20
-8.1413584054857608
 30
0.0
  0
VERTEX
  5
1AE8
  8
SAPA_PROFIL
  6
CONTINUOUS
 62
     7
 10
-64.769916887607167
 20
-7.9892244943769981
 30
0.0
 42
0.2216946626430043
  0
VERTEX
  5
1AE9
  8
SAPA_PROFIL
  6
CONTINUOUS
 62
     7
 10
-64.364107982452424
 20
-7.4483446629002108
 30
0.0
  0
VERTEX
  5
1AEA
  8
SAPA_PROFIL
  6
CONTINUOUS
 62
     7
 10
-63.982661386324722
 20
-5.6351141922419572
 30
0.0
 42
0.4769755326981317
  0
VERTEX
  5
1AEB
  8
SAPA_PROFIL
  6
CONTINUOUS
 62
     7
 10
-64.284914210831175
 20
-5.263457317296087
 30
0.0
  0
VERTEX
  5
1AEC
  8
SAPA_PROFIL
  6
CONTINUOUS
 62
     7
 10
-65.788015291593183
 20
-5.2635409251797389
 30
0.0
  0
VERTEX
  5
1AED
  8
SAPA_PROFIL
  6
CONTINUOUS
 62
     7
 10
-65.802533700840286
 20
-5.3113866751782259
 30
0.0
 42
-0.4142135623730951
  0
VERTEX
  5
1AEE
  8
SAPA_PROFIL
  6
CONTINUOUS
 62
     7
 10
-66.176718656316098
 20
-5.5113507196856233
 30
0.0
  0
VERTEX
  5
1AEF
  8
SAPA_PROFIL
  6
CONTINUOUS
 62
     7
 10
-67.499719497766847
 20
-5.0000000000554223
 30
0.0
  0
VERTEX
  5
1AF0
  8
SAPA_PROFIL
  6
CONTINUOUS
 62
     7
 10
-69.699999998919751
 20
-5.0000000000671916
 30
0.0
 42
0.4142135623531162
  0
VERTEX
  5
1AF1
  8
SAPA_PROFIL
  6
CONTINUOUS
 62
     7
 10
-69.999999998918994
 20
-5.3000000000468823
 30
0.0
  0
VERTEX
  5
1AF2
  8
SAPA_PROFIL
  6
CONTINUOUS
 62
     7
 10
-69.999999998918994
 20
-10.00000000003118
 30
0.0
 42
-0.4142135623737027
  0
VERTEX
  5
1AF3
  8
SAPA_PROFIL
  6
CONTINUOUS
 62
     7
 10
-70.999999998921069
 20
-11.00000000003118
 30
0.0
  0
VERTEX
  5
1AF4
  8
SAPA_PROFIL
  6
CONTINUOUS
 62
     7
 10
-73.999999998918327
 20
-11.00000000002496
 30
0.0
 42
0.4142135623737057
  0
VERTEX
  5
1AF5
  8
SAPA_PROFIL
  6
CONTINUOUS
 62
     7
 10
-74.299999998918949
 20
-11.300000000024969
 30
0.0
  0
VERTEX
  5
1AF6
  8
SAPA_PROFIL
  6
CONTINUOUS
 62
     7
 10
-74.299999998918949
 20
-12.573438483802819
 30
0.0
 42
0.1962615682814401
  0
VERTEX
  5
1AF7
  8
SAPA_PROFIL
  6
CONTINUOUS
 62
     7
 10
-74.21428571320466
 20
-12.78339474747051
 30
0.0
 42
-0.1962615682813938
  0
VERTEX
  5
1AF8
  8
SAPA_PROFIL
  6
CONTINUOUS
 62
     7
 10
-73.499999998918994
 20
-14.53303027802971
 30
0.0
  0
VERTEX
  5
1AF9
  8
SAPA_PROFIL
  6
CONTINUOUS
 62
     7
 10
-73.499999998918994
 20
-23.000000000034959
 30
0.0
 42
-0.414213562373709
  0
VERTEX
  5
1AFA
  8
SAPA_PROFIL
  6
CONTINUOUS
 62
     7
 10
-73.799999998918949
 20
-23.300000000036
 30
0.0
  0
VERTEX
  5
1AFB
  8
SAPA_PROFIL
  6
CONTINUOUS
 62
     7
 10
-87.000003047092747
 20
-23.300000000035659
 30
0.0
 42
-0.4142135623728949
  0
SEQEND
  5
1AFC
  8
SAPA_PROFIL
  6
CONTINUOUS
 62
     7
  0
POLYLINE
  5
158F
  8
SAPA_PROFIL
 62
     4
 66
     1
 10
0.0
 20
0.0
 30
0.0
 70
     1
  0
VERTEX
  5
1AFD
  8
SAPA_PROFIL
 62
     4
 10
-64.46222152836674
 20
-7.973242804959213
 30
0.0
 42
0.3137019356282051
  0
VERTEX
  5
1AFE
  8
SAPA_PROFIL
 62
     4
 10
-64.181271744820435
 20
-7.7756171794257929
 30
0.0
  0
VERTEX
  5
1AFF
  8
SAPA_PROFIL
 62
     4
 10
-63.295794031949242
 20
-5.3427871578817729
 30
0.0
 42
-0.3152987888779321
  0
VERTEX
  5
1B00
  8
SAPA_PROFIL
 62
     4
 10
-62.919916983632838
 20
-5.079595215212052
 30
0.0
  0
VERTEX
  5
1B01
  8
SAPA_PROFIL
 62
     4
 10
-52.499999998918732
 20
-5.0795952152120831
 30
0.0
  0
VERTEX
  5
1B02
  8
SAPA_PROFIL
 62
     4
 10
-42.080083014200618
 20
-5.0795952152121409
 30
0.0
 42
-0.3152987888779395
  0
VERTEX
  5
1B03
  8
SAPA_PROFIL
 62
     4
 10
-41.704205965888256
 20
-5.3427871578818618
 30
0.0
  0
VERTEX
  5
1B04
  8
SAPA_PROFIL
 62
     4
 10
-40.818728253020083
 20
-7.7756171794175559
 30
0.0
 42
0.3138982169096283
  0
VERTEX
  5
1B05
  8
SAPA_PROFIL
 62
     4
 10
-40.537778469505888
 20
-7.97324280495791
 30
0.0
 42
0.0157923906855865
  0
VERTEX
  5
1B06
  8
SAPA_PROFIL
 62
     4
 10
-40.186319937167042
 20
-7.9766459345975056
 30
0.0
  0
VERTEX
  5
1B07
  8
SAPA_PROFIL
 62
     4
 10
-39.946136872384763
 20
-8.1153156917040317
 30
0.0
 42
0.5773502691889272
  0
VERTEX
  5
1B08
  8
SAPA_PROFIL
 62
     4
 10
-39.631136872385042
 20
-7.9334503569092378
 30
0.0
  0
VERTEX
  5
1B09
  8
SAPA_PROFIL
 62
     4
 10
-39.631136872384928
 20
-7.6663358286963241
 30
0.0
  0
VERTEX
  5
1B0A
  8
SAPA_PROFIL
 62
     4
 10
-39.299999998918743
 20
-7.4701137629120256
 30
0.0
  0
VERTEX
  5
1B0B
  8
SAPA_PROFIL
 62
     4
 10
-38.316679860938223
 20
-6.9024695994145784
 30
0.0
 42
-0.1316524975869703
  0
VERTEX
  5
1B0C
  8
SAPA_PROFIL
 62
     4
 10
-38.211679860939398
 20
-6.8743349342100171
 30
0.0
  0
VERTEX
  5
1B0D
  8
SAPA_PROFIL
 62
     4
 10
-37.899999998916833
 20
-6.8743349342099034
 30
0.0
 42
-0.4142135623775584
  0
VERTEX
  5
1B0E
  8
SAPA_PROFIL
 62
     4
 10
-37.499999998918781
 20
-7.2743349342102208
 30
0.0
  0
VERTEX
  5
1B0F
  8
SAPA_PROFIL
 62
     4
 10
-37.499999998918732
 20
-10.67433493420997
 30
0.0
 42
-0.4142135623773978
  0
VERTEX
  5
1B10
  8
SAPA_PROFIL
 62
     4
 10
-37.899999998918759
 20
-11.074334934209951
 30
0.0
  0
VERTEX
  5
1B11
  8
SAPA_PROFIL
 62
     4
 10
-38.211679860942411
 20
-11.074334934209951
 30
0.0
 42
-0.1316524975869708
  0
VERTEX
  5
1B12
  8
SAPA_PROFIL
 62
     4
 10
-38.31667986093936
 20
-11.0462002690047
 30
0.0
  0
VERTEX
  5
1B13
  8
SAPA_PROFIL
 62
     4
 10
-39.299999998918743
 20
-10.47848012264267
 30
0.0
  0
VERTEX
  5
1B14
  8
SAPA_PROFIL
 62
     4
 10
-39.89474411058962
 20
-10.13510444967055
 30
0.0
 42
0.1316524975869772
  0
VERTEX
  5
1B15
  8
SAPA_PROFIL
 62
     4
 10
-40.49474411059299
 20
-9.9743349342100398
 30
0.0
  0
VERTEX
  5
1B16
  8
SAPA_PROFIL
 62
     4
 10
-41.446608443479413
 20
-9.9743349342102654
 30
0.0
 42
-0.3152987888780149
  0
VERTEX
  5
1B17
  8
SAPA_PROFIL
 62
     4
 10
-42.386301064250908
 20
-9.3163550775358779
 30
0.0
  0
VERTEX
  5
1B18
  8
SAPA_PROFIL
 62
     4
 10
-43.177415089160768
 20
-7.1427871578821858
 30
0.0
 42
0.3152987888779391
  0
VERTEX
  5
1B19
  8
SAPA_PROFIL
 62
     4
 10
-43.553292137475303
 20
-6.879595215212067
 30
0.0
  0
VERTEX
  5
1B1A
  8
SAPA_PROFIL
 62
     4
 10
-52.499999998918732
 20
-6.8795952152120661
 30
0.0
  0
VERTEX
  5
1B1B
  8
SAPA_PROFIL
 62
     4
 10
-61.44670786036221
 20
-6.8795952152120066
 30
0.0
 42
0.3152987888779318
  0
VERTEX
  5
1B1C
  8
SAPA_PROFIL
 62
     4
 10
-61.82258490867536
 20
-7.1427871578784314
 30
0.0
  0
VERTEX
  5
1B1D
  8
SAPA_PROFIL
 62
     4
 10
-62.61369893358647
 20
-9.3163550775356452
 30
0.0
 42
-0.3152987888779361
  0
VERTEX
  5
1B1E
  8
SAPA_PROFIL
 62
     4
 10
-63.553391554387069
 20
-9.9743349342099776
 30
0.0
  0
VERTEX
  5
1B1F
  8
SAPA_PROFIL
 62
     4
 10
-64.505255887244573
 20
-9.9743349342099776
 30
0.0
 42
0.1316524975869766
  0
VERTEX
  5
1B20
  8
SAPA_PROFIL
 62
     4
 10
-65.105255887237774
 20
-10.13510444966469
 30
0.0
  0
VERTEX
  5
1B21
  8
SAPA_PROFIL
 62
     4
 10
-65.692820321946272
 20
-10.474334934209921
 30
0.0
  0
VERTEX
  5
1B22
  8
SAPA_PROFIL
 62
     4
 10
-66.683320136898203
 20
-11.04620026900464
 30
0.0
 42
-0.1316524975869832
  0
VERTEX
  5
1B23
  8
SAPA_PROFIL
 62
     4
 10
-66.788320136901291
 20
-11.07433493420988
 30
0.0
  0
VERTEX
  5
1B24
  8
SAPA_PROFIL
 62
     4
 10
-67.099999998918804
 20
-11.07433493420994
 30
0.0
 42
-0.414213562371655
  0
VERTEX
  5
1B25
  8
SAPA_PROFIL
 62
     4
 10
-67.499999998918781
 20
-10.67433493420598
 30
0.0
  0
VERTEX
  5
1B26
  8
SAPA_PROFIL
 62
     4
 10
-67.499999998918781
 20
-7.2743349342099322
 30
0.0
 42
-0.4142135623716633
  0
VERTEX
  5
1B27
  8
SAPA_PROFIL
 62
     4
 10
-67.099999998916743
 20
-6.874334934209954
 30
0.0
  0
VERTEX
  5
1B28
  8
SAPA_PROFIL
 62
     4
 10
-66.788320136898093
 20
-6.874334934209954
 30
0.0
 42
-0.1316524975869709
  0
VERTEX
  5
1B29
  8
SAPA_PROFIL
 62
     4
 10
-66.683320136897521
 20
-6.9024695994155394
 30
0.0
  0
VERTEX
  5
1B2A
  8
SAPA_PROFIL
 62
     4
 10
-65.368863125452521
 20
-7.6663358286963179
 30
0.0
  0
VERTEX
  5
1B2B
  8
SAPA_PROFIL
 62
     4
 10
-65.368863125452407
 20
-7.9334503569092334
 30
0.0
 42
0.5773502691889269
  0
VERTEX
  5
1B2C
  8
SAPA_PROFIL
 62
     4
 10
-65.053863125452693
 20
-8.1153156917040263
 30
0.0
  0
VERTEX
  5
1B2D
  8
SAPA_PROFIL
 62
     4
 10
-64.813680060670393
 20
-7.976645934597502
 30
0.0
 42
0.015792390685586
  0
SEQEND
  5
1B2E
  8
SAPA_PROFIL
 62
     4
  0
POLYLINE
  5
1590
  8
SAPA_PROFIL
  6
CONTINUOUS
 62
     7
 66
     1
 10
0.0
 20
0.0
 30
0.0
 70
     1
  0
VERTEX
  5
1B2F
  8
SAPA_PROFIL
  6
CONTINUOUS
 62
     7
 10
-74.000000000956632
 20
16.499999999997019
 30
0.0
  0
VERTEX
  5
1B30
  8
SAPA_PROFIL
  6
CONTINUOUS
 62
     7
 10
-77.000000000002856
 20
16.499999999997019
 30
0.0
 42
0.4142135623732074
  0
VERTEX
  5
1B31
  8
SAPA_PROFIL
  6
CONTINUOUS
 62
     7
 10
-77.500000000002856
 20
15.999999999996829
 30
0.0
  0
VERTEX
  5
1B32
  8
SAPA_PROFIL
  6
CONTINUOUS
 62
     7
 10
-77.499999999999034
 20
7.3999999999967327
 30
0.0
 42
-0.4142135623730951
  0
VERTEX
  5
1B33
  8
SAPA_PROFIL
  6
CONTINUOUS
 62
     7
 10
-77.999999999999034
 20
6.8999999999967327
 30
0.0
  0
VERTEX
  5
1B34
  8
SAPA_PROFIL
  6
CONTINUOUS
 62
     7
 10
-80.299999999999699
 20
6.8999999999967327
 30
0.0
 42
0.4142135623730951
  0
VERTEX
  5
1B35
  8
SAPA_PROFIL
  6
CONTINUOUS
 62
     7
 10
-81.299999999999699
 20
5.8999999999967327
 30
0.0
  0
VERTEX
  5
1B36
  8
SAPA_PROFIL
  6
CONTINUOUS
 62
     7
 10
-81.299999999999699
 20
5.0873697418213304
 30
0.0
 42
0.2216946626429368
  0
VERTEX
  5
1B37
  8
SAPA_PROFIL
  6
CONTINUOUS
 62
     7
 10
-81.192836282905645
 20
4.857556408885638
 30
0.0
  0
VERTEX
  5
1B38
  8
SAPA_PROFIL
  6
CONTINUOUS
 62
     7
 10
-80.492836282905117
 20
4.2701866670610862
 30
0.0
 42
0.6370702608061857
  0
VERTEX
  5
1B39
  8
SAPA_PROFIL
  6
CONTINUOUS
 62
     7
 10
-79.999999999999503
 20
4.4999999999970264
 30
0.0
  0
VERTEX
  5
1B3A
  8
SAPA_PROFIL
  6
CONTINUOUS
 62
     7
 10
-79.999999999999503
 20
5.2999999999972216
 30
0.0
 42
-0.4142135623730951
  0
VERTEX
  5
1B3B
  8
SAPA_PROFIL
  6
CONTINUOUS
 62
     7
 10
-79.699999999999292
 20
5.5999999999974177
 30
0.0
  0
VERTEX
  5
1B3C
  8
SAPA_PROFIL
  6
CONTINUOUS
 62
     7
 10
-75.299999999998761
 20
5.599999999996478
 30
0.0
 42
-0.4142135623730504
  0
VERTEX
  5
1B3D
  8
SAPA_PROFIL
  6
CONTINUOUS
 62
     7
 10
-74.999999999999034
 20
5.2999999999963254
 30
0.0
  0
VERTEX
  5
1B3E
  8
SAPA_PROFIL
  6
CONTINUOUS
 62
     7
 10
-74.999999999999034
 20
-5.3000000000031191
 30
0.0
 42
-0.4142135623730878
  0
VERTEX
  5
1B3F
  8
SAPA_PROFIL
  6
CONTINUOUS
 62
     7
 10
-75.299999999998747
 20
-5.6000000000032939
 30
0.0
  0
VERTEX
  5
1B40
  8
SAPA_PROFIL
  6
CONTINUOUS
 62
     7
 10
-79.699999999999307
 20
-5.6000000000032228
 30
0.0
 42
-0.4142135623735842
  0
VERTEX
  5
1B41
  8
SAPA_PROFIL
  6
CONTINUOUS
 62
     7
 10
-79.999999999999005
 20
-5.3000000000040224
 30
0.0
  0
VERTEX
  5
1B42
  8
SAPA_PROFIL
  6
CONTINUOUS
 62
     7
 10
-79.999999999999503
 20
-4.5000000000020348
 30
0.0
 42
0.6370702608069853
  0
VERTEX
  5
1B43
  8
SAPA_PROFIL
  6
CONTINUOUS
 62
     7
 10
-80.492836282905117
 20
-4.2701866670669482
 30
0.0
  0
VERTEX
  5
1B44
  8
SAPA_PROFIL
  6
CONTINUOUS
 62
     7
 10
-81.192836282905645
 20
-4.8575564088915071
 30
0.0
 42
0.2216946626431
  0
VERTEX
  5
1B45
  8
SAPA_PROFIL
  6
CONTINUOUS
 62
     7
 10
-81.299999999999699
 20
-5.0873697418273913
 30
0.0
  0
VERTEX
  5
1B46
  8
SAPA_PROFIL
  6
CONTINUOUS
 62
     7
 10
-81.299999999999216
 20
-5.9000000000043862
 30
0.0
 42
0.4142135623730951
  0
VERTEX
  5
1B47
  8
SAPA_PROFIL
  6
CONTINUOUS
 62
     7
 10
-80.299999999999216
 20
-6.9000000000043862
 30
0.0
  0
VERTEX
  5
1B48
  8
SAPA_PROFIL
  6
CONTINUOUS
 62
     7
 10
-72.799999999999457
 20
-6.90000000000349
 30
0.0
 42
0.3178372451964626
  0
VERTEX
  5
1B49
  8
SAPA_PROFIL
  6
CONTINUOUS
 62
     7
 10
-72.517157287524611
 20
-6.7000000000027633
 30
0.0
 42
-0.3178372451966722
  0
VERTEX
  5
1B4A
  8
SAPA_PROFIL
  6
CONTINUOUS
 62
     7
 10
-72.234314575049538
 20
-6.5000000000020348
 30
0.0
  0
VERTEX
  5
1B4B
  8
SAPA_PROFIL
  6
CONTINUOUS
 62
     7
 10
-70.799999999999216
 20
-6.5000000000029408
 30
0.0
 42
0.4142135623726539
  0
VERTEX
  5
1B4C
  8
SAPA_PROFIL
  6
CONTINUOUS
 62
     7
 10
-70.499999999999488
 20
-6.2000000000027589
 30
0.0
  0
VERTEX
  5
1B4D
  8
SAPA_PROFIL
  6
CONTINUOUS
 62
     7
 10
-70.499999999999503
 20
-5.6000000000022112
 30
0.0
 42
0.4142135623730836
  0
VERTEX
  5
1B4E
  8
SAPA_PROFIL
  6
CONTINUOUS
 62
     7
 10
-70.799999999999216
 20
-5.300000000002945
 30
0.0
  0
VERTEX
  5
1B4F
  8
SAPA_PROFIL
  6
CONTINUOUS
 62
     7
 10
-72.199999999999307
 20
-5.3000000000029353
 30
0.0
 42
-0.4142135623730951
  0
VERTEX
  5
1B50
  8
SAPA_PROFIL
  6
CONTINUOUS
 62
     7
 10
-72.499999999999474
 20
-5.0000000000027596
 30
0.0
  0
VERTEX
  5
1B51
  8
SAPA_PROFIL
  6
CONTINUOUS
 62
     7
 10
-72.499999999999474
 20
4.9999999999978204
 30
0.0
 42
-0.4142135623730743
  0
VERTEX
  5
1B52
  8
SAPA_PROFIL
  6
CONTINUOUS
 62
     7
 10
-72.199999999999307
 20
5.299999999997028
 30
0.0
  0
VERTEX
  5
1B53
  8
SAPA_PROFIL
  6
CONTINUOUS
 62
     7
 10
-70.799999999999216
 20
5.299999999997917
 30
0.0
 42
0.4142135623721762
  0
VERTEX
  5
1B54
  8
SAPA_PROFIL
  6
CONTINUOUS
 62
     7
 10
-70.499999999999446
 20
5.5999999999972241
 30
0.0
  0
VERTEX
  5
1B55
  8
SAPA_PROFIL
  6
CONTINUOUS
 62
     7
 10
-70.499999999999034
 20
6.1999999999978366
 30
0.0
 42
0.4142135623730534
  0
VERTEX
  5
1B56
  8
SAPA_PROFIL
  6
CONTINUOUS
 62
     7
 10
-70.799999999999201
 20
6.499999999997053
 30
0.0
  0
VERTEX
  5
1B57
  8
SAPA_PROFIL
  6
CONTINUOUS
 62
     7
 10
-72.234314575049922
 20
6.4999999999979412
 30
0.0
 42
-0.3178372451963242
  0
VERTEX
  5
1B58
  8
SAPA_PROFIL
  6
CONTINUOUS
 62
     7
 10
-72.517157287524611
 20
6.6999999999968853
 30
0.0
 42
0.3178372451964607
  0
VERTEX
  5
1B59
  8
SAPA_PROFIL
  6
CONTINUOUS
 62
     7
 10
-72.799999999999443
 20
6.8999999999975978
 30
0.0
  0
VERTEX
  5
1B5A
  8
SAPA_PROFIL
  6
CONTINUOUS
 62
     7
 10
-74.499999999999531
 20
6.8999999999978181
 30
0.0
 42
-0.4142135623730597
  0
VERTEX
  5
1B5B
  8
SAPA_PROFIL
  6
CONTINUOUS
 62
     7
 10
-74.999999999999474
 20
7.3999999999978181
 30
0.0
  0
VERTEX
  5
1B5C
  8
SAPA_PROFIL
  6
CONTINUOUS
 62
     7
 10
-74.999999999999474
 20
12.40192378920503
 30
0.0
 42
-0.2679491923306345
  0
VERTEX
  5
1B5D
  8
SAPA_PROFIL
  6
CONTINUOUS
 62
     7
 10
-74.750000000156362
 20
12.83493649099432
 30
0.0
 42
0.2679491923317589
  0
VERTEX
  5
1B5E
  8
SAPA_PROFIL
  6
CONTINUOUS
 62
     7
 10
-73.500000000956604
 20
14.999999999997019
 30
0.0
  0
VERTEX
  5
1B5F
  8
SAPA_PROFIL
  6
CONTINUOUS
 62
     7
 10
-73.500000000957414
 20
15.999999999997019
 30
0.0
 42
0.4142135623730951
  0
SEQEND
  5
1B60
  8
SAPA_PROFIL
  6
CONTINUOUS
 62
     7
  0
POLYLINE
  5
1591
  8
SAPA_PROFIL
  6
CONTINUOUS
 62
     7
 66
     1
 10
0.0
 20
0.0
 30
0.0
 70
     1
  0
VERTEX
  5
1B61
  8
SAPA_PROFIL
  6
CONTINUOUS
 62
     7
 10
-43.00000000000032
 20
23.20000000000174
 30
0.0
  0
VERTEX
  5
1B62
  8
SAPA_PROFIL
  6
CONTINUOUS
 62
     7
 10
-43.00000000000032
 20
20.499999999991331
 30
0.0
 42
-0.4142135623730951
  0
VERTEX
  5
1B63
  8
SAPA_PROFIL
  6
CONTINUOUS
 62
     7
 10
-43.300000000000317
 20
20.199999999991341
 30
0.0
  0
VERTEX
  5
1B64
  8
SAPA_PROFIL
  6
CONTINUOUS
 62
     7
 10
-44.500000000000732
 20
20.199999999991341
 30
0.0
 42
0.4142135623730931
  0
VERTEX
  5
1B65
  8
SAPA_PROFIL
  6
CONTINUOUS
 62
     7
 10
-45.500000000000732
 20
19.199999999991359
 30
0.0
  0
VERTEX
  5
1B66
  8
SAPA_PROFIL
  6
CONTINUOUS
 62
     7
 10
-45.500000000000767
 20
16.700000000001591
 30
0.0
 42
-0.4142135623739343
  0
VERTEX
  5
1B67
  8
SAPA_PROFIL
  6
CONTINUOUS
 62
     7
 10
-45.800000000000722
 20
16.40000000000072
 30
0.0
  0
VERTEX
  5
1B68
  8
SAPA_PROFIL
  6
CONTINUOUS
 62
     7
 10
-50.200000000000749
 20
16.40000000000072
 30
0.0
 42
-0.4142135623730951
  0
VERTEX
  5
1B69
  8
SAPA_PROFIL
  6
CONTINUOUS
 62
     7
 10
-50.500000000000767
 20
16.70000000000174
 30
0.0
  0
VERTEX
  5
1B6A
  8
SAPA_PROFIL
  6
CONTINUOUS
 62
     7
 10
-50.500000000000362
 20
18.40000000000072
 30
0.0
 42
0.7105995015650853
  0
VERTEX
  5
1B6B
  8
SAPA_PROFIL
  6
CONTINUOUS
 62
     7
 10
-51.035076580435728
 20
18.586384015761698
 30
0.0
  0
VERTEX
  5
1B6C
  8
SAPA_PROFIL
  6
CONTINUOUS
 62
     7
 10
-51.445897150363074
 20
18.068237143795979
 30
0.0
 42
0.1691807452123823
  0
VERTEX
  5
1B6D
  8
SAPA_PROFIL
  6
CONTINUOUS
 62
     7
 10
-51.500000000000711
 20
17.912917130662098
 30
0.0
  0
VERTEX
  5
1B6E
  8
SAPA_PROFIL
  6
CONTINUOUS
 62
     7
 10
-51.50000000000076
 20
10.099999999992731
 30
0.0
 42
0.4142135623760433
  0
VERTEX
  5
1B6F
  8
SAPA_PROFIL
  6
CONTINUOUS
 62
     7
 10
-51.199999999997743
 20
9.7999999999927176
 30
0.0
  0
VERTEX
  5
1B70
  8
SAPA_PROFIL
  6
CONTINUOUS
 62
     7
 10
-33.000000000004128
 20
9.7999999999911296
 30
0.0
 42
0.5773502691893336
  0
VERTEX
  5
1B71
  8
SAPA_PROFIL
  6
CONTINUOUS
 62
     7
 10
-32.740192378868159
 20
10.249999999991751
 30
0.0
  0
VERTEX
  5
1B72
  8
SAPA_PROFIL
  6
CONTINUOUS
 62
     7
 10
-33.317542648061298
 20
11.24999999999465
 30
0.0
 42
0.6629740412223103
  0
VERTEX
  5
1B73
  8
SAPA_PROFIL
  6
CONTINUOUS
 62
     7
 10
-33.86597768494876
 20
11.181818181812179
 30
0.0
 42
-0.3354367396460152
  0
VERTEX
  5
1B74
  8
SAPA_PROFIL
  6
CONTINUOUS
 62
     7
 10
-34.10650053140931
 20
10.99999999999179
 30
0.0
  0
VERTEX
  5
1B75
  8
SAPA_PROFIL
  6
CONTINUOUS
 62
     7
 10
-35.199999999994837
 20
10.99999999999168
 30
0.0
 42
-0.4142135623741014
  0
VERTEX
  5
1B76
  8
SAPA_PROFIL
  6
CONTINUOUS
 62
     7
 10
-35.499999999995872
 20
11.2999999999917
 30
0.0
  0
VERTEX
  5
1B77
  8
SAPA_PROFIL
  6
CONTINUOUS
 62
     7
 10
-35.499999999995893
 20
11.799999999992711
 30
0.0
 42
0.4142135623730466
  0
VERTEX
  5
1B78
  8
SAPA_PROFIL
  6
CONTINUOUS
 62
     7
 10
-35.799999999995848
 20
12.09999999999272
 30
0.0
  0
VERTEX
  5
1B79
  8
SAPA_PROFIL
  6
CONTINUOUS
 62
     7
 10
-36.399999999996901
 20
12.099999999991679
 30
0.0
 42
0.4142135623730951
  0
VERTEX
  5
1B7A
  8
SAPA_PROFIL
  6
CONTINUOUS
 62
     7
 10
-36.69999999999586
 20
11.799999999992719
 30
0.0
  0
VERTEX
  5
1B7B
  8
SAPA_PROFIL
  6
CONTINUOUS
 62
     7
 10
-36.699999999994851
 20
11.39999999999149
 30
0.0
 42
-0.4142135623731088
  0
VERTEX
  5
1B7C
  8
SAPA_PROFIL
  6
CONTINUOUS
 62
     7
 10
-36.999999999994863
 20
11.0999999999915
 30
0.0
  0
VERTEX
  5
1B7D
  8
SAPA_PROFIL
  6
CONTINUOUS
 62
     7
 10
-49.699999999995221
 20
11.0999999999915
 30
0.0
 42
-0.4142135623730847
  0
VERTEX
  5
1B7E
  8
SAPA_PROFIL
  6
CONTINUOUS
 62
     7
 10
-49.999999999995921
 20
11.39999999999149
 30
0.0
  0
VERTEX
  5
1B7F
  8
SAPA_PROFIL
  6
CONTINUOUS
 62
     7
 10
-49.999999999995921
 20
14.60000000000073
 30
0.0
 42
-0.4142135623730951
  0
VERTEX
  5
1B80
  8
SAPA_PROFIL
  6
CONTINUOUS
 62
     7
 10
-49.699999999995207
 20
14.90000000000097
 30
0.0
  0
VERTEX
  5
1B81
  8
SAPA_PROFIL
  6
CONTINUOUS
 62
     7
 10
-45.500000000000817
 20
14.9000000000008
 30
0.0
 42
0.4142135623731122
  0
VERTEX
  5
1B82
  8
SAPA_PROFIL
  6
CONTINUOUS
 62
     7
 10
-44.00000000000076
 20
16.400000000000819
 30
0.0
  0
VERTEX
  5
1B83
  8
SAPA_PROFIL
  6
CONTINUOUS
 62
     7
 10
-44.00000000000081
 20
18.399999999991721
 30
0.0
 42
-0.4142135623730951
  0
VERTEX
  5
1B84
  8
SAPA_PROFIL
  6
CONTINUOUS
 62
     7
 10
-43.700000000000799
 20
18.699999999991729
 30
0.0
  0
VERTEX
  5
1B85
  8
SAPA_PROFIL
  6
CONTINUOUS
 62
     7
 10
-36.999999999998728
 20
18.699999999991739
 30
0.0
 42
-0.4142135623731017
  0
VERTEX
  5
1B86
  8
SAPA_PROFIL
  6
CONTINUOUS
 62
     7
 10
-36.699999999999662
 20
18.39999999999268
 30
0.0
  0
VERTEX
  5
1B87
  8
SAPA_PROFIL
  6
CONTINUOUS
 62
     7
 10
-36.699999999997758
 20
17.79999999999573
 30
0.0
 42
0.4142135623730951
  0
VERTEX
  5
1B88
  8
SAPA_PROFIL
  6
CONTINUOUS
 62
     7
 10
-36.399999999997782
 20
17.49999999999573
 30
0.0
  0
VERTEX
  5
1B89
  8
SAPA_PROFIL
  6
CONTINUOUS
 62
     7
 10
-35.799999999998747
 20
17.499999999994689
 30
0.0
 42
0.4142135623740693
  0
VERTEX
  5
1B8A
  8
SAPA_PROFIL
  6
CONTINUOUS
 62
     7
 10
-35.499999999998721
 20
17.799999999993691
 30
0.0
  0
VERTEX
  5
1B8B
  8
SAPA_PROFIL
  6
CONTINUOUS
 62
     7
 10
-35.499999999998721
 20
18.399999999994701
 30
0.0
 42
-0.4142135623730951
  0
VERTEX
  5
1B8C
  8
SAPA_PROFIL
  6
CONTINUOUS
 62
     7
 10
-35.199999999998731
 20
18.699999999994692
 30
0.0
  0
VERTEX
  5
1B8D
  8
SAPA_PROFIL
  6
CONTINUOUS
 62
     7
 10
-34.239949493650101
 20
18.699999999993612
 30
0.0
 42
-0.2360679774982354
  0
VERTEX
  5
1B8E
  8
SAPA_PROFIL
  6
CONTINUOUS
 62
     7
 10
-34.039949493651079
 20
18.599999999994569
 30
0.0
 42
0.4564120107634379
  0
VERTEX
  5
1B8F
  8
SAPA_PROFIL
  6
CONTINUOUS
 62
     7
 10
-32.532842712472373
 20
18.492893218808099
 30
0.0
  0
VERTEX
  5
1B90
  8
SAPA_PROFIL
  6
CONTINUOUS
 62
     7
 10
-31.637867965644741
 20
19.38786796563571
 30
0.0
 42
0.6681786379193021
  0
VERTEX
  5
1B91
  8
SAPA_PROFIL
  6
CONTINUOUS
 62
     7
 10
-31.850000000000719
 20
19.89999999999171
 30
0.0
  0
VERTEX
  5
1B92
  8
SAPA_PROFIL
  6
CONTINUOUS
 62
     7
 10
-40.199999999999818
 20
19.899999999994701
 30
0.0
 42
-0.4142135623730951
  0
VERTEX
  5
1B93
  8
SAPA_PROFIL
  6
CONTINUOUS
 62
     7
 10
-40.499999999999822
 20
20.199999999994699
 30
0.0
  0
VERTEX
  5
1B94
  8
SAPA_PROFIL
  6
CONTINUOUS
 62
     7
 10
-40.500000000000853
 20
23.199999999994709
 30
0.0
 42
-0.4142135623730951
  0
VERTEX
  5
1B95
  8
SAPA_PROFIL
  6
CONTINUOUS
 62
     7
 10
-40.200000000000848
 20
23.49999999999471
 30
0.0
  0
VERTEX
  5
1B96
  8
SAPA_PROFIL
  6
CONTINUOUS
 62
     7
 10
-35.800000000001553
 20
23.499999999994721
 30
0.0
 42
0.4142135623730951
  0
VERTEX
  5
1B97
  8
SAPA_PROFIL
  6
CONTINUOUS
 62
     7
 10
-35.500000000001563
 20
23.7999999999947
 30
0.0
  0
VERTEX
  5
1B98
  8
SAPA_PROFIL
  6
CONTINUOUS
 62
     7
 10
-35.500000000001549
 20
24.750000000000721
 30
0.0
 42
0.4142135623730951
  0
VERTEX
  5
1B99
  8
SAPA_PROFIL
  6
CONTINUOUS
 62
     7
 10
-35.750000000001549
 20
25.000000000000721
 30
0.0
  0
VERTEX
  5
1B9A
  8
SAPA_PROFIL
  6
CONTINUOUS
 62
     7
 10
-51.199999999997729
 20
25.000000000000721
 30
0.0
 42
0.4142135623750965
  0
VERTEX
  5
1B9B
  8
SAPA_PROFIL
  6
CONTINUOUS
 62
     7
 10
-51.500000000001727
 20
24.699999999994692
 30
0.0
  0
VERTEX
  5
1B9C
  8
SAPA_PROFIL
  6
CONTINUOUS
 62
     7
 10
-51.500000000000739
 20
22.487082869339378
 30
0.0
 42
0.1691807452124803
  0
VERTEX
  5
1B9D
  8
SAPA_PROFIL
  6
CONTINUOUS
 62
     7
 10
-51.445897150362981
 20
22.331762856205462
 30
0.0
  0
VERTEX
  5
1B9E
  8
SAPA_PROFIL
  6
CONTINUOUS
 62
     7
 10
-51.035076580435728
 20
21.813615984240741
 30
0.0
 42
0.7105995015660667
  0
VERTEX
  5
1B9F
  8
SAPA_PROFIL
  6
CONTINUOUS
 62
     7
 10
-50.500000000000711
 20
22.000000000000721
 30
0.0
  0
VERTEX
  5
1BA0
  8
SAPA_PROFIL
  6
CONTINUOUS
 62
     7
 10
-50.500000000000767
 20
23.200000000000738
 30
0.0
 42
-0.4142135623730951
  0
VERTEX
  5
1BA1
  8
SAPA_PROFIL
  6
CONTINUOUS
 62
     7
 10
-50.200000000000749
 20
23.50000000000075
 30
0.0
  0
VERTEX
  5
1BA2
  8
SAPA_PROFIL
  6
CONTINUOUS
 62
     7
 10
-43.300000000000331
 20
23.500000000000721
 30
0.0
 42
-0.4142135623731053
  0
SEQEND
  5
1BA3
  8
SAPA_PROFIL
  6
CONTINUOUS
 62
     7
  0
POLYLINE
  5
1592
  8
SAPA_PROFIL
 66
     1
 10
0.0
 20
0.0
 30
0.0
 70
     1
  0
VERTEX
  5
1BA4
  8
SAPA_PROFIL
 10
-25.000000000002789
 20
-22.600000373537782
 30
0.0
 42
0.767326987974136
  0
VERTEX
  5
1BA5
  8
SAPA_PROFIL
 10
-24.849999999999628
 20
-22.040192752404302
 30
0.0
 42
-0.2679491924279902
  0
VERTEX
  5
1BA6
  8
SAPA_PROFIL
 10
-25.000000000002341
 20
-21.780385131280791
 30
0.0
  0
VERTEX
  5
1BA7
  8
SAPA_PROFIL
 10
-25.000000000001709
 20
-18.800000373537529
 30
0.0
 42
-0.4142135623730395
  0
VERTEX
  5
1BA8
  8
SAPA_PROFIL
 10
-23.500000000001659
 20
-17.30000037353782
 30
0.0
  0
VERTEX
  5
1BA9
  8
SAPA_PROFIL
 10
-22.400000000002262
 20
-17.30000037353782
 30
0.0
 42
-0.4142135623730951
  0
VERTEX
  5
1BAA
  8
SAPA_PROFIL
 10
-22.1000000000023
 20
-17.60000037353754
 30
0.0
  0
VERTEX
  5
1BAB
  8
SAPA_PROFIL
 10
-22.1000000000023
 20
-18.100000373537551
 30
0.0
 42
-0.4142135623730948
  0
VERTEX
  5
1BAC
  8
SAPA_PROFIL
 10
-22.400000000002262
 20
-18.400000373537729
 30
0.0
  0
VERTEX
  5
1BAD
  8
SAPA_PROFIL
 10
-22.736626924636429
 20
-18.400000373537729
 30
0.0
 42
0.5643553431119927
  0
VERTEX
  5
1BAE
  8
SAPA_PROFIL
 10
-20.874395043239371
 20
-22.724395416772019
 30
0.0
  0
VERTEX
  5
1BAF
  8
SAPA_PROFIL
 10
-20.500000000002402
 20
-22.350000373539821
 30
0.0
  0
VERTEX
  5
1BB0
  8
SAPA_PROFIL
 10
-20.125604956769521
 20
-22.724395416772929
 30
0.0
 42
0.564355343112654
  0
VERTEX
  5
1BB1
  8
SAPA_PROFIL
 10
-18.263373075366989
 20
-18.400000373537729
 30
0.0
  0
VERTEX
  5
1BB2
  8
SAPA_PROFIL
 10
-18.600000000002531
 20
-18.400000373537729
 30
0.0
 42
-0.4142135623729843
  0
VERTEX
  5
1BB3
  8
SAPA_PROFIL
 10
-18.900000000002599
 20
-18.100000373537998
 30
0.0
  0
VERTEX
  5
1BB4
  8
SAPA_PROFIL
 10
-18.900000000002478
 20
-17.60000037353754
 30
0.0
 42
-0.4142135623730951
  0
VERTEX
  5
1BB5
  8
SAPA_PROFIL
 10
-18.600000000002531
 20
-17.30000037353782
 30
0.0
  0
VERTEX
  5
1BB6
  8
SAPA_PROFIL
 10
-16.300000000002569
 20
-17.30000037353782
 30
0.0
 42
-0.4142135623732062
  0
VERTEX
  5
1BB7
  8
SAPA_PROFIL
 10
-16.000000000002281
 20
-17.60000037353754
 30
0.0
  0
VERTEX
  5
1BB8
  8
SAPA_PROFIL
 10
-16.000000000002391
 20
-22.000000373537691
 30
0.0
 42
0.4142135623731117
  0
VERTEX
  5
1BB9
  8
SAPA_PROFIL
 10
-15.000000000002389
 20
-23.000000373537809
 30
0.0
  0
VERTEX
  5
1BBA
  8
SAPA_PROFIL
 10
19.999999999995669
 20
-23.000000373538018
 30
0.0
 42
0.7673269879789009
  0
VERTEX
  5
1BBB
  8
SAPA_PROFIL
 10
20.24999999999584
 20
-22.066987671645869
 30
0.0
 42
-0.2679491924311131
  0
VERTEX
  5
1BBC
  8
SAPA_PROFIL
 10
19.999999999995961
 20
-21.633974969753609
 30
0.0
  0
VERTEX
  5
1BBD
  8
SAPA_PROFIL
 10
19.999999999996749
 20
-18.800000373537749
 30
0.0
 42
-0.4142135623730395
  0
VERTEX
  5
1BBE
  8
SAPA_PROFIL
 10
21.49999999999681
 20
-17.30000037353804
 30
0.0
  0
VERTEX
  5
1BBF
  8
SAPA_PROFIL
 10
22.599999999996211
 20
-17.30000037353804
 30
0.0
 42
-0.4142135623730951
  0
VERTEX
  5
1BC0
  8
SAPA_PROFIL
 10
22.899999999996162
 20
-17.60000037353776
 30
0.0
  0
VERTEX
  5
1BC1
  8
SAPA_PROFIL
 10
22.899999999996162
 20
-18.10000037353776
 30
0.0
 42
-0.4142135623730948
  0
VERTEX
  5
1BC2
  8
SAPA_PROFIL
 10
22.599999999996211
 20
-18.400000373537939
 30
0.0
  0
VERTEX
  5
1BC3
  8
SAPA_PROFIL
 10
22.263373075362029
 20
-18.400000373537939
 30
0.0
 42
0.5643553431119927
  0
VERTEX
  5
1BC4
  8
SAPA_PROFIL
 10
24.125604956759101
 20
-22.724395416772229
 30
0.0
  0
VERTEX
  5
1BC5
  8
SAPA_PROFIL
 10
24.499999999996071
 20
-22.350000373540031
 30
0.0
  0
VERTEX
  5
1BC6
  8
SAPA_PROFIL
 10
24.874395043228951
 20
-22.724395416773142
 30
0.0
 42
0.564355343112654
  0
VERTEX
  5
1BC7
  8
SAPA_PROFIL
 10
26.736626924631469
 20
-18.400000373537939
 30
0.0
  0
VERTEX
  5
1BC8
  8
SAPA_PROFIL
 10
26.399999999995941
 20
-18.400000373537939
 30
0.0
 42
-0.4142135623729843
  0
VERTEX
  5
1BC9
  8
SAPA_PROFIL
 10
26.09999999999587
 20
-18.100000373538212
 30
0.0
  0
VERTEX
  5
1BCA
  8
SAPA_PROFIL
 10
26.09999999999598
 20
-17.60000037353776
 30
0.0
 42
-0.4142135623730951
  0
VERTEX
  5
1BCB
  8
SAPA_PROFIL
 10
26.399999999995941
 20
-17.30000037353803
 30
0.0
  0
VERTEX
  5
1BCC
  8
SAPA_PROFIL
 10
28.699999999995889
 20
-17.30000037353803
 30
0.0
 42
-0.4142135623732062
  0
VERTEX
  5
1BCD
  8
SAPA_PROFIL
 10
28.999999999996181
 20
-17.60000037353776
 30
0.0
  0
VERTEX
  5
1BCE
  8
SAPA_PROFIL
 10
28.999999999996071
 20
-22.000000373537912
 30
0.0
 42
0.4142135623730951
  0
VERTEX
  5
1BCF
  8
SAPA_PROFIL
 10
29.999999999996071
 20
-23.000000373537912
 30
0.0
  0
VERTEX
  5
1BD0
  8
SAPA_PROFIL
 10
34.699999999996457
 20
-23.000000373538079
 30
0.0
 42
0.4142135623730984
  0
VERTEX
  5
1BD1
  8
SAPA_PROFIL
 10
34.999999999996469
 20
-22.700000373538071
 30
0.0
  0
VERTEX
  5
1BD2
  8
SAPA_PROFIL
 10
34.999999999996469
 20
-21.400000373538049
 30
0.0
 42
-0.4142135623730951
  0
VERTEX
  5
1BD3
  8
SAPA_PROFIL
 10
35.29999999999648
 20
-21.100000373538041
 30
0.0
  0
VERTEX
  5
1BD4
  8
SAPA_PROFIL
 10
35.875735931284503
 20
-21.100000373538041
 30
0.0
 42
-0.198912367379637
  0
VERTEX
  5
1BD5
  8
SAPA_PROFIL
 10
36.087867965640491
 20
-21.187868339182071
 30
0.0
  0
VERTEX
  5
1BD6
  8
SAPA_PROFIL
 10
37.812132034352253
 20
-22.912132407893939
 30
0.0
 42
0.1989123673796579
  0
VERTEX
  5
1BD7
  8
SAPA_PROFIL
 10
38.024264068708241
 20
-23.000000373537969
 30
0.0
  0
VERTEX
  5
1BD8
  8
SAPA_PROFIL
 10
41.499999999996582
 20
-23.000000373538018
 30
0.0
 42
0.4142135623730951
  0
VERTEX
  5
1BD9
  8
SAPA_PROFIL
 10
42.499999999996582
 20
-22.000000373538018
 30
0.0
  0
VERTEX
  5
1BDA
  8
SAPA_PROFIL
 10
42.499999999996568
 20
21.999999626461861
 30
0.0
 42
0.4142135623730951
  0
VERTEX
  5
1BDB
  8
SAPA_PROFIL
 10
41.499999999996561
 20
22.999999626461861
 30
0.0
  0
VERTEX
  5
1BDC
  8
SAPA_PROFIL
 10
38.02426406870817
 20
22.999999626461811
 30
0.0
 42
0.1989123673796579
  0
VERTEX
  5
1BDD
  8
SAPA_PROFIL
 10
37.812132034352182
 20
22.912131660817781
 30
0.0
  0
VERTEX
  5
1BDE
  8
SAPA_PROFIL
 10
36.087867965640541
 20
21.18786759210597
 30
0.0
 42
-0.198912367379658
  0
VERTEX
  5
1BDF
  8
SAPA_PROFIL
 10
35.875735931284552
 20
21.09999962646194
 30
0.0
  0
VERTEX
  5
1BE0
  8
SAPA_PROFIL
 10
35.299999999996473
 20
21.09999962646194
 30
0.0
 42
-0.4142135623730951
  0
VERTEX
  5
1BE1
  8
SAPA_PROFIL
 10
34.999999999996461
 20
21.399999626461959
 30
0.0
  0
VERTEX
  5
1BE2
  8
SAPA_PROFIL
 10
34.999999999996461
 20
22.69999962646185
 30
0.0
 42
0.4142135623730984
  0
VERTEX
  5
1BE3
  8
SAPA_PROFIL
 10
34.699999999996443
 20
22.999999626461861
 30
0.0
  0
VERTEX
  5
1BE4
  8
SAPA_PROFIL
 10
29.99999999999606
 20
22.999999626461751
 30
0.0
 42
0.4142135623730951
  0
VERTEX
  5
1BE5
  8
SAPA_PROFIL
 10
28.99999999999606
 20
21.999999626461751
 30
0.0
  0
VERTEX
  5
1BE6
  8
SAPA_PROFIL
 10
28.99999999999617
 20
17.599999626461599
 30
0.0
 42
-0.4142135623732062
  0
VERTEX
  5
1BE7
  8
SAPA_PROFIL
 10
28.699999999995871
 20
17.299999626461869
 30
0.0
  0
VERTEX
  5
1BE8
  8
SAPA_PROFIL
 10
26.39999999999592
 20
17.299999626461869
 30
0.0
 42
-0.4142135623730951
  0
VERTEX
  5
1BE9
  8
SAPA_PROFIL
 10
26.099999999995969
 20
17.599999626461599
 30
0.0
  0
VERTEX
  5
1BEA
  8
SAPA_PROFIL
 10
26.099999999995848
 20
18.099999626462051
 30
0.0
 42
-0.414213562372984
  0
VERTEX
  5
1BEB
  8
SAPA_PROFIL
 10
26.39999999999592
 20
18.399999626461781
 30
0.0
  0
VERTEX
  5
1BEC
  8
SAPA_PROFIL
 10
26.736626924631459
 20
18.399999626461781
 30
0.0
 42
0.5643553431126542
  0
VERTEX
  5
1BED
  8
SAPA_PROFIL
 10
24.87439504322894
 20
22.724394669696981
 30
0.0
  0
VERTEX
  5
1BEE
  8
SAPA_PROFIL
 10
24.49999999999606
 20
22.34999962646388
 30
0.0
  0
VERTEX
  5
1BEF
  8
SAPA_PROFIL
 10
24.12560495675908
 20
22.724394669696078
 30
0.0
 42
0.5643553431119927
  0
VERTEX
  5
1BF0
  8
SAPA_PROFIL
 10
22.263373075362018
 20
18.399999626461781
 30
0.0
  0
VERTEX
  5
1BF1
  8
SAPA_PROFIL
 10
22.599999999996189
 20
18.399999626461781
 30
0.0
 42
-0.414213562373095
  0
VERTEX
  5
1BF2
  8
SAPA_PROFIL
 10
22.899999999996151
 20
18.099999626461599
 30
0.0
  0
VERTEX
  5
1BF3
  8
SAPA_PROFIL
 10
22.899999999996151
 20
17.599999626461599
 30
0.0
 42
-0.4142135623730953
  0
VERTEX
  5
1BF4
  8
SAPA_PROFIL
 10
22.599999999996189
 20
17.299999626461869
 30
0.0
  0
VERTEX
  5
1BF5
  8
SAPA_PROFIL
 10
21.499999999996799
 20
17.299999626461648
 30
0.0
 42
-0.4142135623730508
  0
VERTEX
  5
1BF6
  8
SAPA_PROFIL
 10
19.999999999996739
 20
18.799999626461361
 30
0.0
  0
VERTEX
  5
1BF7
  8
SAPA_PROFIL
 10
19.999999999996
 20
21.633974222677221
 30
0.0
 42
-0.2679491924311283
  0
VERTEX
  5
1BF8
  8
SAPA_PROFIL
 10
20.249999999995829
 20
22.066986924569481
 30
0.0
 42
0.7673269879788167
  0
VERTEX
  5
1BF9
  8
SAPA_PROFIL
 10
19.999999999995659
 20
22.999999626461641
 30
0.0
  0
VERTEX
  5
1BFA
  8
SAPA_PROFIL
 10
-15.000000000002411
 20
22.999999626461399
 30
0.0
 42
0.4142135623730951
  0
VERTEX
  5
1BFB
  8
SAPA_PROFIL
 10
-16.000000000002409
 20
21.999999626461399
 30
0.0
  0
VERTEX
  5
1BFC
  8
SAPA_PROFIL
 10
-16.000000000002292
 20
17.599999626461251
 30
0.0
 42
-0.4142135623732062
  0
VERTEX
  5
1BFD
  8
SAPA_PROFIL
 10
-16.300000000002591
 20
17.299999626461521
 30
0.0
  0
VERTEX
  5
1BFE
  8
SAPA_PROFIL
 10
-18.600000000002542
 20
17.299999626461521
 30
0.0
 42
-0.4142135623730951
  0
VERTEX
  5
1BFF
  8
SAPA_PROFIL
 10
-18.9000000000025
 20
17.599999626461251
 30
0.0
  0
VERTEX
  5
1C00
  8
SAPA_PROFIL
 10
-18.90000000000261
 20
18.099999626461699
 30
0.0
 42
-0.414213562372984
  0
VERTEX
  5
1C01
  8
SAPA_PROFIL
 10
-18.600000000002542
 20
18.39999962646143
 30
0.0
  0
VERTEX
  5
1C02
  8
SAPA_PROFIL
 10
-18.263373075366999
 20
18.39999962646143
 30
0.0
 42
0.5643553431126542
  0
VERTEX
  5
1C03
  8
SAPA_PROFIL
 10
-20.125604956769529
 20
22.724394669696629
 30
0.0
  0
VERTEX
  5
1C04
  8
SAPA_PROFIL
 10
-20.500000000002409
 20
22.349999626463521
 30
0.0
  0
VERTEX
  5
1C05
  8
SAPA_PROFIL
 10
-20.874395043239382
 20
22.72439466969572
 30
0.0
 42
0.5643553431119927
  0
VERTEX
  5
1C06
  8
SAPA_PROFIL
 10
-22.73662692463645
 20
18.39999962646143
 30
0.0
  0
VERTEX
  5
1C07
  8
SAPA_PROFIL
 10
-22.400000000002269
 20
18.39999962646143
 30
0.0
 42
-0.414213562373095
  0
VERTEX
  5
1C08
  8
SAPA_PROFIL
 10
-22.100000000002321
 20
18.099999626461251
 30
0.0
  0
VERTEX
  5
1C09
  8
SAPA_PROFIL
 10
-22.100000000002321
 20
17.599999626461251
 30
0.0
 42
-0.4142135623730951
  0
VERTEX
  5
1C0A
  8
SAPA_PROFIL
 10
-22.400000000002269
 20
17.29999962646141
 30
0.0
  0
VERTEX
  5
1C0B
  8
SAPA_PROFIL
 10
-23.50000000000167
 20
17.29999962646141
 30
0.0
 42
-0.4142135623730508
  0
VERTEX
  5
1C0C
  8
SAPA_PROFIL
 10
-25.00000000000173
 20
18.799999626461119
 30
0.0
  0
VERTEX
  5
1C0D
  8
SAPA_PROFIL
 10
-25.000000000002348
 20
21.780384384204378
 30
0.0
 42
-0.2679491924279903
  0
VERTEX
  5
1C0E
  8
SAPA_PROFIL
 10
-24.84999999999965
 20
22.040192005327889
 30
0.0
 42
0.767326987974136
  0
VERTEX
  5
1C0F
  8
SAPA_PROFIL
 10
-25.00000000000281
 20
22.599999626461418
 30
0.0
  0
VERTEX
  5
1C10
  8
SAPA_PROFIL
 10
-27.00000000000173
 20
22.599999626461361
 30
0.0
 42
0.4142135623730951
  0
VERTEX
  5
1C11
  8
SAPA_PROFIL
 10
-28.00000000000173
 20
21.599999626461361
 30
0.0
  0
VERTEX
  5
1C12
  8
SAPA_PROFIL
 10
-28.000000000001709
 20
-21.600000373537771
 30
0.0
 42
0.4142135623731284
  0
VERTEX
  5
1C13
  8
SAPA_PROFIL
 10
-27.00000000000172
 20
-22.600000373537888
 30
0.0
  0
SEQEND
  5
1C14
  8
SAPA_PROFIL
  0
POLYLINE
  5
1593
  8
SAPA_PROFIL
 66
     1
 10
0.0
 20
0.0
 30
0.0
 70
     1
  0
VERTEX
  5
1C15
  8
SAPA_PROFIL
 10
-30.999999999011681
 20
2.6999996264622932
 30
0.0
  0
VERTEX
  5
1C16
  8
SAPA_PROFIL
 10
-31.249999999011681
 20
2.6999996264622932
 30
0.0
  0
VERTEX
  5
1C17
  8
SAPA_PROFIL
 10
-31.249999999011742
 20
2.3499996264623841
 30
0.0
 42
-0.5450207774094042
  0
VERTEX
  5
1C18
  8
SAPA_PROFIL
 10
-31.673765403337221
 20
2.0767193222103719
 30
0.0
  0
VERTEX
  5
1C19
  8
SAPA_PROFIL
 10
-33.04999999901186
 20
2.6999996264622932
 30
0.0
  0
VERTEX
  5
1C1A
  8
SAPA_PROFIL
 10
-33.049999999011973
 20
2.3499996264623841
 30
0.0
 42
-0.5450207774090177
  0
VERTEX
  5
1C1B
  8
SAPA_PROFIL
 10
-33.473765403337048
 20
2.0767193222102591
 30
0.0
  0
VERTEX
  5
1C1C
  8
SAPA_PROFIL
 10
-34.849999999011821
 20
2.6999996264622932
 30
0.0
  0
VERTEX
  5
1C1D
  8
SAPA_PROFIL
 10
-34.849999999011871
 20
2.3499996264623841
 30
0.0
 42
-0.5450207774094042
  0
VERTEX
  5
1C1E
  8
SAPA_PROFIL
 10
-35.27376540333735
 20
2.0767193222103719
 30
0.0
  0
VERTEX
  5
1C1F
  8
SAPA_PROFIL
 10
-36.649999999011769
 20
2.6999996264622932
 30
0.0
  0
VERTEX
  5
1C20
  8
SAPA_PROFIL
 10
-36.649999999011769
 20
2.3499996264623841
 30
0.0
 42
-0.545020777409516
  0
VERTEX
  5
1C21
  8
SAPA_PROFIL
 10
-37.073765403337418
 20
2.0767193222103719
 30
0.0
  0
VERTEX
  5
1C22
  8
SAPA_PROFIL
 10
-38.449999999011951
 20
2.6999996264622932
 30
0.0
  0
VERTEX
  5
1C23
  8
SAPA_PROFIL
 10
-38.449999999011951
 20
2.3499996264623841
 30
0.0
 42
-0.545020777409516
  0
VERTEX
  5
1C24
  8
SAPA_PROFIL
 10
-38.8737654033376
 20
2.0767193222103719
 30
0.0
  0
VERTEX
  5
1C25
  8
SAPA_PROFIL
 10
-40.249999999012132
 20
2.6999996264622932
 30
0.0
  0
VERTEX
  5
1C26
  8
SAPA_PROFIL
 10
-40.249999999012132
 20
2.3499996264623841
 30
0.0
 42
-0.5450207774090177
  0
VERTEX
  5
1C27
  8
SAPA_PROFIL
 10
-40.67376540333732
 20
2.0767193222102591
 30
0.0
  0
VERTEX
  5
1C28
  8
SAPA_PROFIL
 10
-41.449999999011951
 20
2.4282667520477261
 30
0.0
  0
VERTEX
  5
1C29
  8
SAPA_PROFIL
 10
-41.449999999012007
 20
-1.0006707898188369
 30
0.0
  0
VERTEX
  5
1C2A
  8
SAPA_PROFIL
 10
-41.449999999012007
 20
-2.7000003735378
 30
0.0
  0
VERTEX
  5
1C2B
  8
SAPA_PROFIL
 10
-41.149999999012003
 20
-2.7000003735378
 30
0.0
  0
VERTEX
  5
1C2C
  8
SAPA_PROFIL
 10
-39.773765403337691
 20
-2.0767200692854249
 30
0.0
 42
-0.5450207774093642
  0
VERTEX
  5
1C2D
  8
SAPA_PROFIL
 10
-39.349999999012269
 20
-2.350000373537664
 30
0.0
  0
VERTEX
  5
1C2E
  8
SAPA_PROFIL
 10
-39.349999999012041
 20
-2.7000003735378
 30
0.0
  0
VERTEX
  5
1C2F
  8
SAPA_PROFIL
 10
-37.973765403337509
 20
-2.0767200692855949
 30
0.0
 42
-0.5450207774088696
  0
VERTEX
  5
1C30
  8
SAPA_PROFIL
 10
-37.549999999012321
 20
-2.350000373537664
 30
0.0
  0
VERTEX
  5
1C31
  8
SAPA_PROFIL
 10
-37.549999999012087
 20
-2.7000003735378
 30
0.0
  0
VERTEX
  5
1C32
  8
SAPA_PROFIL
 10
-36.173765403337562
 20
-2.0767200692855949
 30
0.0
 42
-0.5450207774094402
  0
VERTEX
  5
1C33
  8
SAPA_PROFIL
 10
-35.749999999012253
 20
-2.35000037353766
 30
0.0
  0
VERTEX
  5
1C34
  8
SAPA_PROFIL
 10
-35.749999999012132
 20
-2.7000003735377969
 30
0.0
  0
VERTEX
  5
1C35
  8
SAPA_PROFIL
 10
-34.373765403337828
 20
-2.0767200692854209
 30
0.0
 42
-0.5450207774093642
  0
VERTEX
  5
1C36
  8
SAPA_PROFIL
 10
-33.949999999012412
 20
-2.35000037353766
 30
0.0
  0
VERTEX
  5
1C37
  8
SAPA_PROFIL
 10
-33.949999999012178
 20
-2.7000003735377969
 30
0.0
  0
VERTEX
  5
1C38
  8
SAPA_PROFIL
 10
-32.573765403337653
 20
-2.0767200692855918
 30
0.0
 42
-0.5450207774088696
  0
VERTEX
  5
1C39
  8
SAPA_PROFIL
 10
-32.149999999012508
 20
-2.35000037353766
 30
0.0
  0
VERTEX
  5
1C3A
  8
SAPA_PROFIL
 10
-32.149999999011769
 20
-2.7000003735377969
 30
0.0
  0
VERTEX
  5
1C3B
  8
SAPA_PROFIL
 10
-30.999999999011681
 20
-2.7000003735377969
 30
0.0
 42
0.4142135623730951
  0
VERTEX
  5
1C3C
  8
SAPA_PROFIL
 10
-29.999999999011681
 20
-1.7000003735377971
 30
0.0
  0
VERTEX
  5
1C3D
  8
SAPA_PROFIL
 10
-29.999999999011681
 20
1.699999626462293
 30
0.0
 42
0.4142135623730951
  0
SEQEND
  5
1C3E
  8
SAPA_PROFIL
  0
POLYLINE
  5
1594
  8
SAPA_PROFIL
 66
     1
 10
0.0
 20
0.0
 30
0.0
 70
     1
  0
VERTEX
  5
1C3F
  8
SAPA_PROFIL
 10
-30.000000000001659
 20
-16.70000037353865
 30
0.0
  0
VERTEX
  5
1C40
  8
SAPA_PROFIL
 10
-30.000000000001659
 20
-23.200000373538309
 30
0.0
 42
-0.4142135623732062
  0
VERTEX
  5
1C41
  8
SAPA_PROFIL
 10
-30.300000000001731
 20
-23.50000037353826
 30
0.0
  0
VERTEX
  5
1C42
  8
SAPA_PROFIL
 10
-34.200000000001481
 20
-23.50000037353826
 30
0.0
 42
-0.4142135623730951
  0
VERTEX
  5
1C43
  8
SAPA_PROFIL
 10
-34.500000000001442
 20
-23.200000373538309
 30
0.0
  0
VERTEX
  5
1C44
  8
SAPA_PROFIL
 10
-34.500000000001549
 20
-22.00000037353843
 30
0.0
 42
0.7105995015650612
  0
VERTEX
  5
1C45
  8
SAPA_PROFIL
 10
-35.03507658043641
 20
-21.813616357777601
 30
0.0
  0
VERTEX
  5
1C46
  8
SAPA_PROFIL
 10
-35.283588601450859
 20
-22.127051798357321
 30
0.0
 42
0.169180745212488
  0
VERTEX
  5
1C47
  8
SAPA_PROFIL
 10
-35.500000000001663
 20
-22.748331850893219
 30
0.0
  0
VERTEX
  5
1C48
  8
SAPA_PROFIL
 10
-35.500000000001542
 20
-24.700000373538479
 30
0.0
 42
0.4142135623730951
  0
VERTEX
  5
1C49
  8
SAPA_PROFIL
 10
-35.200000000001587
 20
-25.000000373538441
 30
0.0
  0
VERTEX
  5
1C4A
  8
SAPA_PROFIL
 10
43.999999999996533
 20
-25.000000373538079
 30
0.0
 42
0.4142135623730951
  0
VERTEX
  5
1C4B
  8
SAPA_PROFIL
 10
44.499999999996518
 20
-24.500000373538079
 30
0.0
  0
VERTEX
  5
1C4C
  8
SAPA_PROFIL
 10
44.499999999996511
 20
24.499999626461921
 30
0.0
 42
0.4142135623730951
  0
VERTEX
  5
1C4D
  8
SAPA_PROFIL
 10
43.999999999996511
 20
24.999999626461921
 30
0.0
  0
VERTEX
  5
1C4E
  8
SAPA_PROFIL
 10
-35.200000000001722
 20
24.999999626462021
 30
0.0
 42
0.4142135623730951
  0
VERTEX
  5
1C4F
  8
SAPA_PROFIL
 10
-35.50000000000167
 20
24.69999962646207
 30
0.0
  0
VERTEX
  5
1C50
  8
SAPA_PROFIL
 10
-35.500000000001663
 20
22.74833110381697
 30
0.0
 42
0.1691807452125303
  0
VERTEX
  5
1C51
  8
SAPA_PROFIL
 10
-35.283588601450752
 20
22.127051051280969
 30
0.0
  0
VERTEX
  5
1C52
  8
SAPA_PROFIL
 10
-35.035076580436296
 20
21.813615610701302
 30
0.0
 42
0.7105995015650845
  0
VERTEX
  5
1C53
  8
SAPA_PROFIL
 10
-34.500000000001663
 20
21.999999626462021
 30
0.0
  0
VERTEX
  5
1C54
  8
SAPA_PROFIL
 10
-34.500000000001663
 20
23.199999626461949
 30
0.0
 42
-0.4142135623732061
  0
VERTEX
  5
1C55
  8
SAPA_PROFIL
 10
-34.200000000001602
 20
23.499999626461911
 30
0.0
  0
VERTEX
  5
1C56
  8
SAPA_PROFIL
 10
-30.300000000001852
 20
23.499999626461911
 30
0.0
 42
-0.4142135623732061
  0
VERTEX
  5
1C57
  8
SAPA_PROFIL
 10
-30.00000000000178
 20
23.199999626461949
 30
0.0
  0
VERTEX
  5
1C58
  8
SAPA_PROFIL
 10
-30.00000000000167
 20
16.699999626462009
 30
0.0
 42
-0.4142135623730951
  0
VERTEX
  5
1C59
  8
SAPA_PROFIL
 10
-30.50000000000167
 20
16.199999626462009
 30
0.0
  0
VERTEX
  5
1C5A
  8
SAPA_PROFIL
 10
-34.200000000001481
 20
16.199999626461889
 30
0.0
 42
-0.4142135623733172
  0
VERTEX
  5
1C5B
  8
SAPA_PROFIL
 10
-34.500000000001663
 20
16.499999626462081
 30
0.0
  0
VERTEX
  5
1C5C
  8
SAPA_PROFIL
 10
-34.500000000001442
 20
18.399999626461991
 30
0.0
 42
0.7105995015650612
  0
VERTEX
  5
1C5D
  8
SAPA_PROFIL
 10
-35.035076580436296
 20
18.586383642222831
 30
0.0
  0
VERTEX
  5
1C5E
  8
SAPA_PROFIL
 10
-35.283588601450752
 20
18.272948201643281
 30
0.0
 42
0.1691807452125303
  0
VERTEX
  5
1C5F
  8
SAPA_PROFIL
 10
-35.500000000001663
 20
17.65166814910727
 30
0.0
  0
VERTEX
  5
1C60
  8
SAPA_PROFIL
 10
-35.500000000001663
 20
11.29999962646197
 30
0.0
 42
0.4142135623728731
  0
VERTEX
  5
1C61
  8
SAPA_PROFIL
 10
-35.200000000001708
 20
10.999999626462021
 30
0.0
  0
VERTEX
  5
1C62
  8
SAPA_PROFIL
 10
-34.500000000001442
 20
10.99999962646225
 30
0.0
 42
0.4142135623730951
  0
VERTEX
  5
1C63
  8
SAPA_PROFIL
 10
-34.200000000001481
 20
11.299999626462199
 30
0.0
  0
VERTEX
  5
1C64
  8
SAPA_PROFIL
 10
-34.200000000001481
 20
14.19999962646178
 30
0.0
 42
-0.4142135623730951
  0
VERTEX
  5
1C65
  8
SAPA_PROFIL
 10
-33.700000000001481
 20
14.69999962646178
 30
0.0
  0
VERTEX
  5
1C66
  8
SAPA_PROFIL
 10
-30.50000000000167
 20
14.699999626462009
 30
0.0
 42
-0.4142135623731617
  0
VERTEX
  5
1C67
  8
SAPA_PROFIL
 10
-30.00000000000167
 20
14.199999626462009
 30
0.0
  0
VERTEX
  5
1C68
  8
SAPA_PROFIL
 10
-30.00000000000189
 20
5.9999996264625892
 30
0.0
 42
-0.4142135623730951
  0
VERTEX
  5
1C69
  8
SAPA_PROFIL
 10
-31.00000000000189
 20
4.9999996264625892
 30
0.0
  0
VERTEX
  5
1C6A
  8
SAPA_PROFIL
 10
-52.19999999901178
 20
4.9999996264623539
 30
0.0
 42
0.4142135623730951
  0
VERTEX
  5
1C6B
  8
SAPA_PROFIL
 10
-52.499999999011791
 20
4.6999996264623434
 30
0.0
  0
VERTEX
  5
1C6C
  8
SAPA_PROFIL
 10
-52.499999999011742
 20
3.075010156175622
 30
0.0
  0
VERTEX
  5
1C6D
  8
SAPA_PROFIL
 10
-51.535790539647749
 20
2.2144747773913451
 30
0.0
 42
0.6264792893017398
  0
VERTEX
  5
1C6E
  8
SAPA_PROFIL
 10
-51.049999999012307
 20
2.4500206858894131
 30
0.0
  0
VERTEX
  5
1C6F
  8
SAPA_PROFIL
 10
-51.049999999012087
 20
2.6999996264623429
 30
0.0
  0
VERTEX
  5
1C70
  8
SAPA_PROFIL
 10
-49.673765403337782
 20
2.176719322210217
 30
0.0
 42
0.5450207774090681
  0
VERTEX
  5
1C71
  8
SAPA_PROFIL
 10
-49.249999999012239
 20
2.4499996264623429
 30
0.0
  0
VERTEX
  5
1C72
  8
SAPA_PROFIL
 10
-49.249999999012132
 20
2.6999996264622861
 30
0.0
  0
VERTEX
  5
1C73
  8
SAPA_PROFIL
 10
-47.873765403337828
 20
2.1767193222103312
 30
0.0
 42
0.545020777409516
  0
VERTEX
  5
1C74
  8
SAPA_PROFIL
 10
-47.449999999012171
 20
2.4499996264623429
 30
0.0
  0
VERTEX
  5
1C75
  8
SAPA_PROFIL
 10
-47.449999999012171
 20
2.6999996264622861
 30
0.0
  0
VERTEX
  5
1C76
  8
SAPA_PROFIL
 10
-46.073765403337532
 20
2.176719322210217
 30
0.0
 42
0.5450207774091295
  0
VERTEX
  5
1C77
  8
SAPA_PROFIL
 10
-45.649999999012273
 20
2.4499996264623429
 30
0.0
  0
VERTEX
  5
1C78
  8
SAPA_PROFIL
 10
-45.649999999012223
 20
2.6999996264622861
 30
0.0
  0
VERTEX
  5
1C79
  8
SAPA_PROFIL
 10
-44.273765403337691
 20
2.1767193222103312
 30
0.0
 42
0.545020777409516
  0
VERTEX
  5
1C7A
  8
SAPA_PROFIL
 10
-43.849999999012041
 20
2.44999962646235
 30
0.0
  0
VERTEX
  5
1C7B
  8
SAPA_PROFIL
 10
-43.849999999012041
 20
2.6999996264622932
 30
0.0
  0
VERTEX
  5
1C7C
  8
SAPA_PROFIL
 10
-43.182570825615542
 20
2.4460464742920389
 30
0.0
 42
-0.3492695052203141
  0
VERTEX
  5
1C7D
  8
SAPA_PROFIL
 10
-42.949999999012121
 20
2.1537224989238761
 30
0.0
  0
VERTEX
  5
1C7E
  8
SAPA_PROFIL
 10
-42.949999999012121
 20
1.2649106905294261
 30
0.0
 42
0.3475404855924057
  0
VERTEX
  5
1C7F
  8
SAPA_PROFIL
 10
-42.719230768242831
 20
0.9730081372830667
 30
0.0
 42
-0.7905694150422074
  0
VERTEX
  5
1C80
  8
SAPA_PROFIL
 10
-42.719230768243001
 20
-0.9730088843599382
 30
0.0
 42
0.3475404855923888
  0
VERTEX
  5
1C81
  8
SAPA_PROFIL
 10
-42.949999999012121
 20
-1.26491143760715
 30
0.0
  0
VERTEX
  5
1C82
  8
SAPA_PROFIL
 10
-42.949999999012
 20
-1.876720069285664
 30
0.0
 42
-0.4142135623730951
  0
VERTEX
  5
1C83
  8
SAPA_PROFIL
 10
-43.249999999012012
 20
-2.176720069285675
 30
0.0
  0
VERTEX
  5
1C84
  8
SAPA_PROFIL
 10
-43.373765403337593
 20
-2.1767200692856181
 30
0.0
  0
VERTEX
  5
1C85
  8
SAPA_PROFIL
 10
-44.749999999012132
 20
-2.7000003735378
 30
0.0
  0
VERTEX
  5
1C86
  8
SAPA_PROFIL
 10
-44.749999999012353
 20
-2.4500003735376299
 30
0.0
 42
0.5450207774088696
  0
VERTEX
  5
1C87
  8
SAPA_PROFIL
 10
-45.173765403337562
 20
-2.1767200692855608
 30
0.0
  0
VERTEX
  5
1C88
  8
SAPA_PROFIL
 10
-46.549999999012087
 20
-2.7000003735378
 30
0.0
  0
VERTEX
  5
1C89
  8
SAPA_PROFIL
 10
-46.549999999012307
 20
-2.4500003735376299
 30
0.0
 42
0.5450207774091855
  0
VERTEX
  5
1C8A
  8
SAPA_PROFIL
 10
-46.97376540333768
 20
-2.176720069285504
 30
0.0
  0
VERTEX
  5
1C8B
  8
SAPA_PROFIL
 10
-48.349999999012041
 20
-2.7000003735378
 30
0.0
  0
VERTEX
  5
1C8C
  8
SAPA_PROFIL
 10
-48.349999999012041
 20
-2.4500003735376299
 30
0.0
 42
0.5450207774093374
  0
VERTEX
  5
1C8D
  8
SAPA_PROFIL
 10
-48.773765403337627
 20
-2.1767200692857318
 30
0.0
  0
VERTEX
  5
1C8E
  8
SAPA_PROFIL
 10
-50.149999999012223
 20
-2.7000003735378
 30
0.0
  0
VERTEX
  5
1C8F
  8
SAPA_PROFIL
 10
-50.149999999011818
 20
-2.1499793141106061
 30
0.0
  0
VERTEX
  5
1C90
  8
SAPA_PROFIL
 10
-51.347075010161362
 20
-2.1499793141105492
 30
0.0
 42
0.1681572645226206
  0
VERTEX
  5
1C91
  8
SAPA_PROFIL
 10
-51.532521788160587
 20
-2.2141626638720981
 30
0.0
  0
VERTEX
  5
1C92
  8
SAPA_PROFIL
 10
-52.499999999011671
 20
-3.0749898438243539
 30
0.0
  0
VERTEX
  5
1C93
  8
SAPA_PROFIL
 10
-52.499999999011742
 20
-4.7000003735403046
 30
0.0
 42
0.4142135623730951
  0
VERTEX
  5
1C94
  8
SAPA_PROFIL
 10
-52.19999999901173
 20
-5.000000373540316
 30
0.0
  0
VERTEX
  5
1C95
  8
SAPA_PROFIL
 10
-31.00000000000178
 20
-5.0000003735401393
 30
0.0
 42
-0.4142135623730951
  0
VERTEX
  5
1C96
  8
SAPA_PROFIL
 10
-30.00000000000178
 20
-6.0000003735401393
 30
0.0
  0
VERTEX
  5
1C97
  8
SAPA_PROFIL
 10
-30.000000000001659
 20
-14.200000373538529
 30
0.0
 42
-0.4142135623730951
  0
VERTEX
  5
1C98
  8
SAPA_PROFIL
 10
-30.500000000001659
 20
-14.700000373538529
 30
0.0
  0
VERTEX
  5
1C99
  8
SAPA_PROFIL
 10
-33.700000000001708
 20
-14.700000373538529
 30
0.0
 42
-0.4142135623730951
  0
VERTEX
  5
1C9A
  8
SAPA_PROFIL
 10
-34.200000000001708
 20
-14.200000373538529
 30
0.0
  0
VERTEX
  5
1C9B
  8
SAPA_PROFIL
 10
-34.200000000001481
 20
-11.300000373538611
 30
0.0
 42
0.4142135623730951
  0
VERTEX
  5
1C9C
  8
SAPA_PROFIL
 10
-34.500000000001442
 20
-11.00000037353866
 30
0.0
  0
VERTEX
  5
1C9D
  8
SAPA_PROFIL
 10
-35.200000000001587
 20
-11.000000373538541
 30
0.0
 42
0.4142135623730951
  0
VERTEX
  5
1C9E
  8
SAPA_PROFIL
 10
-35.500000000001663
 20
-11.30000037353839
 30
0.0
  0
VERTEX
  5
1C9F
  8
SAPA_PROFIL
 10
-35.500000000001549
 20
-17.651668896183679
 30
0.0
 42
0.1691807452124953
  0
VERTEX
  5
1CA0
  8
SAPA_PROFIL
 10
-35.283588601450688
 20
-18.272948948719581
 30
0.0
  0
VERTEX
  5
1CA1
  8
SAPA_PROFIL
 10
-35.035076580436296
 20
-18.586384389299251
 30
0.0
 42
0.7105995015650612
  0
VERTEX
  5
1CA2
  8
SAPA_PROFIL
 10
-34.500000000001442
 20
-18.400000373538411
 30
0.0
  0
VERTEX
  5
1CA3
  8
SAPA_PROFIL
 10
-34.500000000001663
 20
-16.500000373538601
 30
0.0
 42
-0.4142135623732061
  0
VERTEX
  5
1CA4
  8
SAPA_PROFIL
 10
-34.200000000001481
 20
-16.200000373538529
 30
0.0
  0
VERTEX
  5
1CA5
  8
SAPA_PROFIL
 10
-30.500000000001659
 20
-16.20000037353865
 30
0.0
 42
-0.4142135623730951
  0
SEQEND
  5
1CA6
  8
SAPA_PROFIL
  0
ARC
  5
1595
  8
SAPA_PROFIL
 10
-31.577137293194092
 20
-0.0000000000026432
 30
0.0
 40
52.457142857141569
 50
171.05599162060551
 51
188.94400837939281
  0
ARC
  5
1596
  8
SAPA_PROFIL
 10
-152.61988178597801
 20
4.6958545104039606
 30
0.0
 40
61.941521467203017
 50
345.32132316462412
 51
5.8414358847292274
  0
LINE
  5
1597
  8
SAPA_PROFIL
 10
-83.396440251906881
 20
8.1554691837842181
 30
0.0
 11
-82.653051271135624
 21
10.9999999999996
 31
0.0
  0
LINE
  5
1598
  8
SAPA_PROFIL
 10
-83.396440251906924
 20
-8.1554691837893358
 30
0.0
 11
-82.262870722021347
 21
-11.000000000031999
 31
0.0
  0
LINE
  5
15A5
  8
SAPA_GLAS
 10
-84.999999999999375
 20
37.999999999999623
 30
0.0
 11
-68.999999999999375
 21
37.999999999999623
 31
0.0
  0
LINE
  5
15A6
  8
SAPA_GLAS
 10
-84.999999999999375
 20
25.99999999999962
 30
0.0
 11
-68.999999999999375
 21
25.99999999999962
 31
0.0
1001
ACAD
1000
ASC_BOUNDS
1002
{
1070
    19
1005
15AC
1002
}
  0
LINE
  5
15A7
  8
SAPA_GLAS
 10
-81.999999999999375
 20
10.999999999999609
 30
0.0
 11
-84.999999999999375
 21
10.99999999999962
 31
0.0
1001
ACAD
1000
ASC_BOUNDS
1002
{
1070
    19
1005
15AC
1002
}
  0
LINE
  5
15A8
  8
SAPA_GLAS
 10
-68.999999999999375
 20
10.999999999999609
 30
0.0
 11
-71.999999999999375
 21
10.999999999999609
 31
0.0
1001
ACAD
1000
ASC_BOUNDS
1002
{
1070
    19
1005
15AC
1002
}
  0
POLYLINE
  5
15A9
  8
SAPA_GLAS
 66
     1
 10
0.0
 20
0.0
 30
0.0
1001
ACAD
1000
ASC_BOUNDS
1002
{
1070
    19
1005
15AC
1002
}
  0
VERTEX
  5
1D09
  8
SAPA_GLAS
 10
-90.999999999999346
 20
40.999999999999609
 30
0.0
  0
VERTEX
  5
1D0A
  8
SAPA_GLAS
 10
-90.999999999999375
 20
10.99999999999962
 30
0.0
  0
VERTEX
  5
1D0B
  8
SAPA_GLAS
 10
-84.999999999999375
 20
10.99999999999962
 30
0.0
  0
VERTEX
  5
1D0C
  8
SAPA_GLAS
 10
-84.999999999999361
 20
40.999999999999609
 30
0.0
  0
SEQEND
  5
1D0D
  8
SAPA_GLAS
  0
POLYLINE
  5
15AA
  8
SAPA_GLAS
 66
     1
 10
0.0
 20
0.0
 30
0.0
1001
ACAD
1000
ASC_BOUNDS
1002
{
1070
    19
1005
15AC
1002
}
  0
VERTEX
  5
1D0E
  8
SAPA_GLAS
 10
-68.999999999999361
 20
40.999999999999609
 30
0.0
  0
VERTEX
  5
1D0F
  8
SAPA_GLAS
 10
-68.999999999999375
 20
10.999999999999609
 30
0.0
  0
VERTEX
  5
1D10
  8
SAPA_GLAS
 10
-62.999999999999368
 20
10.999999999999609
 30
0.0
  0
VERTEX
  5
1D11
  8
SAPA_GLAS
 10
-62.999999999999361
 20
40.999999999999609
 30
0.0
  0
SEQEND
  5
1D12
  8
SAPA_GLAS
  0
POLYLINE
  5
15AB
  8
SAPA_GLAS
 66
     1
 10
0.0
 20
0.0
 30
0.0
 70
     1
1001
ACAD
1000
ASC_BOUNDS
1002
{
1070
    19
1005
15AC
1002
}
  0
VERTEX
  5
1D13
  8
SAPA_GLAS
 10
-80.199999999999363
 20
18.999999999999609
 30
0.0
  0
VERTEX
  5
1D14
  8
SAPA_GLAS
 10
-73.799999999999386
 20
18.999999999999609
 30
0.0
 42
-0.4142135623730951
  0
VERTEX
  5
1D15
  8
SAPA_GLAS
 10
-73.499999999999375
 20
18.699999999999601
 30
0.0
  0
VERTEX
  5
1D16
  8
SAPA_GLAS
 10
-73.499999999999375
 20
10.999999999999609
 30
0.0
  0
VERTEX
  5
1D17
  8
SAPA_GLAS
 10
-71.999999999999375
 20
10.999999999999609
 30
0.0
  0
VERTEX
  5
1D18
  8
SAPA_GLAS
 10
-71.999999999999375
 20
20.699999999999608
 30
0.0
 42
0.4142135623730951
  0
VERTEX
  5
1D19
  8
SAPA_GLAS
 10
-72.299999999999386
 20
20.99999999999962
 30
0.0
  0
VERTEX
  5
1D1A
  8
SAPA_GLAS
 10
-81.699999999999349
 20
20.99999999999962
 30
0.0
 42
0.4142135623730951
  0
VERTEX
  5
1D1B
  8
SAPA_GLAS
 10
-81.999999999999375
 20
20.699999999999608
 30
0.0
  0
VERTEX
  5
1D1C
  8
SAPA_GLAS
 10
-81.999999999999375
 20
10.999999999999609
 30
0.0
  0
VERTEX
  5
1D1D
  8
SAPA_GLAS
 10
-80.499999999999375
 20
10.999999999999609
 30
0.0
  0
VERTEX
  5
1D1E
  8
SAPA_GLAS
 10
-80.499999999999375
 20
18.699999999999601
 30
0.0
 42
-0.4142135623730951
  0
SEQEND
  5
1D1F
  8
SAPA_GLAS
  0
INSERT
  5
15AC
  8
SAPA_GLAS
  6
CONTINUOUS
  2
*X81
 10
0.0
 20
0.0
 30
0.0
1001
GRADIENTCOLOR1ACI
1070
     5
1001
GRADIENTCOLOR2ACI
1070
     2
1001
ACAD
1000
HATCH
1002
{
1070
    19
1000
ANSI37
1040
0.25
1040
-1.5707963267948959
1000
ASC_BOUNDS
1070
     1
1070
     1
1070
     6
1005
15A7
1005
15A9
1005
15A6
1005
15AA
1005
15A8
1005
15AB
1000
ASC_SEEDPOINT
1011
-79.450586921254285
1021
0.0
1031
0.0
1021
21.804617272266128
1031
0.0
1000
R14_HATCH_DATA
1000
15AC
1011
1.0
1021
0.0
1031
0.0
1021
0.0
1031
0.0
1011
0.0
1021
0.0
1031
0.0
1021
1.0
1031
0.0
1011
0.0
1021
0.0
1031
0.0
1021
0.0
1031
1.0
1040
0.0
1010
0.0
1020
0.0
1030
1.0
1000
ANSI37
1070
     0
1070
     1
1071
        1
1071
        7
1070
     1
1070
     1
1071
       10
1040
-72.299999999999386
1040
20.99999999999962
1040
-0.4142135623730951
1040
-71.999999999999375
1040
20.699999999999608
1040
0.0
1040
-71.999999999999375
1040
10.999999999999609
1040
0.0
1040
-68.999999999999375
1040
10.999999999999609
1040
0.0
1040
-68.999999999999375
1040
25.99999999999962
1040
0.0
1040
-84.999999999999375
1040
25.99999999999962
1040
0.0
1040
-84.999999999999375
1040
10.99999999999962
1040
0.0
1040
-81.999999999999375
1040
10.999999999999609
1040
0.0
1040
-81.999999999999375
1040
20.699999999999608
1040
-0.4142135623730951
1040
-81.699999999999349
1040
20.99999999999962
1040
0.0
1071
        6
1005
15AB
1005
15A8
1005
15AA
1005
15A6
1005
15A9
1005
15A7
1070
     1
1070
     1
1040
-1.5707963267948959
1040
0.25
1070
     0
1070
     2
1040
5.4977871437821371
1040
0.0000000000001137
1040
0.0
1040
0.5612660075668222
1040
0.5612660075668219
1070
     0
1040
0.7853981633974481
1040
0.0000000000001137
1040
0.0
1040
-0.5612660075668219
1040
0.5612660075668222
1070
     0
1040
0.1332406017304326
1071
        1
1040
-79.450586921254285
1040
21.804617272266128
1040
0.0
1002
}
  0
INSERT
  5
15B2
  8
SAPA_FYLLNING
  6
CONTINUOUS
  2
*X83
 10
0.0
 20
0.0
 30
0.0
1001
GRADIENTCOLOR1ACI
1070
     5
1001
GRADIENTCOLOR2ACI
1070
     2
1001
ACAD
1000
HATCH
1002
{
1070
    19
1000
ANSI37
1040
0.25
1040
-1.5707963267948959
1000
R14_HATCH_DATA
1000
15B2
1011
1.0
1021
0.0
1031
0.0
1021
0.0
1031
0.0
1011
0.0
1021
0.0
1031
0.0
1021
1.0
1031
0.0
1011
0.0
1021
0.0
1031
0.0
1021
0.0
1031
1.0
1040
0.0
1010
0.0
1020
0.0
1030
1.0
1000
ANSI37
1070
     0
1070
     0
1071
        1
1071
        7
1070
     1
1070
     1
1071
        7
1040
-90.999999999999375
1040
10.9999999999996
1040
0.0
1040
-84.999999999999375
1040
10.9999999999996
1040
0.0
1040
-82.653051271135624
1040
10.9999999999996
1040
0.0
1040
-83.396440251906881
1040
8.1554691837842483
1040
0.0782100801382208
1040
-83.396440251906895
1040
-8.1554691837893643
1040
0.0
1040
-82.262870722021376
1040
-11.00000000003191
1040
0.0
1040
-92.7000000032196
1040
-11.00000000001458
1040
0.0897759121880709
1071
        0
1070
     1
1070
     1
1040
-1.5707963267948959
1040
0.25
1070
     0
1070
     2
1040
5.4977871437821371
1040
0.0000000000001137
1040
0.9671862190227784
1040
0.5612660075668222
1040
0.5612660075668219
1070
     0
1040
0.7853981633974481
1040
0.0000000000001137
1040
0.9671862190227784
1040
-0.5612660075668219
1040
0.5612660075668222
1070
     0
1040
0.0256191213762074
1071
        1
1040
-87.785864515288708
1040
-1.2461287122481499
1040
0.0
1002
}
  0
INSERT
  5
15BC
  8
SAPA_ISOLATOR
  6
CONTINUOUS
  2
*X86
 10
0.0
 20
0.0
 30
0.0
1001
ACAD
1000
HATCH
1002
{
1070
    19
1000
ANSI31
1040
0.35
1040
5.4977871437821371
1000
R14_HATCH_DATA
1000
15BC
1011
1.0
1021
0.0
1031
0.0
1021
0.0
1031
0.0
1011
0.0
1021
0.0
1031
0.0
1021
1.0
1031
0.0
1011
0.0
1021
0.0
1031
0.0
1021
0.0
1031
1.0
1040
0.0
1010
0.0
1020
0.0
1030
1.0
1000
ANSI31
1070
     0
1070
     0
1071
        1
1071
        1
1071
       49
1070
     2
1040
-64.463742496360254
1040
-22.327435054190399
1040
0.3006817060114675
1040
-1.5657379063807291
1040
-0.3498199254894492
1070
     0
1070
     1
1040
-64.181271744820435
1040
-22.224382820568319
1040
-63.295794031949242
1040
-24.65721284211234
1070
     2
1040
-62.919916983633108
1040
-24.520404784779529
1040
0.400000000002539
1040
3.490658503993135
1040
4.7123889803853398
1070
     1
1070
     1
1040
-62.919916983632838
1040
-24.920404784782072
1040
-52.499999998918732
1040
-24.920404784782029
1070
     1
1040
-52.499999998918732
1040
-24.920404784782029
1040
-42.080083014200618
1040
-24.920404784781969
1070
     2
1040
-42.080083014202373
1040
-24.520404784782318
1040
0.3999999999996488
1040
4.7123889803890684
1040
5.9341194567812998
1070
     1
1070
     1
1040
-41.704205965888256
1040
-24.657212842112251
1040
-40.818728253020083
1040
-22.224382820576562
1070
     2
1040
-40.536365680872663
1040
-22.327281263520302
1040
0.3005273892841634
1040
3.4910552070390422
1040
4.7076879318700922
1070
     0
1070
     2
1040
-40.308189705934367
1040
-27.587400270045229
1040
5.5653807064749881
1040
4.6711242502471872
1040
4.7342885622872561
1070
     0
1070
     1
1040
-40.186319937167042
1040
-22.02335406539661
1040
-39.946136872384763
1040
-21.88468430829009
1070
     2
1040
-39.84113687238505
1040
-22.06654964308499
1040
0.2100000000000017
1040
4.188790204787975
1040
6.2831853071790738
1070
     0
1070
     1
1040
-39.631136872385042
1040
-22.06654964308488
1040
-39.631136872384928
1040
-22.333664171297791
1070
     1
1040
-39.631136872384928
1040
-22.333664171297791
1040
-39.299999998918743
1040
-22.529886237082088
1070
     1
1040
-39.299999998918743
1040
-22.529886237082088
1040
-38.316679860938223
1040
-23.09753040057954
1070
     2
1040
-38.211679860939952
1040
-22.915665065785991
1040
0.209999999998109
1040
4.1887902047907026
1040
4.7123889803873293
1070
     1
1070
     1
1040
-38.211679860939398
1040
-23.125665065784101
1040
-37.899999998916833
1040
-23.125665065784212
1070
     2
1040
-37.899999998914922
1040
-22.725665065788078
1040
0.3999999999961332
1040
4.7123889803799113
1040
6.2831853071900472
1070
     1
1070
     1
1040
-37.499999998918781
1040
-22.72566506578389
1040
-37.499999998918732
1040
-19.32566506578414
1070
     2
1040
-37.899999998915789
1040
-19.32566506578123
1040
0.3999999999970676
1040
6.2831853071723121
1040
7.8539816339818991
1070
     1
1070
     1
1040
-37.899999998918759
1040
-18.925665065784159
1040
-38.211679860942411
1040
-18.925665065784159
1070
     2
1040
-38.211679860940762
1040
-19.135665065779111
1040
0.2099999999949489
1040
1.57079632680278
1040
2.0943951023994072
1070
     1
1070
     1
1040
-38.31667986093936
1040
-18.95379973098941
1040
-39.299999998918743
1040
-19.521519877351441
1070
     1
1040
-39.299999998918743
1040
-19.521519877351441
1040
-39.89474411058962
1040
-19.86489555032356
1070
     2
1040
-40.494744110595732
1040
-18.825665065773169
1040
1.2000000000109059
1040
1.047197551195963
1040
1.5707963267926159
1070
     0
1070
     1
1040
-40.49474411059299
1040
-20.025665065784072
1040
-41.446608443479413
1040
-20.025665065783851
1070
     2
1040
-41.44660844347041
1040
-21.025665065776099
1040
0.9999999999922533
1040
1.570796326803906
1040
2.7925268031964121
1070
     1
1070
     1
1040
-42.386301064250908
1040
-20.683644922458232
1040
-43.177415089160768
1040
-22.857212842111931
1070
     2
1040
-43.553292137476248
1040
-22.720404784780659
1040
0.4000000000013905
1040
0.3490658504002764
1040
1.5707963267925069
1070
     0
1070
     1
1040
-43.553292137475303
1040
-23.12040478478205
1040
-52.499999998918732
1040
-23.12040478478205
1070
     1
1040
-52.499999998918732
1040
-23.12040478478205
1040
-61.44670786036221
1040
-23.12040478478211
1070
     2
1040
-61.446707860363198
1040
-22.720404784783529
1040
0.3999999999985775
1040
1.570796326792411
1040
2.7925268031846149
1070
     0
1070
     1
1040
-61.82258490867536
1040
-22.85721284211569
1040
-62.61369893358647
1040
-20.68364492245847
1070
     2
1040
-63.553391554381633
1040
-21.025665065797352
1040
1.000000000013211
1040
6.632251157587703
1040
7.853981633979922
1070
     1
1070
     1
1040
-63.553391554387069
1040
-20.025665065784139
1040
-64.505255887244573
1040
-20.025665065784139
1070
     2
1040
-64.505255887247571
1040
-18.825665065795111
1040
1.1999999999890261
1040
1.570796326792401
1040
2.094395102389051
1070
     0
1070
     1
1040
-65.105255887237774
1040
-19.864895550329418
1040
-65.692820321946272
1040
-19.525665065784189
1070
     1
1040
-65.692820321946272
1040
-19.525665065784189
1040
-66.683320136898203
1040
-18.95379973098947
1070
     2
1040
-66.78832013689987
1040
-19.135665065790612
1040
0.2100000000063851
1040
7.3303828583845627
1040
7.8539816339812401
1070
     1
1070
     1
1040
-66.788320136901291
1040
-18.92566506578423
1040
-67.099999998918804
1040
-18.92566506578417
1070
     2
1040
-67.099999998915834
1040
-19.325665065787121
1040
0.40000000000295
1040
1.5707963268023291
1040
3.141592653592308
1070
     1
1070
     1
1040
-67.499999998918781
1040
-19.325665065788129
1040
-67.499999998918781
1040
-22.725665065784192
1070
     2
1040
-67.0999999989168
1040
-22.725665065782181
1040
0.4000000000019782
1040
3.1415926535947949
1040
4.7123889803848034
1070
     1
1070
     1
1040
-67.099999998916743
1040
-23.125665065784158
1040
-66.788320136898093
1040
-23.125665065784158
1070
     2
1040
-66.788320136898577
1040
-22.91566506578226
1040
0.2100000000019078
1040
4.7123889803869421
1040
5.2359877559835688
1070
     1
1070
     1
1040
-66.683320136897521
1040
-23.097530400578581
1040
-65.368863125452521
1040
-22.333664171297801
1070
     1
1040
-65.368863125452521
1040
-22.333664171297801
1040
-65.368863125452407
1040
-22.06654964308488
1070
     2
1040
-65.158863125452399
1040
-22.06654964308499
1040
0.2100000000000017
1040
3.1415926535902998
1040
5.235987755981399
1070
     0
1070
     1
1040
-65.053863125452693
1040
-21.88468430829009
1040
-64.813680060670393
1040
-22.023354065396621
1070
     2
1040
-64.691810291899998
1040
-27.58740026948773
1040
5.5653807059176952
1040
4.6904893984793761
1040
4.7536537105194441
1070
     0
1071
        0
1070
     0
1070
     1
1040
5.4977871437821371
1040
0.35
1070
     0
1070
     1
1040
0.0
1040
0.0
1040
0.0
1040
0.0000000000000003
1040
1.111249999999999
1070
     0
1071
        1
1040
-67.500000149734547
1040
-24.920404977802249
1040
0.0
1002
}
  0
INSERT
  5
15BD
  8
SAPA_ISOLATOR
  6
CONTINUOUS
  2
*X87
 10
0.0
 20
0.0
 30
0.0
1001
ACAD
1000
HATCH
1002
{
1070
    19
1000
ANSI31
1040
0.35
1040
3.926990816987241
1000
R14_HATCH_DATA
1000
15BD
1011
1.0
1021
0.0
1031
0.0
1021
0.0
1031
0.0
1011
0.0
1021
0.0
1031
0.0
1021
1.0
1031
0.0
1011
0.0
1021
0.0
1031
0.0
1021
0.0
1031
1.0
1040
0.0
1010
0.0
1020
0.0
1030
1.0
1000
ANSI31
1070
     0
1070
     0
1071
        1
1071
        1
1071
       49
1070
     2
1040
-64.463742496360254
1040
-7.6725649458037211
1040
0.3006817060114675
1040
-1.5657379063807291
1040
-0.3498199254894492
1070
     1
1070
     1
1040
-64.181271744820435
1040
-7.7756171794257929
1040
-63.295794031949242
1040
-5.3427871578817721
1070
     2
1040
-62.919916983633108
1040
-5.4795952152145908
1040
0.400000000002539
1040
3.490658503993135
1040
4.7123889803853398
1070
     0
1070
     1
1040
-62.919916983632838
1040
-5.079595215212052
1040
-52.499999998918732
1040
-5.0795952152120831
1070
     1
1040
-52.499999998918732
1040
-5.0795952152120831
1040
-42.080083014200618
1040
-5.0795952152121417
1070
     2
1040
-42.080083014202373
1040
-5.4795952152117922
1040
0.3999999999996488
1040
4.7123889803890684
1040
5.9341194567812998
1070
     0
1070
     1
1040
-41.704205965888256
1040
-5.3427871578818618
1040
-40.818728253020083
1040
-7.7756171794175559
1070
     2
1040
-40.536365680872663
1040
-7.6727187364738159
1040
0.3005273892841634
1040
3.4910552070390422
1040
4.7076879318700922
1070
     1
1070
     2
1040
-40.308189705934367
1040
-2.4125997299488922
1040
5.5653807064749881
1040
4.6711242502471872
1040
4.7342885622872561
1070
     1
1070
     1
1040
-40.186319937167042
1040
-7.9766459345975056
1040
-39.946136872384763
1040
-8.1153156917040299
1070
     2
1040
-39.84113687238505
1040
-7.9334503569091304
1040
0.2100000000000017
1040
4.188790204787975
1040
6.2831853071790738
1070
     1
1070
     1
1040
-39.631136872385042
1040
-7.9334503569092378
1040
-39.631136872384928
1040
-7.6663358286963241
1070
     1
1040
-39.631136872384928
1040
-7.6663358286963241
1040
-39.299999998918743
1040
-7.4701137629120256
1070
     1
1040
-39.299999998918743
1040
-7.4701137629120256
1040
-38.316679860938223
1040
-6.9024695994145784
1070
     2
1040
-38.211679860939952
1040
-7.0843349342081243
1040
0.209999999998109
1040
4.1887902047907026
1040
4.7123889803873293
1070
     0
1070
     1
1040
-38.211679860939398
1040
-6.8743349342100171
1040
-37.899999998916833
1040
-6.8743349342099052
1070
     2
1040
-37.899999998914922
1040
-7.2743349342060357
1040
0.3999999999961332
1040
4.7123889803799113
1040
6.2831853071900472
1070
     0
1070
     1
1040
-37.499999998918781
1040
-7.2743349342102208
1040
-37.499999998918732
1040
-10.67433493420997
1070
     2
1040
-37.899999998915789
1040
-10.674334934212879
1040
0.3999999999970676
1040
6.2831853071723121
1040
7.8539816339818991
1070
     0
1070
     1
1040
-37.899999998918759
1040
-11.074334934209951
1040
-38.211679860942411
1040
-11.074334934209951
1070
     2
1040
-38.211679860940762
1040
-10.864334934215
1040
0.2099999999949489
1040
1.57079632680278
1040
2.0943951023994072
1070
     0
1070
     1
1040
-38.31667986093936
1040
-11.0462002690047
1040
-39.299999998918743
1040
-10.47848012264267
1070
     1
1040
-39.299999998918743
1040
-10.47848012264267
1040
-39.89474411058962
1040
-10.13510444967055
1070
     2
1040
-40.494744110595732
1040
-11.174334934220941
1040
1.2000000000109059
1040
1.047197551195963
1040
1.5707963267926159
1070
     1
1070
     1
1040
-40.49474411059299
1040
-9.9743349342100398
1040
-41.446608443479413
1040
-9.9743349342102672
1070
     2
1040
-41.44660844347041
1040
-8.9743349342180156
1040
0.9999999999922533
1040
1.570796326803906
1040
2.7925268031964121
1070
     0
1070
     1
1040
-42.386301064250908
1040
-9.3163550775358779
1040
-43.177415089160768
1040
-7.1427871578821858
1070
     2
1040
-43.553292137476248
1040
-7.2795952152134591
1040
0.4000000000013905
1040
0.3490658504002764
1040
1.5707963267925069
1070
     1
1070
     1
1040
-43.553292137475303
1040
-6.879595215212067
1040
-52.499999998918732
1040
-6.8795952152120643
1070
     1
1040
-52.499999998918732
1040
-6.8795952152120661
1040
-61.44670786036221
1040
-6.8795952152120066
1070
     2
1040
-61.446707860363198
1040
-7.2795952152105849
1040
0.3999999999985775
1040
1.570796326792411
1040
2.7925268031846149
1070
     1
1070
     1
1040
-61.82258490867536
1040
-7.1427871578784314
1040
-62.61369893358647
1040
-9.3163550775356452
1070
     2
1040
-63.553391554381633
1040
-8.9743349341967686
1040
1.000000000013211
1040
6.632251157587703
1040
7.853981633979922
1070
     0
1070
     1
1040
-63.553391554387069
1040
-9.9743349342099776
1040
-64.505255887244573
1040
-9.9743349342099776
1070
     2
1040
-64.505255887247571
1040
-11.174334934199001
1040
1.1999999999890261
1040
1.570796326792401
1040
2.094395102389051
1070
     1
1070
     1
1040
-65.105255887237774
1040
-10.13510444966469
1040
-65.692820321946272
1040
-10.474334934209921
1070
     1
1040
-65.692820321946272
1040
-10.474334934209921
1040
-66.683320136898203
1040
-11.04620026900464
1070
     2
1040
-66.78832013689987
1040
-10.8643349342035
1040
0.2100000000063851
1040
7.3303828583845627
1040
7.8539816339812401
1070
     0
1070
     1
1040
-66.788320136901291
1040
-11.07433493420988
1040
-67.099999998918804
1040
-11.07433493420994
1070
     2
1040
-67.099999998915834
1040
-10.674334934206991
1040
0.40000000000295
1040
1.5707963268023291
1040
3.141592653592308
1070
     0
1070
     1
1040
-67.499999998918781
1040
-10.67433493420598
1040
-67.499999998918781
1040
-7.2743349342099322
1070
     2
1040
-67.0999999989168
1040
-7.2743349342119323
1040
0.4000000000019782
1040
3.1415926535947949
1040
4.7123889803848034
1070
     0
1070
     1
1040
-67.099999998916743
1040
-6.874334934209954
1040
-66.788320136898093
1040
-6.874334934209954
1070
     2
1040
-66.788320136898577
1040
-7.0843349342118627
1040
0.2100000000019078
1040
4.7123889803869421
1040
5.2359877559835688
1070
     0
1070
     1
1040
-66.683320136897521
1040
-6.9024695994155394
1040
-65.368863125452521
1040
-7.6663358286963179
1070
     1
1040
-65.368863125452521
1040
-7.6663358286963179
1040
-65.368863125452407
1040
-7.9334503569092334
1070
     2
1040
-65.158863125452399
1040
-7.9334503569091259
1040
0.2100000000000017
1040
3.1415926535902998
1040
5.235987755981399
1070
     1
1070
     1
1040
-65.053863125452693
1040
-8.1153156917040263
1040
-64.813680060670393
1040
-7.976645934597502
1070
     2
1040
-64.691810291899998
1040
-2.4125997305063831
1040
5.5653807059176952
1040
4.6904893984793761
1040
4.7536537105194441
1070
     1
1071
        0
1070
     0
1070
     1
1040
3.926990816987241
1040
0.35
1070
     0
1070
     1
1040
4.7123889803846888
1040
-67.500000149734547
1040
-5.0795950221918673
1040
1.111249999999999
1040
-0.0000000000000005
1070
     0
1071
        1
1040
-67.500000149734547
1040
-5.0795950221918673
1040
0.0
1002
}
  0
POLYLINE
  5
15BE
  8
SAPA_ISOLATOR
 66
     1
 10
0.0
 20
0.0
 30
0.0
 70
     1
  0
VERTEX
  5
1E7D
  8
SAPA_ISOLATOR
 10
-53.699999999999697
 20
3.5
 30
0.0
  0
VERTEX
  5
1E7E
  8
SAPA_ISOLATOR
 10
-53.699999999999697
 20
2.6029440986901591
 30
0.0
  0
VERTEX
  5
1E7F
  8
SAPA_ISOLATOR
 10
-52.197055901308318
 20
1.099999999998772
 30
0.0
  0
VERTEX
  5
1E80
  8
SAPA_ISOLATOR
 10
-46.478136728428012
 20
1.0999999999989989
 30
0.0
 42
-0.0502608893789828
  0
VERTEX
  5
1E81
  8
SAPA_ISOLATOR
 10
-45.49501971291658
 20
0.4230777223442601
 30
0.0
 42
-0.460955221230658
  0
VERTEX
  5
1E82
  8
SAPA_ISOLATOR
 10
-45.495019712917269
 20
-0.4230769752680317
 30
0.0
 42
-0.0502609546985642
  0
VERTEX
  5
1E83
  8
SAPA_ISOLATOR
 10
-46.478138087674658
 20
-1.1000000000012731
 30
0.0
  0
VERTEX
  5
1E84
  8
SAPA_ISOLATOR
 10
-52.19705664838682
 20
-1.1000000000012731
 30
0.0
  0
VERTEX
  5
1E85
  8
SAPA_ISOLATOR
 10
-53.699999999999932
 20
-2.6029433516139302
 30
0.0
  0
VERTEX
  5
1E86
  8
SAPA_ISOLATOR
 10
-53.699999999999932
 20
-3.5
 30
0.0
 42
-0.4142135623728733
  0
VERTEX
  5
1E87
  8
SAPA_ISOLATOR
 10
-53.999999999999879
 20
-3.7999999999999541
 30
0.0
  0
VERTEX
  5
1E88
  8
SAPA_ISOLATOR
 10
-61.099999999999852
 20
-3.8000000000009768
 30
0.0
 42
-0.4142135623731387
  0
VERTEX
  5
1E89
  8
SAPA_ISOLATOR
 10
-61.599999999999909
 20
-3.3000000000009768
 30
0.0
  0
VERTEX
  5
1E8A
  8
SAPA_ISOLATOR
 10
-61.599999999999959
 20
3.2999999999988172
 30
0.0
 42
-0.4142135623730469
  0
VERTEX
  5
1E8B
  8
SAPA_ISOLATOR
 10
-61.100000000000023
 20
3.7999999999988172
 30
0.0
  0
VERTEX
  5
1E8C
  8
SAPA_ISOLATOR
 10
-53.999999999999879
 20
3.7999999999999541
 30
0.0
 42
-0.4142135623733169
  0
SEQEND
  5
1E8D
  8
SAPA_ISOLATOR
  0
POLYLINE
  5
15BF
  8
SAPA_ISOLATOR
 66
     1
 10
0.0
 20
0.0
 30
0.0
 70
     1
  0
VERTEX
  5
1E8E
  8
SAPA_ISOLATOR
 10
-71.499999999997954
 20
6.7999999999974534
 30
0.0
 42
-0.4142135623731284
  0
VERTEX
  5
1E8F
  8
SAPA_ISOLATOR
 10
-70.99999999999784
 20
6.2999999999974534
 30
0.0
  0
VERTEX
  5
1E90
  8
SAPA_ISOLATOR
 10
-70.99999999999784
 20
5.5
 30
0.0
 42
0.4142135623730951
  0
VERTEX
  5
1E91
  8
SAPA_ISOLATOR
 10
-70.499999999997826
 20
5.0
 30
0.0
  0
VERTEX
  5
1E92
  8
SAPA_ISOLATOR
 10
-52.999999999999893
 20
4.9999999999997717
 30
0.0
 42
-0.4142135623730951
  0
VERTEX
  5
1E93
  8
SAPA_ISOLATOR
 10
-52.499999999999893
 20
4.4999999999997717
 30
0.0
  0
VERTEX
  5
1E94
  8
SAPA_ISOLATOR
 10
-52.499999999999893
 20
3.1000003735380228
 30
0.0
  0
VERTEX
  5
1E95
  8
SAPA_ISOLATOR
 10
-51.699999626460453
 20
2.2999999999985898
 30
0.0
  0
VERTEX
  5
1E96
  8
SAPA_ISOLATOR
 10
-47.241778772773152
 20
2.3000000000004088
 30
0.0
 42
-0.0970774689087859
  0
VERTEX
  5
1E97
  8
SAPA_ISOLATOR
 10
-44.975410008182607
 20
1.031358705728052
 30
0.0
 42
-0.4609552212306134
  0
VERTEX
  5
1E98
  8
SAPA_ISOLATOR
 10
-44.975410008182507
 20
-1.0313579586517101
 30
0.0
 42
-0.0970775585520922
  0
VERTEX
  5
1E99
  8
SAPA_ISOLATOR
 10
-47.241781051835801
 20
-2.3000000000013179
 30
0.0
  0
VERTEX
  5
1E9A
  8
SAPA_ISOLATOR
 10
-51.70000037353941
 20
-2.3000000000013179
 30
0.0
  0
VERTEX
  5
1E9B
  8
SAPA_ISOLATOR
 10
-52.499999999999893
 20
-3.099999626461567
 30
0.0
  0
VERTEX
  5
1E9C
  8
SAPA_ISOLATOR
 10
-52.499999999999893
 20
-4.4999999999997717
 30
0.0
 42
-0.4142135623730951
  0
VERTEX
  5
1E9D
  8
SAPA_ISOLATOR
 10
-52.999999999999893
 20
-4.9999999999997717
 30
0.0
  0
VERTEX
  5
1E9E
  8
SAPA_ISOLATOR
 10
-70.499999999997826
 20
-5.0000000000050022
 30
0.0
 42
0.4142135623730951
  0
VERTEX
  5
1E9F
  8
SAPA_ISOLATOR
 10
-70.99999999999784
 20
-5.5000000000050022
 30
0.0
  0
VERTEX
  5
1EA0
  8
SAPA_ISOLATOR
 10
-70.99999999999784
 20
-6.3000000000024547
 30
0.0
 42
-0.4142135623731617
  0
VERTEX
  5
1EA1
  8
SAPA_ISOLATOR
 10
-71.499999999998408
 20
-6.8000000000023979
 30
0.0
  0
VERTEX
  5
1EA2
  8
SAPA_ISOLATOR
 10
-80.299999999998349
 20
-6.8000000000026262
 30
0.0
 42
-0.4142135623730951
  0
VERTEX
  5
1EA3
  8
SAPA_ISOLATOR
 10
-81.299999999998363
 20
-5.800000000002683
 30
0.0
  0
VERTEX
  5
1EA4
  8
SAPA_ISOLATOR
 10
-81.299999999998363
 20
-5.0873719966523359
 30
0.0
 42
-0.221694662643068
  0
VERTEX
  5
1EA5
  8
SAPA_ISOLATOR
 10
-81.192836282904182
 20
-4.8575586637166452
 30
0.0
  0
VERTEX
  5
1EA6
  8
SAPA_ISOLATOR
 10
-80.492055319896977
 20
-4.269533616121179
 30
0.0
 42
-0.6358782360467221
  0
VERTEX
  5
1EA7
  8
SAPA_ISOLATOR
 10
-79.999999999998408
 20
-4.5000000000018181
 30
0.0
  0
VERTEX
  5
1EA8
  8
SAPA_ISOLATOR
 10
-79.999999999998181
 20
-5.300000000002683
 30
0.0
 42
0.4142135623730951
  0
VERTEX
  5
1EA9
  8
SAPA_ISOLATOR
 10
-79.699999999997985
 20
-5.6000000000024102
 30
0.0
  0
VERTEX
  5
1EAA
  8
SAPA_ISOLATOR
 10
-72.499999999998408
 20
-5.6000000000026366
 30
0.0
 42
0.9995465490080238
  0
VERTEX
  5
1EAB
  8
SAPA_ISOLATOR
 10
-72.499999999998181
 20
-4.9993422943207397
 30
0.0
  0
VERTEX
  5
1EAC
  8
SAPA_ISOLATOR
 10
-72.499999999997897
 20
-0.8660254037865797
 30
0.0
  0
VERTEX
  5
1EAD
  8
SAPA_ISOLATOR
 10
-71.99999999999801
 20
-0.0000000000022737
 30
0.0
  0
VERTEX
  5
1EAE
  8
SAPA_ISOLATOR
 10
-72.499999999998124
 20
0.8660254037823733
 30
0.0
  0
VERTEX
  5
1EAF
  8
SAPA_ISOLATOR
 10
-72.499999999998181
 20
4.9993422943157384
 30
0.0
 42
0.9995465490087907
  0
VERTEX
  5
1EB0
  8
SAPA_ISOLATOR
 10
-72.499999999998408
 20
5.5999999999971797
 30
0.0
  0
VERTEX
  5
1EB1
  8
SAPA_ISOLATOR
 10
-79.699999999997985
 20
5.5999999999974071
 30
0.0
 42
0.4142135623735446
  0
VERTEX
  5
1EB2
  8
SAPA_ISOLATOR
 10
-79.999999999997954
 20
5.2999999999976799
 30
0.0
  0
VERTEX
  5
1EB3
  8
SAPA_ISOLATOR
 10
-79.999999999998408
 20
4.4999999999977263
 30
0.0
 42
-0.6358782360470147
  0
VERTEX
  5
1EB4
  8
SAPA_ISOLATOR
 10
-80.492055319896977
 20
4.2695336161186779
 30
0.0
  0
VERTEX
  5
1EB5
  8
SAPA_ISOLATOR
 10
-81.192836282904182
 20
4.8575586637143706
 30
0.0
 42
-0.2216946626430204
  0
VERTEX
  5
1EB6
  8
SAPA_ISOLATOR
 10
-81.299999999998363
 20
5.0873719966498347
 30
0.0
  0
VERTEX
  5
1EB7
  8
SAPA_ISOLATOR
 10
-81.299999999998363
 20
5.7999999999981346
 30
0.0
 42
-0.4142135623731617
  0
VERTEX
  5
1EB8
  8
SAPA_ISOLATOR
 10
-80.299999999998136
 20
6.7999999999981346
 30
0.0
  0
SEQEND
  5
1EB9
  8
SAPA_ISOLATOR
  0
POLYLINE
  5
15C0
  8
SAPA_ISOLATOR
 66
     1
 10
0.0
 20
0.0
 30
0.0
 70
     1
  0
VERTEX
  5
1EBA
  8
SAPA_ISOLATOR
 10
-63.10000000000008
 20
3.7999999999984762
 30
0.0
 42
-0.4142135623731387
  0
VERTEX
  5
1EBB
  8
SAPA_ISOLATOR
 10
-62.600000000000023
 20
3.2999999999984762
 30
0.0
  0
VERTEX
  5
1EBC
  8
SAPA_ISOLATOR
 10
-62.599999999999973
 20
-3.300000000001432
 30
0.0
 42
-0.4142135623730514
  0
VERTEX
  5
1EBD
  8
SAPA_ISOLATOR
 10
-63.099999999999909
 20
-3.800000000001432
 30
0.0
  0
VERTEX
  5
1EBE
  8
SAPA_ISOLATOR
 10
-70.200000000000045
 20
-3.8000000000024552
 30
0.0
 42
-0.4142135623730951
  0
VERTEX
  5
1EBF
  8
SAPA_ISOLATOR
 10
-70.700000000000045
 20
-3.3000000000024552
 30
0.0
  0
VERTEX
  5
1EC0
  8
SAPA_ISOLATOR
 10
-70.700000000000045
 20
3.299999999997453
 30
0.0
 42
-0.4142135623730951
  0
VERTEX
  5
1EC1
  8
SAPA_ISOLATOR
 10
-70.200000000000045
 20
3.799999999997453
 30
0.0
  0
SEQEND
  5
1EC2
  8
SAPA_ISOLATOR
  0
POLYLINE
  5
15DF
  8
SAPA_FOGBAND
 66
     1
 10
0.0
 20
0.0
 30
0.0
 70
     1
  0
VERTEX
  5
1F16
  8
SAPA_FOGBAND
 10
-80.768193081410914
 20
-4.1787401792169874
 30
0.0
  0
VERTEX
  5
1F17
  8
SAPA_FOGBAND
 10
-80.544896306152822
 20
-4.1787401792169732
 30
0.0
 42
-0.3500011104185251
  0
VERTEX
  5
1F18
  8
SAPA_FOGBAND
 10
-79.764899471717953
 20
-4.8009624014392074
 30
0.0
 42
0.3500011104185275
  0
VERTEX
  5
1F19
  8
SAPA_FOGBAND
 10
-78.789903428674393
 20
-5.578740179216978
 30
0.0
  0
VERTEX
  5
1F1A
  8
SAPA_FOGBAND
 10
-78.464899471717956
 20
-5.5787401792169797
 30
0.0
 42
0.4142135623730992
  0
VERTEX
  5
1F1B
  8
SAPA_FOGBAND
 10
-77.464899471717956
 20
-4.5787401792169797
 30
0.0
  0
VERTEX
  5
1F1C
  8
SAPA_FOGBAND
 10
-77.464899471717956
 20
4.6212598207830391
 30
0.0
 42
0.4142135623730909
  0
VERTEX
  5
1F1D
  8
SAPA_FOGBAND
 10
-78.464899471717956
 20
5.621259820783024
 30
0.0
  0
VERTEX
  5
1F1E
  8
SAPA_FOGBAND
 10
-78.789903428674393
 20
5.6212598207830391
 30
0.0
 42
0.3500011104185275
  0
VERTEX
  5
1F1F
  8
SAPA_FOGBAND
 10
-79.764899471717939
 20
4.8434820430052667
 30
0.0
 42
-0.3500011104185328
  0
VERTEX
  5
1F20
  8
SAPA_FOGBAND
 10
-80.544896306152822
 20
4.2212598207830192
 30
0.0
  0
VERTEX
  5
1F21
  8
SAPA_FOGBAND
 10
-80.768193081410914
 20
4.2212598207830192
 30
0.0
 42
-0.380963100045198
  0
VERTEX
  5
1F22
  8
SAPA_FOGBAND
 10
-81.264899471717953
 20
4.6639644297978728
 30
0.0
 42
-0.0458039546811979
  0
VERTEX
  5
1F23
  8
SAPA_FOGBAND
 10
-81.341546602805337
 20
7.9530679894324399
 30
0.0
 42
0.9570085662280619
  0
VERTEX
  5
1F24
  8
SAPA_FOGBAND
 10
-83.327059573289205
 20
8.1767290045698076
 30
0.0
 42
0.0782100801382191
  0
VERTEX
  5
1F25
  8
SAPA_FOGBAND
 10
-83.327059573289233
 20
-8.1342093630037482
 30
0.0
 42
0.9570085662280891
  0
VERTEX
  5
1F26
  8
SAPA_FOGBAND
 10
-81.341546602805337
 20
-7.9105483478663521
 30
0.0
 42
-0.0458039546811975
  0
VERTEX
  5
1F27
  8
SAPA_FOGBAND
 10
-81.264899471717953
 20
-4.6214447882318392
 30
0.0
 42
-0.380963100045198
  0
SEQEND
  5
1F28
  8
SAPA_FOGBAND
  0
POLYLINE
  5
15E0
  8
SAPA_FOGBAND
 10
-40.499999966998175
 20
21.699999999993125
 30
0.0
 66
     1
 70
     8
  0
VERTEX
  8
SAPA_FOGBAND
  5
1F69
 10
-40.5000
 20
21.7000
 30
0.000000
  70
    32
  0
VERTEX
  8
SAPA_FOGBAND
  5
1F6A
 10
-40.4964
 20
21.6117
 30
0.000000
  70
    32
  0
VERTEX
  8
SAPA_FOGBAND
  5
1F6B
 10
-40.4858
 20
21.5236
 30
0.000000
  70
    32
  0
VERTEX
  8
SAPA_FOGBAND
  5
1F6C
 10
-40.4680
 20
21.4359
 30
0.000000
  70
    32
  0
VERTEX
  8
SAPA_FOGBAND
  5
1F6D
 10
-40.4432
 20
21.3488
 30
0.000000
  70
    32
  0
VERTEX
  8
SAPA_FOGBAND
  5
1F6E
 10
-40.4115
 20
21.2626
 30
0.000000
  70
    32
  0
VERTEX
  8
SAPA_FOGBAND
  5
1F6F
 10
-40.3728
 20
21.1775
 30
0.000000
  70
    32
  0
VERTEX
  8
SAPA_FOGBAND
  5
1F70
 10
-40.3273
 20
21.0936
 30
0.000000
  70
    32
  0
VERTEX
  8
SAPA_FOGBAND
  5
1F71
 10
-40.2751
 20
21.0112
 30
0.000000
  70
    32
  0
VERTEX
  8
SAPA_FOGBAND
  5
1F72
 10
-40.2163
 20
20.9304
 30
0.000000
  70
    32
  0
VERTEX
  8
SAPA_FOGBAND
  5
1F73
 10
-40.1512
 20
20.8515
 30
0.000000
  70
    32
  0
VERTEX
  8
SAPA_FOGBAND
  5
1F74
 10
-40.0797
 20
20.7746
 30
0.000000
  70
    32
  0
VERTEX
  8
SAPA_FOGBAND
  5
1F75
 10
-40.0021
 20
20.7000
 30
0.000000
  70
    32
  0
VERTEX
  8
SAPA_FOGBAND
  5
1F76
 10
-39.9186
 20
20.6277
 30
0.000000
  70
    32
  0
VERTEX
  8
SAPA_FOGBAND
  5
1F77
 10
-39.8294
 20
20.5581
 30
0.000000
  70
    32
  0
VERTEX
  8
SAPA_FOGBAND
  5
1F78
 10
-39.7347
 20
20.4912
 30
0.000000
  70
    32
  0
VERTEX
  8
SAPA_FOGBAND
  5
1F79
 10
-39.6347
 20
20.4272
 30
0.000000
  70
    32
  0
VERTEX
  8
SAPA_FOGBAND
  5
1F7A
 10
-39.5297
 20
20.3663
 30
0.000000
  70
    32
  0
VERTEX
  8
SAPA_FOGBAND
  5
1F7B
 10
-39.4199
 20
20.3086
 30
0.000000
  70
    32
  0
VERTEX
  8
SAPA_FOGBAND
  5
1F7C
 10
-39.3055
 20
20.2542
 30
0.000000
  70
    32
  0
VERTEX
  8
SAPA_FOGBAND
  5
1F7D
 10
-39.1870
 20
20.2034
 30
0.000000
  70
    32
  0
VERTEX
  8
SAPA_FOGBAND
  5
1F7E
 10
-39.0645
 20
20.1561
 30
0.000000
  70
    32
  0
VERTEX
  8
SAPA_FOGBAND
  5
1F7F
 10
-38.9383
 20
20.1125
 30
0.000000
  70
    32
  0
VERTEX
  8
SAPA_FOGBAND
  5
1F80
 10
-38.8088
 20
20.0728
 30
0.000000
  70
    32
  0
VERTEX
  8
SAPA_FOGBAND
  5
1F81
 10
-38.6762
 20
20.0370
 30
0.000000
  70
    32
  0
VERTEX
  8
SAPA_FOGBAND
  5
1F82
 10
-38.5409
 20
20.0052
 30
0.000000
  70
    32
  0
VERTEX
  8
SAPA_FOGBAND
  5
1F83
 10
-38.4032
 20
19.9775
 30
0.000000
  70
    32
  0
VERTEX
  8
SAPA_FOGBAND
  5
1F84
 10
-38.2635
 20
19.9539
 30
0.000000
  70
    32
  0
VERTEX
  8
SAPA_FOGBAND
  5
1F85
 10
-38.1220
 20
19.9346
 30
0.000000
  70
    32
  0
VERTEX
  8
SAPA_FOGBAND
  5
1F86
 10
-37.9791
 20
19.9195
 30
0.000000
  70
    32
  0
VERTEX
  8
SAPA_FOGBAND
  5
1F87
 10
-37.8352
 20
19.9087
 30
0.000000
  70
    32
  0
VERTEX
  8
SAPA_FOGBAND
  5
1F88
 10
-37.6906
 20
19.9022
 30
0.000000
  70
    32
  0
VERTEX
  8
SAPA_FOGBAND
  5
1F89
 10
-37.5456
 20
19.9000
 30
0.000000
  70
    32
  0
VERTEX
  8
SAPA_FOGBAND
  5
1F8A
 10
-37.4007
 20
19.9022
 30
0.000000
  70
    32
  0
VERTEX
  8
SAPA_FOGBAND
  5
1F8B
 10
-37.2561
 20
19.9087
 30
0.000000
  70
    32
  0
VERTEX
  8
SAPA_FOGBAND
  5
1F8C
 10
-37.1121
 20
19.9195
 30
0.000000
  70
    32
  0
VERTEX
  8
SAPA_FOGBAND
  5
1F8D
 10
-36.9693
 20
19.9346
 30
0.000000
  70
    32
  0
VERTEX
  8
SAPA_FOGBAND
  5
1F8E
 10
-36.8278
 20
19.9539
 30
0.000000
  70
    32
  0
VERTEX
  8
SAPA_FOGBAND
  5
1F8F
 10
-36.6880
 20
19.9775
 30
0.000000
  70
    32
  0
VERTEX
  8
SAPA_FOGBAND
  5
1F90
 10
-36.5503
 20
20.0052
 30
0.000000
  70
    32
  0
VERTEX
  8
SAPA_FOGBAND
  5
1F91
 10
-36.4151
 20
20.0370
 30
0.000000
  70
    32
  0
VERTEX
  8
SAPA_FOGBAND
  5
1F92
 10
-36.2825
 20
20.0728
 30
0.000000
  70
    32
  0
VERTEX
  8
SAPA_FOGBAND
  5
1F93
 10
-36.1530
 20
20.1125
 30
0.000000
  70
    32
  0
VERTEX
  8
SAPA_FOGBAND
  5
1F94
 10
-36.0268
 20
20.1561
 30
0.000000
  70
    32
  0
VERTEX
  8
SAPA_FOGBAND
  5
1F95
 10
-35.9043
 20
20.2034
 30
0.000000
  70
    32
  0
VERTEX
  8
SAPA_FOGBAND
  5
1F96
 10
-35.7857
 20
20.2542
 30
0.000000
  70
    32
  0
VERTEX
  8
SAPA_FOGBAND
  5
1F97
 10
-35.6714
 20
20.3086
 30
0.000000
  70
    32
  0
VERTEX
  8
SAPA_FOGBAND
  5
1F98
 10
-35.5616
 20
20.3663
 30
0.000000
  70
    32
  0
VERTEX
  8
SAPA_FOGBAND
  5
1F99
 10
-35.4566
 20
20.4272
 30
0.000000
  70
    32
  0
VERTEX
  8
SAPA_FOGBAND
  5
1F9A
 10
-35.3566
 20
20.4912
 30
0.000000
  70
    32
  0
VERTEX
  8
SAPA_FOGBAND
  5
1F9B
 10
-35.2619
 20
20.5581
 30
0.000000
  70
    32
  0
VERTEX
  8
SAPA_FOGBAND
  5
1F9C
 10
-35.1727
 20
20.6277
 30
0.000000
  70
    32
  0
VERTEX
  8
SAPA_FOGBAND
  5
1F9D
 10
-35.0892
 20
20.7000
 30
0.000000
  70
    32
  0
VERTEX
  8
SAPA_FOGBAND
  5
1F9E
 10
-35.0116
 20
20.7746
 30
0.000000
  70
    32
  0
VERTEX
  8
SAPA_FOGBAND
  5
1F9F
 10
-34.9401
 20
20.8515
 30
0.000000
  70
    32
  0
VERTEX
  8
SAPA_FOGBAND
  5
1FA0
 10
-34.8749
 20
20.9304
 30
0.000000
  70
    32
  0
VERTEX
  8
SAPA_FOGBAND
  5
1FA1
 10
-34.8162
 20
21.0112
 30
0.000000
  70
    32
  0
VERTEX
  8
SAPA_FOGBAND
  5
1FA2
 10
-34.7640
 20
21.0936
 30
0.000000
  70
    32
  0
VERTEX
  8
SAPA_FOGBAND
  5
1FA3
 10
-34.7185
 20
21.1775
 30
0.000000
  70
    32
  0
VERTEX
  8
SAPA_FOGBAND
  5
1FA4
 10
-34.6798
 20
21.2626
 30
0.000000
  70
    32
  0
VERTEX
  8
SAPA_FOGBAND
  5
1FA5
 10
-34.6480
 20
21.3488
 30
0.000000
  70
    32
  0
VERTEX
  8
SAPA_FOGBAND
  5
1FA6
 10
-34.6233
 20
21.4359
 30
0.000000
  70
    32
  0
VERTEX
  8
SAPA_FOGBAND
  5
1FA7
 10
-34.6055
 20
21.5236
 30
0.000000
  70
    32
  0
VERTEX
  8
SAPA_FOGBAND
  5
1FA8
 10
-34.5948
 20
21.6117
 30
0.000000
  70
    32
  0
VERTEX
  8
SAPA_FOGBAND
  5
1FA9
 10
-34.5913
 20
21.7000
 30
0.000000
  70
    32
  0
VERTEX
  8
SAPA_FOGBAND
  5
1FAA
 10
-34.5948
 20
21.7883
 30
0.000000
  70
    32
  0
VERTEX
  8
SAPA_FOGBAND
  5
1FAB
 10
-34.6055
 20
21.8764
 30
0.000000
  70
    32
  0
VERTEX
  8
SAPA_FOGBAND
  5
1FAC
 10
-34.6233
 20
21.9641
 30
0.000000
  70
    32
  0
VERTEX
  8
SAPA_FOGBAND
  5
1FAD
 10
-34.6480
 20
22.0512
 30
0.000000
  70
    32
  0
VERTEX
  8
SAPA_FOGBAND
  5
1FAE
 10
-34.6798
 20
22.1374
 30
0.000000
  70
    32
  0
VERTEX
  8
SAPA_FOGBAND
  5
1FAF
 10
-34.7185
 20
22.2225
 30
0.000000
  70
    32
  0
VERTEX
  8
SAPA_FOGBAND
  5
1FB0
 10
-34.7640
 20
22.3064
 30
0.000000
  70
    32
  0
VERTEX
  8
SAPA_FOGBAND
  5
1FB1
 10
-34.8162
 20
22.3888
 30
0.000000
  70
    32
  0
VERTEX
  8
SAPA_FOGBAND
  5
1FB2
 10
-34.8749
 20
22.4696
 30
0.000000
  70
    32
  0
VERTEX
  8
SAPA_FOGBAND
  5
1FB3
 10
-34.9401
 20
22.5485
 30
0.000000
  70
    32
  0
VERTEX
  8
SAPA_FOGBAND
  5
1FB4
 10
-35.0116
 20
22.6254
 30
0.000000
  70
    32
  0
VERTEX
  8
SAPA_FOGBAND
  5
1FB5
 10
-35.0892
 20
22.7000
 30
0.000000
  70
    32
  0
VERTEX
  8
SAPA_FOGBAND
  5
1FB6
 10
-35.1727
 20
22.7723
 30
0.000000
  70
    32
  0
VERTEX
  8
SAPA_FOGBAND
  5
1FB7
 10
-35.2619
 20
22.8419
 30
0.000000
  70
    32
  0
VERTEX
  8
SAPA_FOGBAND
  5
1FB8
 10
-35.3566
 20
22.9088
 30
0.000000
  70
    32
  0
VERTEX
  8
SAPA_FOGBAND
  5
1FB9
 10
-35.4566
 20
22.9728
 30
0.000000
  70
    32
  0
VERTEX
  8
SAPA_FOGBAND
  5
1FBA
 10
-35.5616
 20
23.0337
 30
0.000000
  70
    32
  0
VERTEX
  8
SAPA_FOGBAND
  5
1FBB
 10
-35.6714
 20
23.0914
 30
0.000000
  70
    32
  0
VERTEX
  8
SAPA_FOGBAND
  5
1FBC
 10
-35.7857
 20
23.1458
 30
0.000000
  70
    32
  0
VERTEX
  8
SAPA_FOGBAND
  5
1FBD
 10
-35.9043
 20
23.1966
 30
0.000000
  70
    32
  0
VERTEX
  8
SAPA_FOGBAND
  5
1FBE
 10
-36.0268
 20
23.2439
 30
0.000000
  70
    32
  0
VERTEX
  8
SAPA_FOGBAND
  5
1FBF
 10
-36.1530
 20
23.2875
 30
0.000000
  70
    32
  0
VERTEX
  8
SAPA_FOGBAND
  5
1FC0
 10
-36.2825
 20
23.3272
 30
0.000000
  70
    32
  0
VERTEX
  8
SAPA_FOGBAND
  5
1FC1
 10
-36.4151
 20
23.3630
 30
0.000000
  70
    32
  0
VERTEX
  8
SAPA_FOGBAND
  5
1FC2
 10
-36.5503
 20
23.3948
 30
0.000000
  70
    32
  0
VERTEX
  8
SAPA_FOGBAND
  5
1FC3
 10
-36.6880
 20
23.4225
 30
0.000000
  70
    32
  0
VERTEX
  8
SAPA_FOGBAND
  5
1FC4
 10
-36.8278
 20
23.4461
 30
0.000000
  70
    32
  0
VERTEX
  8
SAPA_FOGBAND
  5
1FC5
 10
-36.9693
 20
23.4654
 30
0.000000
  70
    32
  0
VERTEX
  8
SAPA_FOGBAND
  5
1FC6
 10
-37.1121
 20
23.4805
 30
0.000000
  70
    32
  0
VERTEX
  8
SAPA_FOGBAND
  5
1FC7
 10
-37.2561
 20
23.4913
 30
0.000000
  70
    32
  0
VERTEX
  8
SAPA_FOGBAND
  5
1FC8
 10
-37.4007
 20
23.4978
 30
0.000000
  70
    32
  0
VERTEX
  8
SAPA_FOGBAND
  5
1FC9
 10
-37.5456
 20
23.5000
 30
0.000000
  70
    32
  0
VERTEX
  8
SAPA_FOGBAND
  5
1FCA
 10
-37.6906
 20
23.4978
 30
0.000000
  70
    32
  0
VERTEX
  8
SAPA_FOGBAND
  5
1FCB
 10
-37.8352
 20
23.4913
 30
0.000000
  70
    32
  0
VERTEX
  8
SAPA_FOGBAND
  5
1FCC
 10
-37.9791
 20
23.4805
 30
0.000000
  70
    32
  0
VERTEX
  8
SAPA_FOGBAND
  5
1FCD
 10
-38.1220
 20
23.4654
 30
0.000000
  70
    32
  0
VERTEX
  8
SAPA_FOGBAND
  5
1FCE
 10
-38.2635
 20
23.4461
 30
0.000000
  70
    32
  0
VERTEX
  8
SAPA_FOGBAND
  5
1FCF
 10
-38.4032
 20
23.4225
 30
0.000000
  70
    32
  0
VERTEX
  8
SAPA_FOGBAND
  5
1FD0
 10
-38.5409
 20
23.3948
 30
0.000000
  70
    32
  0
VERTEX
  8
SAPA_FOGBAND
  5
1FD1
 10
-38.6762
 20
23.3630
 30
0.000000
  70
    32
  0
VERTEX
  8
SAPA_FOGBAND
  5
1FD2
 10
-38.8088
 20
23.3272
 30
0.000000
  70
    32
  0
VERTEX
  8
SAPA_FOGBAND
  5
1FD3
 10
-38.9383
 20
23.2875
 30
0.000000
  70
    32
  0
VERTEX
  8
SAPA_FOGBAND
  5
1FD4
 10
-39.0645
 20
23.2439
 30
0.000000
  70
    32
  0
VERTEX
  8
SAPA_FOGBAND
  5
1FD5
 10
-39.1870
 20
23.1966
 30
0.000000
  70
    32
  0
VERTEX
  8
SAPA_FOGBAND
  5
1FD6
 10
-39.3055
 20
23.1458
 30
0.000000
  70
    32
  0
VERTEX
  8
SAPA_FOGBAND
  5
1FD7
 10
-39.4199
 20
23.0914
 30
0.000000
  70
    32
  0
VERTEX
  8
SAPA_FOGBAND
  5
1FD8
 10
-39.5297
 20
23.0337
 30
0.000000
  70
    32
  0
VERTEX
  8
SAPA_FOGBAND
  5
1FD9
 10
-39.6347
 20
22.9728
 30
0.000000
  70
    32
  0
VERTEX
  8
SAPA_FOGBAND
  5
1FDA
 10
-39.7347
 20
22.9088
 30
0.000000
  70
    32
  0
VERTEX
  8
SAPA_FOGBAND
  5
1FDB
 10
-39.8294
 20
22.8419
 30
0.000000
  70
    32
  0
VERTEX
  8
SAPA_FOGBAND
  5
1FDC
 10
-39.9186
 20
22.7723
 30
0.000000
  70
    32
  0
VERTEX
  8
SAPA_FOGBAND
  5
1FDD
 10
-40.0021
 20
22.7000
 30
0.000000
  70
    32
  0
VERTEX
  8
SAPA_FOGBAND
  5
1FDE
 10
-40.0797
 20
22.6254
 30
0.000000
  70
    32
  0
VERTEX
  8
SAPA_FOGBAND
  5
1FDF
 10
-40.1512
 20
22.5485
 30
0.000000
  70
    32
  0
VERTEX
  8
SAPA_FOGBAND
  5
1FE0
 10
-40.2163
 20
22.4696
 30
0.000000
  70
    32
  0
VERTEX
  8
SAPA_FOGBAND
  5
1FE1
 10
-40.2751
 20
22.3888
 30
0.000000
  70
    32
  0
VERTEX
  8
SAPA_FOGBAND
  5
1FE2
 10
-40.3273
 20
22.3064
 30
0.000000
  70
    32
  0
VERTEX
  8
SAPA_FOGBAND
  5
1FE3
 10
-40.3728
 20
22.2225
 30
0.000000
  70
    32
  0
VERTEX
  8
SAPA_FOGBAND
  5
1FE4
 10
-40.4115
 20
22.1374
 30
0.000000
  70
    32
  0
VERTEX
  8
SAPA_FOGBAND
  5
1FE5
 10
-40.4432
 20
22.0512
 30
0.000000
  70
    32
  0
VERTEX
  8
SAPA_FOGBAND
  5
1FE6
 10
-40.4680
 20
21.9641
 30
0.000000
  70
    32
  0
VERTEX
  8
SAPA_FOGBAND
  5
1FE7
 10
-40.4858
 20
21.8764
 30
0.000000
  70
    32
  0
VERTEX
  8
SAPA_FOGBAND
  5
1FE8
 10
-40.4964
 20
21.7883
 30
0.000000
  70
    32
  0
VERTEX
  8
SAPA_FOGBAND
  5
1FE9
 10
-40.5000
 20
21.7000
 30
0.000000
  70
    32
  0
SEQEND
  8
SAPA_FOGBAND
  5
1FEA
  0
INSERT
  5
15E1
  8
SAPA_FOGBAND
  6
CONTINUOUS
  2
*X89
 10
0.0
 20
0.0
 30
0.0
1001
ACAD
1000
HATCH
1002
{
1070
    19
1000
ANSI37
1040
0.25
1040
-1.570796326794897
1000
R14_HATCH_DATA
1000
15E1
1011
1.0
1021
0.0
1031
0.0
1021
0.0
1031
0.0
1011
0.0
1021
0.0
1031
0.0
1021
1.0
1031
0.0
1011
0.0
1021
0.0
1031
0.0
1021
0.0
1031
1.0
1040
0.0
1010
0.0
1020
0.0
1030
1.0
1000
ANSI37
1070
     0
1070
     0
1071
        1
1071
        1
1071
        3
1070
     3
1040
-37.545638078316173
1040
21.69999999999219
1040
-2.9543618886820009
1040
0.0000000000009328
1040
0.6092686230810487
1040
3.0288543565674959
1040
8.8961375621551824
1070
     0
1070
     2
1040
-36.09724774546374
1040
21.528106314816711
1040
1.5432917594600579
1040
5.5082984255660516
1040
5.8549249879456822
1070
     0
1070
     1
1040
-34.693331288384748
1040
22.169018193595779
1040
-34.610031169442578
1040
21.90249933918561
1071
        0
1070
     0
1070
     1
1040
-1.570796326794897
1040
0.25
1070
     0
1070
     2
1040
0.7853981633974481
1040
-403.40915699464858
1040
-420.88176377657828
1040
0.5612660075668221
1040
-0.5612660075668221
1070
     0
1040
5.4977871437821371
1040
-403.40915699464858
1040
-420.88176377657828
1040
-0.5612660075668221
1040
-0.5612660075668221
1070
     0
1071
        1
1040
-37.788408381380222
1040
21.851617139245938
1040
0.0
1002
}
  0
POLYLINE
  5
15E2
  8
SAPA_FOGBAND
 10
-58.646125407834838
 20
15.182155401672935
 30
0.0
 66
     1
 70
     8
  0
VERTEX
  8
SAPA_FOGBAND
  5
1FEB
 10
-58.6461
 20
15.1822
 30
0.000000
  70
    32
  0
VERTEX
  8
SAPA_FOGBAND
  5
1FEC
 10
-58.7402
 20
15.1866
 30
0.000000
  70
    32
  0
VERTEX
  8
SAPA_FOGBAND
  5
1FED
 10
-58.8340
 20
15.2001
 30
0.000000
  70
    32
  0
VERTEX
  8
SAPA_FOGBAND
  5
1FEE
 10
-58.9274
 20
15.2225
 30
0.000000
  70
    32
  0
VERTEX
  8
SAPA_FOGBAND
  5
1FEF
 10
-59.0201
 20
15.2539
 30
0.000000
  70
    32
  0
VERTEX
  8
SAPA_FOGBAND
  5
1FF0
 10
-59.1118
 20
15.2940
 30
0.000000
  70
    32
  0
VERTEX
  8
SAPA_FOGBAND
  5
1FF1
 10
-59.2025
 20
15.3428
 30
0.000000
  70
    32
  0
VERTEX
  8
SAPA_FOGBAND
  5
1FF2
 10
-59.2918
 20
15.4003
 30
0.000000
  70
    32
  0
VERTEX
  8
SAPA_FOGBAND
  5
1FF3
 10
-59.3796
 20
15.4662
 30
0.000000
  70
    32
  0
VERTEX
  8
SAPA_FOGBAND
  5
1FF4
 10
-59.4656
 20
15.5404
 30
0.000000
  70
    32
  0
VERTEX
  8
SAPA_FOGBAND
  5
1FF5
 10
-59.5496
 20
15.6227
 30
0.000000
  70
    32
  0
VERTEX
  8
SAPA_FOGBAND
  5
1FF6
 10
-59.6315
 20
15.7130
 30
0.000000
  70
    32
  0
VERTEX
  8
SAPA_FOGBAND
  5
1FF7
 10
-59.7110
 20
15.8110
 30
0.000000
  70
    32
  0
VERTEX
  8
SAPA_FOGBAND
  5
1FF8
 10
-59.7879
 20
15.9165
 30
0.000000
  70
    32
  0
VERTEX
  8
SAPA_FOGBAND
  5
1FF9
 10
-59.8621
 20
16.0291
 30
0.000000
  70
    32
  0
VERTEX
  8
SAPA_FOGBAND
  5
1FFA
 10
-59.9333
 20
16.1487
 30
0.000000
  70
    32
  0
VERTEX
  8
SAPA_FOGBAND
  5
1FFB
 10
-60.0014
 20
16.2750
 30
0.000000
  70
    32
  0
VERTEX
  8
SAPA_FOGBAND
  5
1FFC
 10
-60.0663
 20
16.4077
 30
0.000000
  70
    32
  0
VERTEX
  8
SAPA_FOGBAND
  5
1FFD
 10
-60.1277
 20
16.5463
 30
0.000000
  70
    32
  0
VERTEX
  8
SAPA_FOGBAND
  5
1FFE
 10
-60.1856
 20
16.6907
 30
0.000000
  70
    32
  0
VERTEX
  8
SAPA_FOGBAND
  5
1FFF
 10
-60.2398
 20
16.8405
 30
0.000000
  70
    32
  0
VERTEX
  8
SAPA_FOGBAND
  5
2000
 10
-60.2901
 20
16.9952
 30
0.000000
  70
    32
  0
VERTEX
  8
SAPA_FOGBAND
  5
2001
 10
-60.3365
 20
17.1545
 30
0.000000
  70
    32
  0
VERTEX
  8
SAPA_FOGBAND
  5
2002
 10
-60.3788
 20
17.3181
 30
0.000000
  70
    32
  0
VERTEX
  8
SAPA_FOGBAND
  5
2003
 10
-60.4169
 20
17.4856
 30
0.000000
  70
    32
  0
VERTEX
  8
SAPA_FOGBAND
  5
2004
 10
-60.4508
 20
17.6564
 30
0.000000
  70
    32
  0
VERTEX
  8
SAPA_FOGBAND
  5
2005
 10
-60.4803
 20
17.8303
 30
0.000000
  70
    32
  0
VERTEX
  8
SAPA_FOGBAND
  5
2006
 10
-60.5054
 20
18.0068
 30
0.000000
  70
    32
  0
VERTEX
  8
SAPA_FOGBAND
  5
2007
 10
-60.5260
 20
18.1855
 30
0.000000
  70
    32
  0
VERTEX
  8
SAPA_FOGBAND
  5
2008
 10
-60.5421
 20
18.3660
 30
0.000000
  70
    32
  0
VERTEX
  8
SAPA_FOGBAND
  5
2009
 10
-60.5536
 20
18.5477
 30
0.000000
  70
    32
  0
VERTEX
  8
SAPA_FOGBAND
  5
200A
 10
-60.5605
 20
18.7304
 30
0.000000
  70
    32
  0
VERTEX
  8
SAPA_FOGBAND
  5
200B
 10
-60.5628
 20
18.9135
 30
0.000000
  70
    32
  0
VERTEX
  8
SAPA_FOGBAND
  5
200C
 10
-60.5605
 20
19.0966
 30
0.000000
  70
    32
  0
VERTEX
  8
SAPA_FOGBAND
  5
200D
 10
-60.5536
 20
19.2792
 30
0.000000
  70
    32
  0
VERTEX
  8
SAPA_FOGBAND
  5
200E
 10
-60.5421
 20
19.4610
 30
0.000000
  70
    32
  0
VERTEX
  8
SAPA_FOGBAND
  5
200F
 10
-60.5260
 20
19.6414
 30
0.000000
  70
    32
  0
VERTEX
  8
SAPA_FOGBAND
  5
2010
 10
-60.5054
 20
19.8201
 30
0.000000
  70
    32
  0
VERTEX
  8
SAPA_FOGBAND
  5
2011
 10
-60.4803
 20
19.9966
 30
0.000000
  70
    32
  0
VERTEX
  8
SAPA_FOGBAND
  5
2012
 10
-60.4508
 20
20.1705
 30
0.000000
  70
    32
  0
VERTEX
  8
SAPA_FOGBAND
  5
2013
 10
-60.4169
 20
20.3414
 30
0.000000
  70
    32
  0
VERTEX
  8
SAPA_FOGBAND
  5
2014
 10
-60.3788
 20
20.5088
 30
0.000000
  70
    32
  0
VERTEX
  8
SAPA_FOGBAND
  5
2015
 10
-60.3365
 20
20.6724
 30
0.000000
  70
    32
  0
VERTEX
  8
SAPA_FOGBAND
  5
2016
 10
-60.2901
 20
20.8318
 30
0.000000
  70
    32
  0
VERTEX
  8
SAPA_FOGBAND
  5
2017
 10
-60.2398
 20
20.9865
 30
0.000000
  70
    32
  0
VERTEX
  8
SAPA_FOGBAND
  5
2018
 10
-60.1856
 20
21.1362
 30
0.000000
  70
    32
  0
VERTEX
  8
SAPA_FOGBAND
  5
2019
 10
-60.1277
 20
21.2806
 30
0.000000
  70
    32
  0
VERTEX
  8
SAPA_FOGBAND
  5
201A
 10
-60.0663
 20
21.4193
 30
0.000000
  70
    32
  0
VERTEX
  8
SAPA_FOGBAND
  5
201B
 10
-60.0014
 20
21.5519
 30
0.000000
  70
    32
  0
VERTEX
  8
SAPA_FOGBAND
  5
201C
 10
-59.9333
 20
21.6782
 30
0.000000
  70
    32
  0
VERTEX
  8
SAPA_FOGBAND
  5
201D
 10
-59.8621
 20
21.7978
 30
0.000000
  70
    32
  0
VERTEX
  8
SAPA_FOGBAND
  5
201E
 10
-59.7879
 20
21.9105
 30
0.000000
  70
    32
  0
VERTEX
  8
SAPA_FOGBAND
  5
201F
 10
-59.7110
 20
22.0159
 30
0.000000
  70
    32
  0
VERTEX
  8
SAPA_FOGBAND
  5
2020
 10
-59.6315
 20
22.1139
 30
0.000000
  70
    32
  0
VERTEX
  8
SAPA_FOGBAND
  5
2021
 10
-59.5496
 20
22.2042
 30
0.000000
  70
    32
  0
VERTEX
  8
SAPA_FOGBAND
  5
2022
 10
-59.4656
 20
22.2865
 30
0.000000
  70
    32
  0
VERTEX
  8
SAPA_FOGBAND
  5
2023
 10
-59.3796
 20
22.3608
 30
0.000000
  70
    32
  0
VERTEX
  8
SAPA_FOGBAND
  5
2024
 10
-59.2918
 20
22.4267
 30
0.000000
  70
    32
  0
VERTEX
  8
SAPA_FOGBAND
  5
2025
 10
-59.2025
 20
22.4841
 30
0.000000
  70
    32
  0
VERTEX
  8
SAPA_FOGBAND
  5
2026
 10
-59.1118
 20
22.5330
 30
0.000000
  70
    32
  0
VERTEX
  8
SAPA_FOGBAND
  5
2027
 10
-59.0201
 20
22.5731
 30
0.000000
  70
    32
  0
VERTEX
  8
SAPA_FOGBAND
  5
2028
 10
-58.9274
 20
22.6044
 30
0.000000
  70
    32
  0
VERTEX
  8
SAPA_FOGBAND
  5
2029
 10
-58.8340
 20
22.6268
 30
0.000000
  70
    32
  0
VERTEX
  8
SAPA_FOGBAND
  5
202A
 10
-58.7402
 20
22.6403
 30
0.000000
  70
    32
  0
VERTEX
  8
SAPA_FOGBAND
  5
202B
 10
-58.6461
 20
22.6448
 30
0.000000
  70
    32
  0
VERTEX
  8
SAPA_FOGBAND
  5
202C
 10
-58.5521
 20
22.6403
 30
0.000000
  70
    32
  0
VERTEX
  8
SAPA_FOGBAND
  5
202D
 10
-58.4583
 20
22.6268
 30
0.000000
  70
    32
  0
VERTEX
  8
SAPA_FOGBAND
  5
202E
 10
-58.3649
 20
22.6044
 30
0.000000
  70
    32
  0
VERTEX
  8
SAPA_FOGBAND
  5
202F
 10
-58.2722
 20
22.5731
 30
0.000000
  70
    32
  0
VERTEX
  8
SAPA_FOGBAND
  5
2030
 10
-58.1804
 20
22.5330
 30
0.000000
  70
    32
  0
VERTEX
  8
SAPA_FOGBAND
  5
2031
 10
-58.0897
 20
22.4841
 30
0.000000
  70
    32
  0
VERTEX
  8
SAPA_FOGBAND
  5
2032
 10
-58.0004
 20
22.4267
 30
0.000000
  70
    32
  0
VERTEX
  8
SAPA_FOGBAND
  5
2033
 10
-57.9126
 20
22.3608
 30
0.000000
  70
    32
  0
VERTEX
  8
SAPA_FOGBAND
  5
2034
 10
-57.8266
 20
22.2865
 30
0.000000
  70
    32
  0
VERTEX
  8
SAPA_FOGBAND
  5
2035
 10
-57.7426
 20
22.2042
 30
0.000000
  70
    32
  0
VERTEX
  8
SAPA_FOGBAND
  5
2036
 10
-57.6607
 20
22.1139
 30
0.000000
  70
    32
  0
VERTEX
  8
SAPA_FOGBAND
  5
2037
 10
-57.5813
 20
22.0159
 30
0.000000
  70
    32
  0
VERTEX
  8
SAPA_FOGBAND
  5
2038
 10
-57.5044
 20
21.9105
 30
0.000000
  70
    32
  0
VERTEX
  8
SAPA_FOGBAND
  5
2039
 10
-57.4302
 20
21.7978
 30
0.000000
  70
    32
  0
VERTEX
  8
SAPA_FOGBAND
  5
203A
 10
-57.3590
 20
21.6782
 30
0.000000
  70
    32
  0
VERTEX
  8
SAPA_FOGBAND
  5
203B
 10
-57.2908
 20
21.5519
 30
0.000000
  70
    32
  0
VERTEX
  8
SAPA_FOGBAND
  5
203C
 10
-57.2260
 20
21.4193
 30
0.000000
  70
    32
  0
VERTEX
  8
SAPA_FOGBAND
  5
203D
 10
-57.1645
 20
21.2806
 30
0.000000
  70
    32
  0
VERTEX
  8
SAPA_FOGBAND
  5
203E
 10
-57.1066
 20
21.1362
 30
0.000000
  70
    32
  0
VERTEX
  8
SAPA_FOGBAND
  5
203F
 10
-57.0525
 20
20.9865
 30
0.000000
  70
    32
  0
VERTEX
  8
SAPA_FOGBAND
  5
2040
 10
-57.0021
 20
20.8318
 30
0.000000
  70
    32
  0
VERTEX
  8
SAPA_FOGBAND
  5
2041
 10
-56.9558
 20
20.6724
 30
0.000000
  70
    32
  0
VERTEX
  8
SAPA_FOGBAND
  5
2042
 10
-56.9135
 20
20.5088
 30
0.000000
  70
    32
  0
VERTEX
  8
SAPA_FOGBAND
  5
2043
 10
-56.8753
 20
20.3414
 30
0.000000
  70
    32
  0
VERTEX
  8
SAPA_FOGBAND
  5
2044
 10
-56.8415
 20
20.1705
 30
0.000000
  70
    32
  0
VERTEX
  8
SAPA_FOGBAND
  5
2045
 10
-56.8120
 20
19.9966
 30
0.000000
  70
    32
  0
VERTEX
  8
SAPA_FOGBAND
  5
2046
 10
-56.7869
 20
19.8201
 30
0.000000
  70
    32
  0
VERTEX
  8
SAPA_FOGBAND
  5
2047
 10
-56.7663
 20
19.6414
 30
0.000000
  70
    32
  0
VERTEX
  8
SAPA_FOGBAND
  5
2048
 10
-56.7502
 20
19.4610
 30
0.000000
  70
    32
  0
VERTEX
  8
SAPA_FOGBAND
  5
2049
 10
-56.7387
 20
19.2792
 30
0.000000
  70
    32
  0
VERTEX
  8
SAPA_FOGBAND
  5
204A
 10
-56.7317
 20
19.0966
 30
0.000000
  70
    32
  0
VERTEX
  8
SAPA_FOGBAND
  5
204B
 10
-56.7294
 20
18.9135
 30
0.000000
  70
    32
  0
VERTEX
  8
SAPA_FOGBAND
  5
204C
 10
-56.7317
 20
18.7304
 30
0.000000
  70
    32
  0
VERTEX
  8
SAPA_FOGBAND
  5
204D
 10
-56.7387
 20
18.5477
 30
0.000000
  70
    32
  0
VERTEX
  8
SAPA_FOGBAND
  5
204E
 10
-56.7502
 20
18.3660
 30
0.000000
  70
    32
  0
VERTEX
  8
SAPA_FOGBAND
  5
204F
 10
-56.7663
 20
18.1855
 30
0.000000
  70
    32
  0
VERTEX
  8
SAPA_FOGBAND
  5
2050
 10
-56.7869
 20
18.0068
 30
0.000000
  70
    32
  0
VERTEX
  8
SAPA_FOGBAND
  5
2051
 10
-56.8120
 20
17.8303
 30
0.000000
  70
    32
  0
VERTEX
  8
SAPA_FOGBAND
  5
2052
 10
-56.8415
 20
17.6564
 30
0.000000
  70
    32
  0
VERTEX
  8
SAPA_FOGBAND
  5
2053
 10
-56.8753
 20
17.4856
 30
0.000000
  70
    32
  0
VERTEX
  8
SAPA_FOGBAND
  5
2054
 10
-56.9135
 20
17.3181
 30
0.000000
  70
    32
  0
VERTEX
  8
SAPA_FOGBAND
  5
2055
 10
-56.9558
 20
17.1545
 30
0.000000
  70
    32
  0
VERTEX
  8
SAPA_FOGBAND
  5
2056
 10
-57.0021
 20
16.9952
 30
0.000000
  70
    32
  0
VERTEX
  8
SAPA_FOGBAND
  5
2057
 10
-57.0525
 20
16.8405
 30
0.000000
  70
    32
  0
VERTEX
  8
SAPA_FOGBAND
  5
2058
 10
-57.1066
 20
16.6907
 30
0.000000
  70
    32
  0
VERTEX
  8
SAPA_FOGBAND
  5
2059
 10
-57.1645
 20
16.5463
 30
0.000000
  70
    32
  0
VERTEX
  8
SAPA_FOGBAND
  5
205A
 10
-57.2260
 20
16.4077
 30
0.000000
  70
    32
  0
VERTEX
  8
SAPA_FOGBAND
  5
205B
 10
-57.2908
 20
16.2750
 30
0.000000
  70
    32
  0
VERTEX
  8
SAPA_FOGBAND
  5
205C
 10
-57.3590
 20
16.1487
 30
0.000000
  70
    32
  0
VERTEX
  8
SAPA_FOGBAND
  5
205D
 10
-57.4302
 20
16.0291
 30
0.000000
  70
    32
  0
VERTEX
  8
SAPA_FOGBAND
  5
205E
 10
-57.5044
 20
15.9165
 30
0.000000
  70
    32
  0
VERTEX
  8
SAPA_FOGBAND
  5
205F
 10
-57.5813
 20
15.8110
 30
0.000000
  70
    32
  0
VERTEX
  8
SAPA_FOGBAND
  5
2060
 10
-57.6607
 20
15.7130
 30
0.000000
  70
    32
  0
VERTEX
  8
SAPA_FOGBAND
  5
2061
 10
-57.7426
 20
15.6227
 30
0.000000
  70
    32
  0
VERTEX
  8
SAPA_FOGBAND
  5
2062
 10
-57.8266
 20
15.5404
 30
0.000000
  70
    32
  0
VERTEX
  8
SAPA_FOGBAND
  5
2063
 10
-57.9126
 20
15.4662
 30
0.000000
  70
    32
  0
VERTEX
  8
SAPA_FOGBAND
  5
2064
 10
-58.0004
 20
15.4003
 30
0.000000
  70
    32
  0
VERTEX
  8
SAPA_FOGBAND
  5
2065
 10
-58.0897
 20
15.3428
 30
0.000000
  70
    32
  0
VERTEX
  8
SAPA_FOGBAND
  5
2066
 10
-58.1804
 20
15.2940
 30
0.000000
  70
    32
  0
VERTEX
  8
SAPA_FOGBAND
  5
2067
 10
-58.2722
 20
15.2539
 30
0.000000
  70
    32
  0
VERTEX
  8
SAPA_FOGBAND
  5
2068
 10
-58.3649
 20
15.2225
 30
0.000000
  70
    32
  0
VERTEX
  8
SAPA_FOGBAND
  5
2069
 10
-58.4583
 20
15.2001
 30
0.000000
  70
    32
  0
VERTEX
  8
SAPA_FOGBAND
  5
206A
 10
-58.5521
 20
15.1866
 30
0.000000
  70
    32
  0
VERTEX
  8
SAPA_FOGBAND
  5
206B
 10
-58.6461
 20
15.1822
 30
0.000000
  70
    32
  0
SEQEND
  8
SAPA_FOGBAND
  5
206C
  0
POLYLINE
  5
15E3
  8
SAPA_FOGBAND
 66
     1
 10
0.0
 20
0.0
 30
0.0
  0
VERTEX
  5
1F38
  8
SAPA_FOGBAND
 10
-51.800000000001688
 20
23.787839836612122
 30
0.0
  0
VERTEX
  5
1F39
  8
SAPA_FOGBAND
 10
-51.500000000001727
 20
23.787839836612122
 30
0.0
  0
VERTEX
  5
1F3A
  8
SAPA_FOGBAND
 10
-51.800000000001688
 20
23.787839836612122
 30
0.0
 42
0.4142135623730951
  0
VERTEX
  5
1F3B
  8
SAPA_FOGBAND
 10
-52.300000000001688
 20
23.287839836612122
 30
0.0
  0
VERTEX
  5
1F3C
  8
SAPA_FOGBAND
 10
-52.300000000001752
 20
15.98783983661216
 30
0.0
 42
0.4142135623730951
  0
VERTEX
  5
1F3D
  8
SAPA_FOGBAND
 10
-51.800000000001752
 20
15.48783983661216
 30
0.0
  0
VERTEX
  5
1F3E
  8
SAPA_FOGBAND
 10
-51.500000000001741
 20
15.48783983661216
 30
0.0
  0
SEQEND
  5
1F3F
  8
SAPA_FOGBAND
  0
POLYLINE
  5
15E4
  8
SAPA_FOGBAND
 66
     1
 10
0.0
 20
0.0
 30
0.0
 70
     1
  0
VERTEX
  5
1F40
  8
SAPA_FOGBAND
 10
-49.585369502362973
 20
21.08783983661213
 30
0.0
  0
VERTEX
  5
1F41
  8
SAPA_FOGBAND
 10
-50.185369502362931
 20
21.08783983661213
 30
0.0
 42
0.9999999999999998
  0
VERTEX
  5
1F42
  8
SAPA_FOGBAND
 10
-50.185369502362938
 20
19.287839836612171
 30
0.0
  0
VERTEX
  5
1F43
  8
SAPA_FOGBAND
 10
-49.585369502362973
 20
19.287839836612122
 30
0.0
 42
0.9999999999999998
  0
SEQEND
  5
1F44
  8
SAPA_FOGBAND
  0
POLYLINE
  5
15E5
  8
SAPA_FOGBAND
 66
     1
 10
0.0
 20
0.0
 30
0.0
 70
     1
  0
VERTEX
  5
1F45
  8
SAPA_FOGBAND
 10
-56.418068725706547
 20
11.498975242774391
 30
0.0
 42
0.646356061736289
  0
VERTEX
  5
1F46
  8
SAPA_FOGBAND
 10
-57.16693878087225
 20
13.16169210575292
 30
0.0
  0
VERTEX
  5
1F47
  8
SAPA_FOGBAND
 10
-60.645911392332323
 20
13.16169210575292
 30
0.0
 42
0.4879283649264857
  0
VERTEX
  5
1F48
  8
SAPA_FOGBAND
 10
-61.61605389247768
 20
11.91915648071657
 30
0.0
  0
VERTEX
  5
1F49
  8
SAPA_FOGBAND
 10
-60.896604538392729
 20
9.0413590643768096
 30
0.0
 42
0.3441507314089108
  0
VERTEX
  5
1F4A
  8
SAPA_FOGBAND
 10
-59.926462038247401
 20
8.2838946894131418
 30
0.0
  0
VERTEX
  5
1F4B
  8
SAPA_FOGBAND
 10
-59.713662158164098
 20
8.2838946894131276
 30
0.0
 42
0.214804042991016
  0
VERTEX
  5
1F4C
  8
SAPA_FOGBAND
 10
-58.964792102998402
 20
8.6211778264346144
 30
0.0
  0
SEQEND
  5
1F4D
  8
SAPA_FOGBAND
  0
POLYLINE
  5
15E6
  8
SAPA_FOGBAND
 66
     1
 10
0.0
 20
0.0
 30
0.0
 70
     1
  0
VERTEX
  5
1F4E
  8
SAPA_FOGBAND
 10
-51.500000000001741
 20
18.187839836612149
 30
0.0
 42
-0.4142135623730951
  0
VERTEX
  5
1F4F
  8
SAPA_FOGBAND
 10
-51.000000000001741
 20
18.687839836612149
 30
0.0
  0
VERTEX
  5
1F50
  8
SAPA_FOGBAND
 10
-50.058574583119857
 20
18.687839836612149
 30
0.0
  0
VERTEX
  5
1F51
  8
SAPA_FOGBAND
 10
-49.991114673809399
 20
18.436076027591682
 30
0.0
 42
0.474057181023226
  0
VERTEX
  5
1F52
  8
SAPA_FOGBAND
 10
-49.708832088170801
 20
18.30878216522806
 30
0.0
  0
VERTEX
  5
1F53
  8
SAPA_FOGBAND
 10
-48.262625951410911
 20
18.928882667986699
 30
0.0
 42
0.2846003776496053
  0
VERTEX
  5
1F54
  8
SAPA_FOGBAND
 10
-47.985369502362943
 20
19.376526846446811
 30
0.0
  0
VERTEX
  5
1F55
  8
SAPA_FOGBAND
 10
-47.985369502362943
 20
20.999152826777419
 30
0.0
 42
0.2846003776496055
  0
VERTEX
  5
1F56
  8
SAPA_FOGBAND
 10
-48.262625951410911
 20
21.446797005237588
 30
0.0
  0
VERTEX
  5
1F57
  8
SAPA_FOGBAND
 10
-49.708832088170738
 20
22.066897507996181
 30
0.0
 42
0.474057181023226
  0
VERTEX
  5
1F58
  8
SAPA_FOGBAND
 10
-49.991114673809392
 20
21.93960364563263
 30
0.0
  0
VERTEX
  5
1F59
  8
SAPA_FOGBAND
 10
-50.058574583119849
 20
21.687839836612149
 30
0.0
  0
VERTEX
  5
1F5A
  8
SAPA_FOGBAND
 10
-51.000000000001727
 20
21.687839836612149
 30
0.0
 42
-0.4142135623730951
  0
VERTEX
  5
1F5B
  8
SAPA_FOGBAND
 10
-51.500000000001727
 20
22.187839836612149
 30
0.0
  0
VERTEX
  5
1F5C
  8
SAPA_FOGBAND
 10
-51.500000000001677
 20
24.699999999993612
 30
0.0
 42
0.4052499559557504
  0
VERTEX
  5
1F5D
  8
SAPA_FOGBAND
 10
-51.790791339129008
 20
24.999858634294739
 30
0.0
  0
VERTEX
  5
1F5E
  8
SAPA_FOGBAND
 10
-62.690791339129063
 20
25.48769844896416
 30
0.0
 42
0.4232343445545565
  0
VERTEX
  5
1F5F
  8
SAPA_FOGBAND
 10
-63.000000000001741
 20
25.187839814663029
 30
0.0
  0
VERTEX
  5
1F60
  8
SAPA_FOGBAND
 10
-63.000000000001741
 20
11.549392649420991
 30
0.0
 42
0.0613213552369726
  0
VERTEX
  5
1F61
  8
SAPA_FOGBAND
 10
-62.985071250074427
 20
11.428124836902819
 30
0.0
  0
VERTEX
  5
1F62
  8
SAPA_FOGBAND
 10
-62.414366093742601
 20
5.945304211575813
 30
0.0
 42
0.3441507314089092
  0
VERTEX
  5
1F63
  8
SAPA_FOGBAND
 10
-61.444223593597279
 20
5.1878398366121532
 30
0.0
  0
VERTEX
  5
1F64
  8
SAPA_FOGBAND
 10
-60.206139425069082
 20
5.1878398366121523
 30
0.0
 42
0.2148040429910146
  0
VERTEX
  5
1F65
  8
SAPA_FOGBAND
 10
-59.831704397486213
 20
5.3564814051228877
 30
0.0
  0
VERTEX
  5
1F66
  8
SAPA_FOGBAND
 10
-51.751129944835981
 20
14.48753053661753
 30
0.0
 42
0.1831167524995932
  0
VERTEX
  5
1F67
  8
SAPA_FOGBAND
 10
-51.500000000001741
 20
15.15024739959606
 30
0.0
  0
SEQEND
  5
1F68
  8
SAPA_FOGBAND
  0
VIEWPORT
  5
C4
 67
     1
  8
0
 10
160.5543545598442
 20
116.00969601843509
 30
0.0
 40
404.96977709277462
 41
256.8421457311839
 68
     1
 69
     1
1001
ACAD
1000
MVIEW
1002
{
1070
    16
1010
0.0
1020
0.0
1030
0.0
1010
0.0
1020
0.0
1030
1.0
1040
0.0
1040
256.8421457311839
1040
99.206250190734863
1040
130.70624923706049
1040
50.0
1040
0.0
1040
0.0
1070
     0
1070
     0
1070
     1
1070
     1
1070
     0
1070
     0
1070
     0
1070
     0
1040
0.0
1040
0.0
1040
0.0
1040
10.0
1040
10.0
1040
10.0
1040
10.0
1070
     0
1002
{
1002
}
1002
}
  0
ENDSEC
  0
EOF
