  0
SECTION
  2
HEADER
  9
$ACADVER
  1
AC1009
  9
$INSBASE
 10
0.0
 20
0.0
 30
0.0
  9
$EXTMIN
 10
-93.378873564227831
 20
-40.999999252923367
 30
0.0
  9
$EXTMAX
 10
52.249034469084393
 20
60.957152116740907
 30
0.0
  9
$LIMMIN
 10
0.0
 20
0.0
  9
$LIMMAX
 10
790.0
 20
790.0
  9
$ORTHOMODE
 70
     1
  9
$REGENMODE
 70
     1
  9
$FILLMODE
 70
     1
  9
$QTEXTMODE
 70
     0
  9
$MIRRTEXT
 70
     1
  9
$DRAGMODE
 70
     2
  9
$LTSCALE
 40
4.0
  9
$OSMODE
 70
   167
  9
$ATTMODE
 70
     1
  9
$TEXTSIZE
 40
3.5
  9
$TRACEWID
 40
0.05
  9
$TEXTSTYLE
  7
ISO
  9
$CLAYER
  8
0
  9
$CELTYPE
  6
BYLAYER
  9
$CECOLOR
 62
   256
  9
$DIMSCALE
 40
0.0
  9
$DIMASZ
 40
3.0
  9
$DIMEXO
 40
1.5
  9
$DIMDLI
 40
10.0
  9
$DIMRND
 40
0.0
  9
$DIMDLE
 40
0.0
  9
$DIMEXE
 40
1.5
  9
$DIMTP
 40
0.0
  9
$DIMTM
 40
0.0
  9
$DIMTXT
 40
3.0
  9
$DIMCEN
 40
-5.0
  9
$DIMTSZ
 40
0.0
  9
$DIMTOL
 70
     0
  9
$DIMLIM
 70
     0
  9
$DIMTIH
 70
     0
  9
$DIMTOH
 70
     0
  9
$DIMSE1
 70
     0
  9
$DIMSE2
 70
     0
  9
$DIMTAD
 70
     1
  9
$DIMZIN
 70
     8
  9
$DIMBLK
  1

  9
$DIMASO
 70
     1
  9
$DIMSHO
 70
     1
  9
$DIMPOST
  1

  9
$DIMAPOST
  1

  9
$DIMALT
 70
     0
  9
$DIMALTD
 70
     0
  9
$DIMALTF
 40
25.399999999999999
  9
$DIMLFAC
 40
-1.0
  9
$DIMTOFL
 70
     1
  9
$DIMTVP
 40
0.0
  9
$DIMTIX
 70
     0
  9
$DIMSOXD
 70
     0
  9
$DIMSAH
 70
     0
  9
$DIMBLK1
  1

  9
$DIMBLK2
  1

  9
$DIMSTYLE
  2
MASKIN
  9
$DIMCLRD
 70
   256
  9
$DIMCLRE
 70
   256
  9
$DIMCLRT
 70
     2
  9
$DIMTFAC
 40
1.0
  9
$DIMGAP
 40
1.0
  9
$LUNITS
 70
     2
  9
$LUPREC
 70
     8
  9
$SKETCHINC
 40
0.1
  9
$FILLETRAD
 40
0.0
  9
$AUNITS
 70
     0
  9
$AUPREC
 70
     8
  9
$MENU
  1
ACAD
  9
$ELEVATION
 40
0.0
  9
$PELEVATION
 40
0.0
  9
$THICKNESS
 40
0.0
  9
$LIMCHECK
 70
     0
  9
$BLIPMODE
 70
     0
  9
$CHAMFERA
 40
0.0
  9
$CHAMFERB
 40
0.0
  9
$SKPOLY
 70
     0
  9
$TDCREATE
 40
2456297.4478323259
  9
$TDUPDATE
 40
2456647.3996267589
  9
$TDINDWG
 40
0.5297884144
  9
$TDUSRTIMER
 40
0.5297884144
  9
$USRTIMER
 70
     1
  9
$ANGBASE
 50
0.0
  9
$ANGDIR
 70
     0
  9
$PDMODE
 70
     0
  9
$PDSIZE
 40
0.0
  9
$PLINEWID
 40
0.0
  9
$COORDS
 70
     1
  9
$SPLFRAME
 70
     0
  9
$SPLINETYPE
 70
     6
  9
$SPLINESEGS
 70
     8
  9
$ATTDIA
 70
     0
  9
$ATTREQ
 70
     1
  9
$HANDLING
 70
     1
  9
$HANDSEED
  5
2278
  9
$SURFTAB1
 70
     6
  9
$SURFTAB2
 70
     6
  9
$SURFTYPE
 70
     6
  9
$SURFU
 70
     6
  9
$SURFV
 70
     6
  9
$UCSNAME
  2

  9
$UCSORG
 10
0.0
 20
0.0
 30
0.0
  9
$UCSXDIR
 10
1.0
 20
0.0
 30
0.0
  9
$UCSYDIR
 10
0.0
 20
1.0
 30
0.0
  9
$PUCSNAME
  2

  9
$PUCSORG
 10
0.0
 20
0.0
 30
0.0
  9
$PUCSXDIR
 10
1.0
 20
0.0
 30
0.0
  9
$PUCSYDIR
 10
0.0
 20
1.0
 30
0.0
  9
$USERI1
 70
     0
  9
$USERI2
 70
     0
  9
$USERI3
 70
     0
  9
$USERI4
 70
     0
  9
$USERI5
 70
     0
  9
$USERR1
 40
0.0
  9
$USERR2
 40
0.0
  9
$USERR3
 40
0.0
  9
$USERR4
 40
0.0
  9
$USERR5
 40
0.0
  9
$WORLDVIEW
 70
     1
  9
$SHADEDGE
 70
     3
  9
$SHADEDIF
 70
    70
  9
$TILEMODE
 70
     1
  9
$MAXACTVP
 70
    16
  9
$PLIMCHECK
 70
     0
  9
$PEXTMIN
 10
1.0000000000000000E+020
 20
1.0000000000000000E+020
 30
1.0000000000000000E+020
  9
$PEXTMAX
 10
-1.0000000000000000E+020
 20
-1.0000000000000000E+020
 30
-1.0000000000000000E+020
  9
$PLIMMIN
 10
-5.069427490234375
 20
-5.8737497329711914
  9
$PLIMMAX
 10
291.89889526367187
 20
204.0995779037475
  9
$UNITMODE
 70
     0
  9
$VISRETAIN
 70
     1
  9
$PLINEGEN
 70
     0
  9
$PSLTSCALE
 70
     1
  0
ENDSEC
  0
SECTION
  2
TABLES
  0
TABLE
  2
VPORT
 70
     1
  0
VPORT
  2
*ACTIVE
 70
     0
 10
0.0
 20
0.0
 11
1.0
 21
1.0
 12
21.604769583704041
 22
52.47661979099319
 13
0.0
 23
0.0
 14
1.0
 24
1.0
 15
0.0
 25
0.0
 16
0.0
 26
0.0
 36
1.0
 17
0.0
 27
0.0
 37
0.0
 40
215.2363535015848
 41
2.112307692307692
 42
50.0
 43
0.0
 44
0.0
 50
0.0
 51
0.0
 71
     0
 72
   100
 73
     1
 74
     1
 75
     0
 76
     0
 77
     0
 78
     0
  0
ENDTAB
  0
TABLE
  2
LTYPE
 70
    50
  0
LTYPE
  2
CONTINUOUS
 70
     0
  3
Solid line
 72
    65
 73
     0
 40
0.0
  0
LTYPE
  2
DASHDOT
 70
     0
  3
__ . __ . __ . __ . __ . __ . __ . __ . __ . __
 72
    65
 73
     4
 40
1.0
 49
0.5
 49
-0.25
 49
0.0
 49
-0.25
  0
LTYPE
  2
BYGG-018516$0$NEWDOT
 70
     0
  3
____ . ____ . ____ . ____ . ____ . ____ . ____
 72
    65
 73
     4
 40
2.0
 49
1.0
 49
-0.5
 49
0.0
 49
-0.5
  0
LTYPE
  2
BYGG-018516$0$ZIGZAG
 70
     0
  3
Zig zag /\/\/\/\/\/\/\/\/\/\/\/\/\/\/\/\/\/\/\/\/\/\/\/
 72
    65
 73
     4
 40
20.32254
 49
0.00254
 49
-5.0800000000000001
 49
-10.16
 49
-5.0800000000000001
  0
LTYPE
  2
BYGG-014269$0$NEWDOT
 70
     0
  3
____ . ____ . ____ . ____ . ____ . ____ . ____
 72
    65
 73
     4
 40
2.0
 49
1.0
 49
-0.5
 49
0.0
 49
-0.5
  0
LTYPE
  2
BYGG-014269$0$ZIGZAG
 70
     0
  3
Zig zag /\/\/\/\/\/\/\/\/\/\/\/\/\/\/\/\/\/\/\/\/\/\/\/
 72
    65
 73
     4
 40
20.32254
 49
0.00254
 49
-5.0800000000000001
 49
-10.16
 49
-5.0800000000000001
  0
LTYPE
  2
BYGG-018731$0$NEWDOT
 70
     0
  3
____ . ____ . ____ . ____ . ____ . ____ . ____
 72
    65
 73
     4
 40
2.0
 49
1.0
 49
-0.5
 49
0.0
 49
-0.5
  0
LTYPE
  2
BYGG-018731$0$DASHDOT
 70
     0
  3
__ . __ . __ . __ . __ . __ . __ . __ . __ . __
 72
    65
 73
     4
 40
1.0
 49
0.5
 49
-0.25
 49
0.0
 49
-0.25
  0
LTYPE
  2
BYGG-018731$0$DASHED
 70
     0
  3
__ __ __ __ __ __ __ __ __ __ __ __ __ __ __
 72
    65
 73
     2
 40
0.75
 49
0.5
 49
-0.25
  0
LTYPE
  2
BYGG-018731$0$PHANTOM
 70
     0
  3
Phantom ______  __  __  ______  __  __  ______
 72
    65
 73
     6
 40
63.5
 49
31.75
 49
-6.3499999999999988
 49
6.3499999999999988
 49
-6.3499999999999988
 49
6.3499999999999988
 49
-6.3499999999999988
  0
LTYPE
  2
BYGG-029261$0$NEWDOT
 70
     0
  3
____ . ____ . ____ . ____ . ____ . ____ . ____
 72
    65
 73
     4
 40
2.0
 49
1.0
 49
-0.5
 49
0.0
 49
-0.5
  0
LTYPE
  2
BYGG-029261$0$DASHDOT
 70
     0
  3
__ . __ . __ . __ . __ . __ . __ . __ . __ . __
 72
    65
 73
     4
 40
1.0
 49
0.5
 49
-0.25
 49
0.0
 49
-0.25
  0
LTYPE
  2
BYGG-029261$0$DASHED
 70
     0
  3
__ __ __ __ __ __ __ __ __ __ __ __ __ __ __
 72
    65
 73
     2
 40
0.75
 49
0.5
 49
-0.25
  0
LTYPE
  2
BYGG-029261$0$PHANTOM
 70
     0
  3
Phantom ______  __  __  ______  __  __  ______
 72
    65
 73
     6
 40
63.5
 49
31.75
 49
-6.3499999999999988
 49
6.3499999999999988
 49
-6.3499999999999988
 49
6.3499999999999988
 49
-6.3499999999999988
  0
LTYPE
  2
BYGG-019653$0$NEWDOT
 70
     0
  3
____ . ____ . ____ . ____ . ____ . ____ . ____
 72
    65
 73
     4
 40
2.0
 49
1.0
 49
-0.5
 49
0.0
 49
-0.5
  0
LTYPE
  2
BYGG-019653$0$DASHDOT
 70
     0
  3
__ . __ . __ . __ . __ . __ . __ . __ . __ . __
 72
    65
 73
     4
 40
1.0
 49
0.5
 49
-0.25
 49
0.0
 49
-0.25
  0
LTYPE
  2
BYGG-019653$0$DASHED
 70
     0
  3
__ __ __ __ __ __ __ __ __ __ __ __ __ __ __
 72
    65
 73
     2
 40
0.75
 49
0.5
 49
-0.25
  0
LTYPE
  2
BYGG-019653$0$PHANTOM
 70
     0
  3
Phantom ______  __  __  ______  __  __  ______
 72
    65
 73
     6
 40
63.5
 49
31.75
 49
-6.3499999999999988
 49
6.3499999999999988
 49
-6.3499999999999988
 49
6.3499999999999988
 49
-6.3499999999999988
  0
LTYPE
  2
BYGG-019652$0$NEWDOT
 70
     0
  3
____ . ____ . ____ . ____ . ____ . ____ . ____
 72
    65
 73
     4
 40
2.0
 49
1.0
 49
-0.5
 49
0.0
 49
-0.5
  0
LTYPE
  2
BYGG-019652$0$DASHDOT
 70
     0
  3
__ . __ . __ . __ . __ . __ . __ . __ . __ . __
 72
    65
 73
     4
 40
1.0
 49
0.5
 49
-0.25
 49
0.0
 49
-0.25
  0
LTYPE
  2
BYGG-019652$0$DASHED
 70
     0
  3
__ __ __ __ __ __ __ __ __ __ __ __ __ __ __
 72
    65
 73
     2
 40
0.75
 49
0.5
 49
-0.25
  0
LTYPE
  2
BYGG-019652$0$PHANTOM
 70
     0
  3
Phantom ______  __  __  ______  __  __  ______
 72
    65
 73
     6
 40
63.5
 49
31.75
 49
-6.3499999999999988
 49
6.3499999999999988
 49
-6.3499999999999988
 49
6.3499999999999988
 49
-6.3499999999999988
  0
LTYPE
  2
BYGG-020945$0$NEWDOT
 70
     0
  3
____ . ____ . ____ . ____ . ____ . ____ . ____
 72
    65
 73
     4
 40
2.0
 49
1.0
 49
-0.5
 49
0.0
 49
-0.5
  0
LTYPE
  2
BYGG-020945$0$DASHDOT
 70
     0
  3
__ . __ . __ . __ . __ . __ . __ . __ . __ . __
 72
    65
 73
     4
 40
1.0
 49
0.5
 49
-0.25
 49
0.0
 49
-0.25
  0
LTYPE
  2
BYGG-020945$0$DASHED
 70
     0
  3
__ __ __ __ __ __ __ __ __ __ __ __ __ __ __
 72
    65
 73
     2
 40
0.75
 49
0.5
 49
-0.25
  0
LTYPE
  2
BYGG-020945$0$PHANTOM
 70
     0
  3
Phantom ______  __  __  ______  __  __  ______
 72
    65
 73
     6
 40
63.5
 49
31.75
 49
-6.3499999999999988
 49
6.3499999999999988
 49
-6.3499999999999988
 49
6.3499999999999988
 49
-6.3499999999999988
  0
LTYPE
  2
BYGG-014113$0$NEWDOT
 70
     0
  3
____ . ____ . ____ . ____ . ____ . ____ . ____
 72
    65
 73
     4
 40
2.0
 49
1.0
 49
-0.5
 49
0.0
 49
-0.5
  0
LTYPE
  2
BYGG-014113$0$DASHDOT
 70
     0
  3
__ . __ . __ . __ . __ . __ . __ . __ . __ . __
 72
    65
 73
     4
 40
1.0
 49
0.5
 49
-0.25
 49
0.0
 49
-0.25
  0
LTYPE
  2
BYGG-014113$0$DASHED
 70
     0
  3
__ __ __ __ __ __ __ __ __ __ __ __ __ __ __
 72
    65
 73
     2
 40
0.75
 49
0.5
 49
-0.25
  0
LTYPE
  2
BYGG-028959$0$NEWDOT
 70
     0
  3
____ . ____ . ____ . ____ . ____ . ____ . ____
 72
    65
 73
     4
 40
2.0
 49
1.0
 49
-0.5
 49
0.0
 49
-0.5
  0
LTYPE
  2
BYGG-028959$0$DASHDOT
 70
     0
  3
__ . __ . __ . __ . __ . __ . __ . __ . __ . __
 72
    65
 73
     4
 40
1.0
 49
0.5
 49
-0.25
 49
0.0
 49
-0.25
  0
LTYPE
  2
BYGG-028959$0$DASHED
 70
     0
  3
__ __ __ __ __ __ __ __ __ __ __ __ __ __ __
 72
    65
 73
     2
 40
0.75
 49
0.5
 49
-0.25
  0
LTYPE
  2
BYGG-028959$0$PHANTOM
 70
     0
  3
Phantom ______  __  __  ______  __  __  ______
 72
    65
 73
     6
 40
63.5
 49
31.75
 49
-6.3499999999999988
 49
6.3499999999999988
 49
-6.3499999999999988
 49
6.3499999999999988
 49
-6.3499999999999988
  0
LTYPE
  2
BYGG-025538$0$NEWDOT
 70
     0
  3
____ . ____ . ____ . ____ . ____ . ____ . ____
 72
    65
 73
     4
 40
2.0
 49
1.0
 49
-0.5
 49
0.0
 49
-0.5
  0
LTYPE
  2
BYGG-025538$0$DASHDOT
 70
     0
  3
__ . __ . __ . __ . __ . __ . __ . __ . __ . __
 72
    65
 73
     4
 40
1.0
 49
0.5
 49
-0.25
 49
0.0
 49
-0.25
  0
LTYPE
  2
BYGG-025538$0$DASHED
 70
     0
  3
__ __ __ __ __ __ __ __ __ __ __ __ __ __ __
 72
    65
 73
     2
 40
0.75
 49
0.5
 49
-0.25
  0
LTYPE
  2
BYGG-025538$0$PHANTOM
 70
     0
  3
Phantom ______  __  __  ______  __  __  ______
 72
    65
 73
     6
 40
63.5
 49
31.75
 49
-6.3499999999999988
 49
6.3499999999999988
 49
-6.3499999999999988
 49
6.3499999999999988
 49
-6.3499999999999988
  0
LTYPE
  2
BYGG-019716$0$NEWDOT
 70
     0
  3
____ . ____ . ____ . ____ . ____ . ____ . ____
 72
    65
 73
     4
 40
2.0
 49
1.0
 49
-0.5
 49
0.0
 49
-0.5
  0
LTYPE
  2
BYGG-019716$0$DASHDOT
 70
     0
  3
__ . __ . __ . __ . __ . __ . __ . __ . __ . __
 72
    65
 73
     4
 40
1.0
 49
0.5
 49
-0.25
 49
0.0
 49
-0.25
  0
LTYPE
  2
BYGG-019716$0$DASHED
 70
     0
  3
__ __ __ __ __ __ __ __ __ __ __ __ __ __ __
 72
    65
 73
     2
 40
0.75
 49
0.5
 49
-0.25
  0
LTYPE
  2
BYGG-019716$0$PHANTOM
 70
     0
  3
Phantom ______  __  __  ______  __  __  ______
 72
    65
 73
     6
 40
63.5
 49
31.75
 49
-6.3499999999999988
 49
6.3499999999999988
 49
-6.3499999999999988
 49
6.3499999999999988
 49
-6.3499999999999988
  0
LTYPE
  2
BYGG-019705$0$NEWDOT
 70
     0
  3
____ . ____ . ____ . ____ . ____ . ____ . ____
 72
    65
 73
     4
 40
2.0
 49
1.0
 49
-0.5
 49
0.0
 49
-0.5
  0
LTYPE
  2
BYGG-019705$0$DASHDOT
 70
     0
  3
__ . __ . __ . __ . __ . __ . __ . __ . __ . __
 72
    65
 73
     4
 40
1.0
 49
0.5
 49
-0.25
 49
0.0
 49
-0.25
  0
LTYPE
  2
BYGG-019705$0$DASHED
 70
     0
  3
__ __ __ __ __ __ __ __ __ __ __ __ __ __ __
 72
    65
 73
     2
 40
0.75
 49
0.5
 49
-0.25
  0
LTYPE
  2
BYGG-019705$0$PHANTOM
 70
     0
  3
Phantom ______  __  __  ______  __  __  ______
 72
    65
 73
     6
 40
63.5
 49
31.75
 49
-6.3499999999999988
 49
6.3499999999999988
 49
-6.3499999999999988
 49
6.3499999999999988
 49
-6.3499999999999988
  0
LTYPE
  2
BYGG-019653$0$DOT_CENTER
 70
     0
  3
Dot_Center
 72
    65
 73
     4
 40
14.0
 49
12.0
 49
-1.0
 49
0.0
 49
-1.0
  0
LTYPE
  2
BYGG-019653$0$DASH_CENTER
 70
     0
  3
Dash_Center
 72
    65
 73
     4
 40
14.0
 49
11.0
 49
-1.0
 49
1.0
 49
-1.0
  0
LTYPE
  2
BYGG-019716$0$PHANTOM2
 70
     0
  3
Phantom (.5x) ___ _ _ ___ _ _ ___ _ _ ___ _ _
 72
    65
 73
     6
 40
1.25
 49
0.625
 49
-0.125
 49
0.125
 49
-0.125
 49
0.125
 49
-0.125
  0
LTYPE
  2
BYGG-019652$0$DOT_CENTER
 70
     0
  3
Dot_Center
 72
    65
 73
     4
 40
14.0
 49
12.0
 49
-1.0
 49
0.0
 49
-1.0
  0
LTYPE
  2
BYGG-019652$0$DASH_CENTER
 70
     0
  3
Dash_Center
 72
    65
 73
     4
 40
14.0
 49
11.0
 49
-1.0
 49
1.0
 49
-1.0
  0
ENDTAB
  0
TABLE
  2
LAYER
 70
   273
  0
LAYER
  2
0
 70
     0
 62
     7
  6
CONTINUOUS
  0
LAYER
  2
SAPA_ARTIKELNR
 70
     0
 62
     4
  6
CONTINUOUS
  0
LAYER
  2
SAPA_GLAS
 70
     0
 62
     4
  6
CONTINUOUS
  0
LAYER
  2
SAPA_ISOLATOR
 70
     0
 62
     4
  6
CONTINUOUS
  0
LAYER
  2
SAPA_FOGBAND
 70
     0
 62
     2
  6
CONTINUOUS
  0
LAYER
  2
SAPA_PROFIL
 70
     0
 62
     7
  6
CONTINUOUS
  0
ENDTAB
  0
TABLE
  2
STYLE
 70
    34
  0
STYLE
  2
STANDARD
 70
     0
 40
0.0
 41
1.0
 50
0.0
 71
     0
 42
0.2
  3
txt
  4

  0
STYLE
  2
ISO
 70
     0
 40
0.0
 41
1.0
 50
0.0
 71
     0
 42
3.5
  3
txt
  4

  0
STYLE
  2

 70
     1
 40
0.0
 41
1.0
 50
0.0
 71
     0
 42
0.2
  3
ltypeshp.shx
  4

  0
STYLE
  2
BYGG-021665$0$STANDARD
 70
     0
 40
0.0
 41
1.0
 50
0.0
 71
     0
 42
0.2
  3
txt
  4

  0
STYLE
  2
BYGG-021665$0$ISO
 70
     0
 40
0.0
 41
1.0
 50
0.0
 71
     0
 42
3.5
  3
isocp3.shx
  4

  0
STYLE
  2
BYGG-018516$0$STANDARD
 70
     0
 40
0.0
 41
1.0
 50
0.0
 71
     0
 42
0.2
  3
txt
  4

  0
STYLE
  2
BYGG-018516$0$ISO
 70
     0
 40
0.0
 41
1.0
 50
0.0
 71
     0
 42
3.5
  3
isocp3.shx
  4

  0
STYLE
  2
BYGG-021581$0$STANDARD
 70
     0
 40
0.0
 41
1.0
 50
0.0
 71
     0
 42
0.2
  3
txt
  4

  0
STYLE
  2
BYGG-014269$0$STANDARD
 70
     0
 40
0.0
 41
1.0
 50
0.0
 71
     0
 42
0.2
  3
txt
  4

  0
STYLE
  2
BYGG-014269$0$ISO
 70
     0
 40
0.0
 41
1.0
 50
0.0
 71
     0
 42
2.5
  3
isocp3.shx
  4

  0
STYLE
  2
BYGG-018731$0$STANDARD
 70
     0
 40
0.0
 41
1.0
 50
0.0
 71
     0
 42
0.2
  3
txt
  4

  0
STYLE
  2
BYGG-018731$0$ISO
 70
     0
 40
0.0
 41
1.0
 50
0.0
 71
     0
 42
3.5
  3
txt
  4

  0
STYLE
  2
BYGG-029261$0$STANDARD
 70
     0
 40
0.0
 41
1.0
 50
0.0
 71
     0
 42
0.2
  3
txt
  4

  0
STYLE
  2
BYGG-029261$0$ISO
 70
     0
 40
0.0
 41
1.0
 50
0.0
 71
     0
 42
3.5
  3
txt
  4

  0
STYLE
  2
BYGG-019653$0$STANDARD
 70
     0
 40
0.0
 41
1.0
 50
0.0
 71
     0
 42
0.2
  3
txt
  4

  0
STYLE
  2
BYGG-019653$0$ISO
 70
     0
 40
0.0
 41
1.0
 50
0.0
 71
     0
 42
3.5
  3
txt
  4

  0
STYLE
  2
BYGG-019653$0$CONVERTER_11
 70
     0
 40
0.0
 41
0.72
 50
0.0
 71
     0
 42
0.2
  3
txt.shx
  4

  0
STYLE
  2
BYGG-020945$0$STANDARD
 70
     0
 40
0.0
 41
1.0
 50
0.0
 71
     0
 42
0.2
  3
txt
  4

  0
STYLE
  2
BYGG-020945$0$ISO
 70
     0
 40
0.0
 41
1.0
 50
0.0
 71
     0
 42
3.5
  3
txt
  4

  0
STYLE
  2
BYGG-014113$0$STANDARD
 70
     0
 40
0.0
 41
1.0
 50
0.0
 71
     0
 42
0.2
  3
txt
  4

  0
STYLE
  2
BYGG-014113$0$ISO
 70
     0
 40
0.0
 41
1.0
 50
0.0
 71
     0
 42
3.5
  3
isocp3.shx
  4

  0
STYLE
  2
BYGG-014113$0$SIMPLEX
 70
     0
 40
0.0
 41
1.0
 50
0.0
 71
     0
 42
0.4
  3
simplex
  4

  0
STYLE
  2
BYGG-028959$0$STANDARD
 70
     0
 40
0.0
 41
1.0
 50
0.0
 71
     0
 42
0.2
  3
txt
  4

  0
STYLE
  2
BYGG-028959$0$ISO
 70
     0
 40
0.0
 41
1.0
 50
0.0
 71
     0
 42
3.5
  3
txt
  4

  0
STYLE
  2
BYGG-025538$0$STANDARD
 70
     0
 40
0.0
 41
1.0
 50
0.0
 71
     0
 42
0.2
  3
txt
  4

  0
STYLE
  2
BYGG-025538$0$ISO
 70
     0
 40
0.0
 41
1.0
 50
0.0
 71
     0
 42
3.5
  3
txt
  4

  0
STYLE
  2
BYGG-019716$0$STANDARD
 70
     0
 40
0.0
 41
1.0
 50
0.0
 71
     0
 42
0.2
  3
txt
  4

  0
STYLE
  2
BYGG-019716$0$ISO
 70
     0
 40
0.0
 41
1.0
 50
0.0
 71
     0
 42
3.5
  3
txt
  4

  0
STYLE
  2
BYGG-019716$0$ANNOTATIVE
 70
     0
 40
0.0
 41
1.0
 50
0.0
 71
     0
 42
0.2
  3
txt
  4

  0
STYLE
  2
BYGG-019652$0$STANDARD
 70
     0
 40
0.0
 41
1.0
 50
0.0
 71
     0
 42
0.2
  3
txt
  4

  0
STYLE
  2
BYGG-019652$0$ISO
 70
     0
 40
0.0
 41
1.0
 50
0.0
 71
     0
 42
3.5
  3
txt
  4

  0
STYLE
  2
BYGG-019652$0$CONVERTER_11
 70
     0
 40
0.0
 41
0.72
 50
0.0
 71
     0
 42
0.2
  3
txt.shx
  4

  0
STYLE
  2
BYGG-019705$0$STANDARD
 70
     0
 40
0.0
 41
1.0
 50
0.0
 71
     0
 42
0.2
  3
txt
  4

  0
STYLE
  2
BYGG-019705$0$ISO
 70
     0
 40
0.0
 41
1.0
 50
0.0
 71
     0
 42
3.5
  3
txt
  4

  0
ENDTAB
  0
TABLE
  2
VIEW
 70
     0
  0
ENDTAB
  0
TABLE
  2
UCS
 70
     0
  0
ENDTAB
  0
TABLE
  2
APPID
 70
    23
  0
APPID
  2
ACAD
 70
     0
  0
APPID
  2
ACAD_DSTYLE_DIMTEXT_FILL
 70
     0
  0
APPID
  2
ACAD_DSTYLE_DIMEXT_LENGTH
 70
     0
  0
APPID
  2
ACAD_DSTYLE_DIMEXT_ENABLED
 70
     0
  0
APPID
  2
ACAD_DSTYLE_DIM_LINETYPE
 70
     0
  0
APPID
  2
ACAD_DSTYLE_DIM_EXT1_LINETYPE
 70
     0
  0
APPID
  2
ACAD_DSTYLE_DIM_EXT2_LINETYPE
 70
     0
  0
APPID
  2
ACAD_DSTYLE_DIMJOGGED_JOGA
 70
     0
  0
APPID
  2
ACAD_DSTYLE_DIMARC_LENGTH_
 70
     0
  0
APPID
  2
ACAD_PSEXT
 70
     0
  0
APPID
  2
ACAD_MLEADERVER
 70
     0
  0
APPID
  2
ACAD_NAV_VCDISPLAY
 70
     0
  0
APPID
  2
ACAD_EXEMPT_FROM_CAD_STANDARDS
 70
     0
  0
APPID
  2
ACAECLAYERSTANDARD
 70
     0
  0
APPID
  2
ACADANNOTATIVE
 70
     0
  0
APPID
  2
AMG_ARCHIVE11
 70
     0
  0
APPID
  2
GRADIENTCOLOR1ACI
 70
     0
  0
APPID
  2
GRADIENTCOLOR2ACI
 70
     0
  0
APPID
  2
AME_SOL
 70
     0
  0
APPID
  2
ACDBDYNAMICBLOCKGUID
 70
     0
  0
APPID
  2
ACDBBLOCKREPETAG
 70
     0
  0
APPID
  2
AEC_XDATA_BOUND_SPACE
 70
     0
  0
APPID
  2
ACCMTRANSPARENCY
 70
     0
  0
ENDTAB
  0
TABLE
  2
DIMSTYLE
 70
    67
  0
DIMSTYLE
  2
STANDARD
 70
     0
  3

  4

  5

  6

  7

 40
1.0
 41
0.18
 42
0.0625
 43
0.38
 44
0.18
 45
0.0
 46
0.0
 47
0.0
 48
0.0
140
0.18
141
0.09
142
0.0
143
25.399999999999999
144
1.0
145
0.0
146
1.0
147
0.09
 71
     0
 72
     0
 73
     1
 74
     1
 75
     0
 76
     0
 77
     0
 78
     0
170
     0
171
     2
172
     0
173
     0
174
     0
175
     0
176
     0
177
     0
178
     0
  0
DIMSTYLE
  2
MASKIN
 70
     0
  3

  4

  5

  6

  7

 40
0.0
 41
3.0
 42
1.5
 43
10.0
 44
1.5
 45
0.0
 46
0.0
 47
0.0
 48
0.0
140
3.0
141
-5.0
142
0.0
143
25.399999999999999
144
-1.0
145
0.0
146
1.0
147
1.0
 71
     0
 72
     0
 73
     0
 74
     0
 75
     0
 76
     0
 77
     1
 78
     8
170
     0
171
     0
172
     1
173
     0
174
     0
175
     0
176
   256
177
   256
178
     2
  0
DIMSTYLE
  2
BYGG-021665$0$MASKIN
 70
     0
  3

  4

  5

  6

  7

 40
0.0
 41
3.0
 42
1.5
 43
10.0
 44
1.5
 45
0.0
 46
0.0
 47
0.0
 48
0.0
140
3.0
141
-5.0
142
0.0
143
25.399999999999999
144
-1.0
145
0.0
146
1.0
147
1.0
 71
     0
 72
     0
 73
     0
 74
     0
 75
     0
 76
     0
 77
     1
 78
     8
170
     0
171
     0
172
     1
173
     0
174
     0
175
     0
176
   256
177
   256
178
   256
  0
DIMSTYLE
  2
BYGG-018516$0$STANDARD
 70
     0
  3

  4

  5

  6

  7

 40
1.0
 41
0.18
 42
0.0625
 43
0.38
 44
0.18
 45
0.0
 46
0.0
 47
0.0
 48
0.0
140
0.18
141
0.09
142
0.0
143
25.399999999999999
144
1.0
145
0.0
146
1.0
147
0.09
 71
     0
 72
     0
 73
     1
 74
     1
 75
     0
 76
     0
 77
     0
 78
     0
170
     0
171
     2
172
     0
173
     0
174
     0
175
     0
176
     0
177
     0
178
     0
  0
DIMSTYLE
  2
BYGG-018516$0$MASKIN
 70
     0
  3

  4

  5

  6

  7

 40
0.0
 41
3.0
 42
1.5
 43
10.0
 44
1.5
 45
0.0
 46
0.0
 47
0.0
 48
0.0
140
3.0
141
-5.0
142
0.0
143
25.399999999999999
144
-1.0
145
0.0
146
1.0
147
1.0
 71
     0
 72
     0
 73
     0
 74
     0
 75
     0
 76
     0
 77
     1
 78
     8
170
     0
171
     0
172
     1
173
     0
174
     0
175
     0
176
   256
177
   256
178
     2
  0
DIMSTYLE
  2
BYGG-021581$0$STANDARD
 70
     0
  3

  4

  5

  6

  7

 40
1.0
 41
0.18
 42
0.0625
 43
0.38
 44
0.18
 45
0.0
 46
0.0
 47
0.0
 48
0.0
140
0.18
141
0.09
142
0.0
143
25.399999999999999
144
1.0
145
0.0
146
1.0
147
0.09
 71
     0
 72
     0
 73
     1
 74
     1
 75
     0
 76
     0
 77
     0
 78
     0
170
     0
171
     2
172
     0
173
     0
174
     0
175
     0
176
     0
177
     0
178
     0
  0
DIMSTYLE
  2
BYGG-014269$0$STANDARD
 70
     0
  3

  4

  5

  6

  7

 40
1.0
 41
0.18
 42
0.0625
 43
0.38
 44
0.18
 45
0.0
 46
0.0
 47
0.0
 48
0.0
140
0.18
141
0.09
142
0.0
143
25.399999999999999
144
1.0
145
0.0
146
1.0
147
0.09
 71
     0
 72
     0
 73
     1
 74
     1
 75
     0
 76
     0
 77
     0
 78
     0
170
     0
171
     2
172
     0
173
     0
174
     0
175
     0
176
     0
177
     0
178
     0
  0
DIMSTYLE
  2
BYGG-014269$0$MASKIN
 70
     0
  3

  4

  5

  6

  7

 40
0.0
 41
3.0
 42
1.5
 43
10.0
 44
1.5
 45
0.0
 46
0.0
 47
0.0
 48
0.0
140
3.0
141
-5.0
142
0.0
143
25.399999999999999
144
-1.0
145
0.0
146
1.0
147
1.0
 71
     0
 72
     0
 73
     0
 74
     1
 75
     0
 76
     0
 77
     1
 78
     8
170
     0
171
     0
172
     1
173
     0
174
     0
175
     0
176
   256
177
   256
178
     2
  0
DIMSTYLE
  2
BYGG-018731$0$STANDARD
 70
     0
  3

  4

  5

  6

  7

 40
1.0
 41
0.18
 42
0.0625
 43
0.38
 44
0.18
 45
0.0
 46
0.0
 47
0.0
 48
0.0
140
0.18
141
0.09
142
0.0
143
25.399999999999999
144
1.0
145
0.0
146
1.0
147
0.09
 71
     0
 72
     0
 73
     1
 74
     1
 75
     0
 76
     0
 77
     0
 78
     0
170
     0
171
     2
172
     0
173
     0
174
     0
175
     0
176
     0
177
     0
178
     0
  0
DIMSTYLE
  2
BYGG-018731$0$MASKIN
 70
     0
  3

  4

  5

  6

  7

 40
0.0
 41
3.0
 42
1.5
 43
10.0
 44
1.5
 45
0.0
 46
0.0
 47
0.0
 48
0.0
140
3.0
141
-5.0
142
0.0
143
25.399999999999999
144
-1.0
145
0.0
146
1.0
147
1.0
 71
     0
 72
     0
 73
     0
 74
     0
 75
     0
 76
     0
 77
     1
 78
     8
170
     0
171
     0
172
     1
173
     0
174
     0
175
     0
176
   256
177
   256
178
     2
  0
DIMSTYLE
  2
BYGG-029261$0$STANDARD
 70
     0
  3

  4

  5

  6

  7

 40
1.0
 41
0.18
 42
0.0625
 43
0.38
 44
0.18
 45
0.0
 46
0.0
 47
0.0
 48
0.0
140
0.18
141
0.09
142
0.0
143
25.399999999999999
144
1.0
145
0.0
146
1.0
147
0.09
 71
     0
 72
     0
 73
     1
 74
     1
 75
     0
 76
     0
 77
     0
 78
     0
170
     0
171
     2
172
     0
173
     0
174
     0
175
     0
176
     0
177
     0
178
     0
  0
DIMSTYLE
  2
BYGG-029261$0$MASKIN
 70
     0
  3

  4

  5

  6

  7

 40
0.0
 41
3.0
 42
1.5
 43
10.0
 44
1.5
 45
0.0
 46
0.0
 47
0.0
 48
0.0
140
3.0
141
-5.0
142
0.0
143
25.399999999999999
144
-1.0
145
0.0
146
1.0
147
1.0
 71
     0
 72
     0
 73
     0
 74
     0
 75
     0
 76
     0
 77
     1
 78
     8
170
     0
171
     0
172
     1
173
     0
174
     0
175
     0
176
   256
177
   256
178
     2
  0
DIMSTYLE
  2
BYGG-029261$0$ISO-25
 70
     0
  3

  4

  5

  6

  7

 40
1.0
 41
2.5
 42
0.625
 43
3.75
 44
1.25
 45
0.0
 46
0.0
 47
0.0
 48
0.0
140
2.5
141
2.5
142
0.0
143
0.03937007874016
144
1.0
145
0.0
146
1.0
147
0.625
 71
     0
 72
     0
 73
     0
 74
     0
 75
     0
 76
     0
 77
     1
 78
     8
170
     0
171
     3
172
     1
173
     0
174
     0
175
     0
176
     0
177
     0
178
     0
  0
DIMSTYLE
  2
BYGG-019653$0$STANDARD
 70
     0
  3

  4

  5

  6

  7

 40
1.0
 41
0.18
 42
0.0625
 43
0.38
 44
0.18
 45
0.0
 46
0.0
 47
0.0
 48
0.0
140
0.18
141
0.09
142
0.0
143
25.399999999999999
144
1.0
145
0.0
146
1.0
147
0.09
 71
     0
 72
     0
 73
     1
 74
     1
 75
     0
 76
     0
 77
     0
 78
     0
170
     0
171
     2
172
     0
173
     0
174
     0
175
     0
176
     0
177
     0
178
     0
  0
DIMSTYLE
  2
BYGG-019653$0$MASKIN
 70
     0
  3

  4

  5

  6

  7

 40
0.0
 41
3.0
 42
1.5
 43
10.0
 44
1.5
 45
0.0
 46
0.0
 47
0.0
 48
0.0
140
3.0
141
-5.0
142
0.0
143
25.399999999999999
144
-1.0
145
0.0
146
1.0
147
1.0
 71
     0
 72
     0
 73
     0
 74
     0
 75
     0
 76
     0
 77
     1
 78
     8
170
     0
171
     0
172
     1
173
     0
174
     0
175
     0
176
   256
177
   256
178
     2
  0
DIMSTYLE
  2
BYGG-019653$0$ME10_DIM_10
 70
     0
  3

  4

  5

  6

  7

 40
1.0
 41
0.7
 42
0.0
 43
0.38
 44
0.4
 45
0.0
 46
0.0
 47
0.0
 48
0.0
140
0.7
141
0.09
142
0.0
143
25.399999999999999
144
1.0
145
0.0
146
1.0
147
0.4
 71
     0
 72
     0
 73
     0
 74
     0
 75
     0
 76
     0
 77
     1
 78
     8
170
     0
171
     2
172
     1
173
     1
174
     0
175
     0
176
     1
177
     1
178
     2
  0
DIMSTYLE
  2
BYGG-019653$0$ME10_DIM_11
 70
     0
  3

  4

  5

  6

  7

 40
1.0
 41
0.7
 42
0.0
 43
0.38
 44
0.4
 45
0.0
 46
0.0
 47
0.0
 48
0.0
140
0.7
141
0.09
142
0.0
143
25.399999999999999
144
1.0
145
0.0
146
1.0
147
0.4
 71
     0
 72
     0
 73
     0
 74
     0
 75
     0
 76
     0
 77
     1
 78
     8
170
     0
171
     2
172
     1
173
     1
174
     0
175
     0
176
     1
177
     1
178
     2
  0
DIMSTYLE
  2
BYGG-019653$0$ME10_DIM_12
 70
     0
  3
(<>)
  4

  5

  6

  7

 40
1.0
 41
0.7
 42
0.0
 43
0.38
 44
0.4
 45
0.0
 46
0.0
 47
0.0
 48
0.0
140
0.7
141
0.09
142
0.0
143
25.399999999999999
144
1.0
145
0.0
146
1.0
147
0.4
 71
     0
 72
     0
 73
     0
 74
     0
 75
     0
 76
     0
 77
     1
 78
     8
170
     0
171
     2
172
     1
173
     1
174
     0
175
     0
176
     1
177
     1
178
     2
  0
DIMSTYLE
  2
BYGG-019653$0$ME10_DIM_13
 70
     0
  3

  4

  5

  6

  7

 40
1.0
 41
0.7
 42
0.0
 43
0.38
 44
0.4
 45
0.0
 46
0.0
 47
0.0
 48
0.0
140
0.7
141
0.09
142
0.0
143
25.399999999999999
144
1.0
145
0.0
146
1.0
147
0.4
 71
     0
 72
     0
 73
     0
 74
     0
 75
     0
 76
     0
 77
     1
 78
     8
170
     0
171
     2
172
     1
173
     1
174
     0
175
     0
176
     1
177
     1
178
     2
  0
DIMSTYLE
  2
BYGG-019653$0$ME10_DIM_14
 70
     0
  3

  4

  5

  6

  7

 40
1.0
 41
0.7
 42
0.0
 43
0.38
 44
0.4
 45
0.0
 46
0.0
 47
0.0
 48
0.0
140
0.7
141
0.09
142
0.0
143
25.399999999999999
144
1.0
145
0.0
146
1.0
147
0.4
 71
     0
 72
     0
 73
     0
 74
     0
 75
     0
 76
     0
 77
     1
 78
     8
170
     0
171
     2
172
     1
173
     1
174
     0
175
     0
176
     1
177
     1
178
     2
  0
DIMSTYLE
  2
BYGG-019653$0$ME10_DIM_15
 70
     0
  3

  4

  5

  6

  7

 40
1.0
 41
0.7
 42
0.0
 43
0.38
 44
0.4
 45
0.0
 46
0.0
 47
0.0
 48
0.0
140
0.7
141
0.09
142
0.0
143
25.399999999999999
144
1.0
145
0.0
146
1.0
147
0.4
 71
     0
 72
     0
 73
     0
 74
     0
 75
     0
 76
     0
 77
     1
 78
     8
170
     0
171
     2
172
     1
173
     1
174
     0
175
     0
176
     1
177
     1
178
     2
  0
DIMSTYLE
  2
BYGG-019653$0$ME10_DIM_16
 70
     0
  3

  4

  5

  6

  7

 40
1.0
 41
0.7
 42
0.0
 43
0.38
 44
0.4
 45
0.0
 46
0.0
 47
0.3
 48
0.3
140
0.7
141
0.09
142
0.0
143
25.399999999999999
144
1.0
145
0.0
146
0.6
147
0.4
 71
     1
 72
     0
 73
     0
 74
     0
 75
     0
 76
     0
 77
     1
 78
     8
170
     0
171
     2
172
     1
173
     1
174
     0
175
     0
176
     1
177
     1
178
     2
  0
DIMSTYLE
  2
BYGG-019653$0$ME10_DIM_17
 70
     0
  3

  4

  5

  6

  7

 40
1.0
 41
0.7
 42
0.0
 43
0.38
 44
0.4
 45
0.0
 46
0.0
 47
0.0
 48
0.0
140
0.7
141
0.09
142
0.0
143
25.399999999999999
144
1.0
145
0.0
146
1.0
147
0.4
 71
     0
 72
     0
 73
     0
 74
     0
 75
     0
 76
     0
 77
     1
 78
     8
170
     0
171
     2
172
     1
173
     1
174
     0
175
     0
176
     1
177
     1
178
     2
  0
DIMSTYLE
  2
BYGG-019653$0$ME10_DIM_18
 70
     0
  3

  4

  5

  6

  7

 40
1.0
 41
0.7
 42
0.0
 43
0.38
 44
0.4
 45
0.0
 46
0.0
 47
0.3
 48
0.3
140
0.7
141
0.09
142
0.0
143
25.399999999999999
144
1.0
145
0.0
146
0.6
147
0.4
 71
     1
 72
     0
 73
     0
 74
     0
 75
     0
 76
     0
 77
     1
 78
     8
170
     0
171
     2
172
     1
173
     1
174
     0
175
     0
176
     1
177
     1
178
     2
  0
DIMSTYLE
  2
BYGG-019653$0$ME10_DIM_19
 70
     0
  3

  4

  5

  6

  7

 40
1.0
 41
0.7
 42
0.0
 43
0.38
 44
0.4
 45
0.0
 46
0.0
 47
0.0
 48
0.0
140
0.7
141
0.09
142
0.0
143
25.399999999999999
144
1.0
145
0.0
146
1.0
147
0.4
 71
     0
 72
     0
 73
     0
 74
     0
 75
     0
 76
     0
 77
     1
 78
     8
170
     0
171
     2
172
     1
173
     1
174
     0
175
     0
176
     1
177
     1
178
     2
  0
DIMSTYLE
  2
BYGG-019653$0$ME10_DIM_20
 70
     0
  3

  4

  5

  6

  7

 40
1.0
 41
0.7
 42
0.0
 43
0.38
 44
0.4
 45
0.0
 46
0.0
 47
0.0
 48
0.0
140
0.7
141
0.09
142
0.0
143
25.399999999999999
144
1.0
145
0.0
146
1.0
147
0.4
 71
     0
 72
     0
 73
     0
 74
     0
 75
     0
 76
     0
 77
     1
 78
     8
170
     0
171
     2
172
     1
173
     1
174
     0
175
     0
176
     1
177
     1
178
     2
  0
DIMSTYLE
  2
BYGG-019653$0$ME10_DIM_21
 70
     0
  3
(<>)
  4

  5

  6

  7

 40
1.0
 41
0.7
 42
0.0
 43
0.38
 44
0.4
 45
0.0
 46
0.0
 47
0.0
 48
0.0
140
0.7
141
0.09
142
0.0
143
25.399999999999999
144
1.0
145
0.0
146
1.0
147
0.4
 71
     0
 72
     0
 73
     0
 74
     0
 75
     0
 76
     0
 77
     1
 78
     8
170
     0
171
     2
172
     1
173
     1
174
     0
175
     0
176
     1
177
     1
178
     2
  0
DIMSTYLE
  2
BYGG-019653$0$ME10_DIM_22
 70
     0
  3

  4

  5

  6

  7

 40
1.0
 41
0.7
 42
0.0
 43
0.38
 44
0.4
 45
0.0
 46
0.0
 47
0.0
 48
0.0
140
0.7
141
0.09
142
0.0
143
25.399999999999999
144
1.0
145
0.0
146
1.0
147
0.4
 71
     0
 72
     0
 73
     0
 74
     0
 75
     0
 76
     0
 77
     1
 78
     8
170
     0
171
     2
172
     1
173
     1
174
     0
175
     0
176
     1
177
     1
178
     2
  0
DIMSTYLE
  2
BYGG-019653$0$ME10_DIM_23
 70
     0
  3

  4

  5

  6

  7

 40
1.0
 41
0.7
 42
0.0
 43
0.38
 44
0.4
 45
0.0
 46
0.0
 47
0.0
 48
0.0
140
0.7
141
0.09
142
0.0
143
25.399999999999999
144
1.0
145
0.0
146
1.0
147
0.4
 71
     0
 72
     0
 73
     0
 74
     0
 75
     0
 76
     0
 77
     1
 78
     8
170
     0
171
     2
172
     1
173
     1
174
     0
175
     0
176
     1
177
     1
178
     2
  0
DIMSTYLE
  2
BYGG-020945$0$STANDARD
 70
     0
  3

  4

  5

  6

  7

 40
1.0
 41
0.18
 42
0.0625
 43
0.38
 44
0.18
 45
0.0
 46
0.0
 47
0.0
 48
0.0
140
0.18
141
0.09
142
0.0
143
25.399999999999999
144
1.0
145
0.0
146
1.0
147
0.09
 71
     0
 72
     0
 73
     1
 74
     1
 75
     0
 76
     0
 77
     0
 78
     0
170
     0
171
     2
172
     0
173
     0
174
     0
175
     0
176
     0
177
     0
178
     0
  0
DIMSTYLE
  2
BYGG-020945$0$MASKIN
 70
     0
  3

  4

  5

  6

  7

 40
0.0
 41
3.0
 42
1.5
 43
10.0
 44
1.5
 45
0.0
 46
0.0
 47
0.0
 48
0.0
140
3.0
141
-5.0
142
0.0
143
25.399999999999999
144
-1.0
145
0.0
146
1.0
147
1.0
 71
     0
 72
     0
 73
     0
 74
     0
 75
     0
 76
     0
 77
     1
 78
     8
170
     0
171
     0
172
     1
173
     0
174
     0
175
     0
176
   256
177
   256
178
     2
  0
DIMSTYLE
  2
BYGG-014113$0$MASKIN
 70
     0
  3

  4

  5

  6

  7

 40
0.0
 41
3.0
 42
1.5
 43
10.0
 44
1.5
 45
0.0
 46
0.0
 47
0.0
 48
0.0
140
3.0
141
-5.0
142
0.0
143
25.399999999999999
144
-1.0
145
0.0
146
1.0
147
1.0
 71
     0
 72
     0
 73
     0
 74
     0
 75
     0
 76
     0
 77
     1
 78
     8
170
     0
171
     0
172
     1
173
     0
174
     0
175
     0
176
   256
177
   256
178
   256
  0
DIMSTYLE
  2
BYGG-014113$0$MASKIN1
 70
     0
  3

  4

  5

  6

  7

 40
1.0
 41
3.0
 42
1.5
 43
10.0
 44
1.5
 45
0.0
 46
0.0
 47
0.0
 48
0.0
140
3.0
141
-5.0
142
0.0
143
25.399999999999999
144
1.0
145
0.0
146
1.0
147
0.9
 71
     0
 72
     0
 73
     0
 74
     0
 75
     0
 76
     0
 77
     1
 78
     8
170
     0
171
     0
172
     1
173
     0
174
     0
175
     0
176
   256
177
   256
178
   256
  0
DIMSTYLE
  2
BYGG-014113$0$MASKIN2
 70
     0
  3

  4

  5

  6

  7

 40
1.0
 41
3.0
 42
1.5
 43
10.0
 44
1.5
 45
0.0
 46
0.0
 47
0.0
 48
0.0
140
3.0
141
-5.0
142
0.0
143
25.399999999999999
144
1.0
145
0.0
146
1.0
147
0.9
 71
     0
 72
     0
 73
     0
 74
     0
 75
     0
 76
     0
 77
     1
 78
     8
170
     0
171
     0
172
     1
173
     0
174
     0
175
     0
176
   256
177
   256
178
   256
  0
DIMSTYLE
  2
BYGG-014113$0$MASKIN3
 70
     0
  3

  4

  5

  6

  7

 40
1.0
 41
3.0
 42
1.5
 43
10.0
 44
1.5
 45
0.0
 46
0.0
 47
0.0
 48
0.0
140
3.0
141
-5.0
142
0.0
143
25.399999999999999
144
1.0
145
0.0
146
1.0
147
0.9
 71
     0
 72
     0
 73
     0
 74
     0
 75
     0
 76
     0
 77
     1
 78
     8
170
     0
171
     0
172
     1
173
     0
174
     0
175
     0
176
   256
177
   256
178
   256
  0
DIMSTYLE
  2
BYGG-014113$0$STANDARD
 70
     0
  3

  4

  5

  6

  7

 40
1.0
 41
0.18
 42
0.0625
 43
0.38
 44
0.18
 45
0.0
 46
0.0
 47
0.0
 48
0.0
140
0.18
141
0.09
142
0.0
143
25.399999999999999
144
1.0
145
0.0
146
1.0
147
0.09
 71
     0
 72
     0
 73
     1
 74
     1
 75
     0
 76
     0
 77
     0
 78
     0
170
     0
171
     2
172
     0
173
     0
174
     0
175
     0
176
     0
177
     0
178
     0
  0
DIMSTYLE
  2
BYGG-028959$0$STANDARD
 70
     0
  3

  4

  5

  6

  7

 40
1.0
 41
0.18
 42
0.0625
 43
0.38
 44
0.18
 45
0.0
 46
0.0
 47
0.0
 48
0.0
140
0.18
141
0.09
142
0.0
143
25.399999999999999
144
1.0
145
0.0
146
1.0
147
0.09
 71
     0
 72
     0
 73
     1
 74
     1
 75
     0
 76
     0
 77
     0
 78
     0
170
     0
171
     2
172
     0
173
     0
174
     0
175
     0
176
     0
177
     0
178
     0
  0
DIMSTYLE
  2
BYGG-028959$0$MASKIN
 70
     0
  3

  4

  5

  6

  7

 40
0.0
 41
3.0
 42
1.5
 43
10.0
 44
1.5
 45
0.0
 46
0.0
 47
0.0
 48
0.0
140
3.0
141
-5.0
142
0.0
143
25.399999999999999
144
-1.0
145
0.0
146
1.0
147
1.0
 71
     0
 72
     0
 73
     0
 74
     0
 75
     0
 76
     0
 77
     1
 78
     8
170
     0
171
     0
172
     1
173
     0
174
     0
175
     0
176
   256
177
   256
178
     2
  0
DIMSTYLE
  2
BYGG-025538$0$STANDARD
 70
     0
  3

  4

  5

  6

  7

 40
1.0
 41
0.18
 42
0.0625
 43
0.38
 44
0.18
 45
0.0
 46
0.0
 47
0.0
 48
0.0
140
0.18
141
0.09
142
0.0
143
25.399999999999999
144
1.0
145
0.0
146
1.0
147
0.09
 71
     0
 72
     0
 73
     1
 74
     1
 75
     0
 76
     0
 77
     0
 78
     0
170
     0
171
     2
172
     0
173
     0
174
     0
175
     0
176
     0
177
     0
178
     0
  0
DIMSTYLE
  2
BYGG-025538$0$MASKIN
 70
     0
  3

  4

  5

  6

  7

 40
0.0
 41
3.0
 42
1.5
 43
10.0
 44
1.5
 45
0.0
 46
0.0
 47
0.0
 48
0.0
140
3.0
141
-5.0
142
0.0
143
25.399999999999999
144
-1.0
145
0.0
146
1.0
147
1.0
 71
     0
 72
     0
 73
     0
 74
     0
 75
     0
 76
     0
 77
     1
 78
     8
170
     0
171
     0
172
     1
173
     0
174
     0
175
     0
176
   256
177
   256
178
     2
  0
DIMSTYLE
  2
BYGG-019716$0$STANDARD
 70
     0
  3

  4

  5

  6

  7

 40
1.0
 41
0.18
 42
0.0625
 43
0.38
 44
0.18
 45
0.0
 46
0.0
 47
0.0
 48
0.0
140
0.18
141
0.09
142
0.0
143
25.399999999999999
144
1.0
145
0.0
146
1.0
147
0.09
 71
     0
 72
     0
 73
     1
 74
     1
 75
     0
 76
     0
 77
     0
 78
     0
170
     0
171
     2
172
     0
173
     0
174
     0
175
     0
176
     0
177
     0
178
     0
  0
DIMSTYLE
  2
BYGG-019716$0$MASKIN
 70
     0
  3

  4

  5

  6

  7

 40
0.0
 41
3.0
 42
1.5
 43
10.0
 44
1.5
 45
0.0
 46
0.0
 47
0.0
 48
0.0
140
3.0
141
-5.0
142
0.0
143
25.399999999999999
144
-1.0
145
0.0
146
1.0
147
1.0
 71
     0
 72
     0
 73
     0
 74
     0
 75
     0
 76
     0
 77
     1
 78
     8
170
     0
171
     0
172
     1
173
     0
174
     0
175
     0
176
   256
177
   256
178
     2
  0
DIMSTYLE
  2
BYGG-019716$0$ANNOTATIVE
 70
     0
  3

  4

  5

  6

  7

 40
1.0
 41
0.18
 42
0.0625
 43
0.38
 44
0.18
 45
0.0
 46
0.0
 47
0.0
 48
0.0
140
0.18
141
0.09
142
0.0
143
25.399999999999999
144
1.0
145
0.0
146
1.0
147
0.09
 71
     0
 72
     0
 73
     1
 74
     1
 75
     0
 76
     0
 77
     0
 78
     0
170
     0
171
     2
172
     0
173
     0
174
     0
175
     0
176
     0
177
     0
178
     0
  0
DIMSTYLE
  2
BYGG-019652$0$STANDARD
 70
     0
  3

  4

  5

  6

  7

 40
1.0
 41
0.18
 42
0.0625
 43
0.38
 44
0.18
 45
0.0
 46
0.0
 47
0.0
 48
0.0
140
0.18
141
0.09
142
0.0
143
25.399999999999999
144
1.0
145
0.0
146
1.0
147
0.09
 71
     0
 72
     0
 73
     1
 74
     1
 75
     0
 76
     0
 77
     0
 78
     0
170
     0
171
     2
172
     0
173
     0
174
     0
175
     0
176
     0
177
     0
178
     0
  0
DIMSTYLE
  2
BYGG-019652$0$MASKIN
 70
     0
  3

  4

  5

  6

  7

 40
0.0
 41
3.0
 42
1.5
 43
10.0
 44
1.5
 45
0.0
 46
0.0
 47
0.0
 48
0.0
140
3.0
141
-5.0
142
0.0
143
25.399999999999999
144
-1.0
145
0.0
146
1.0
147
1.0
 71
     0
 72
     0
 73
     0
 74
     0
 75
     0
 76
     0
 77
     1
 78
     8
170
     0
171
     0
172
     1
173
     0
174
     0
175
     0
176
   256
177
   256
178
     2
  0
DIMSTYLE
  2
BYGG-019652$0$ME10_DIM_10
 70
     0
  3

  4

  5

  6

  7

 40
1.0
 41
0.35
 42
0.0
 43
0.38
 44
0.2
 45
0.0
 46
0.0
 47
0.0
 48
0.0
140
0.35
141
0.09
142
0.0
143
25.399999999999999
144
1.0
145
0.0
146
1.0
147
0.2
 71
     0
 72
     0
 73
     0
 74
     0
 75
     0
 76
     0
 77
     1
 78
     8
170
     0
171
     2
172
     1
173
     1
174
     0
175
     0
176
     1
177
     1
178
     2
  0
DIMSTYLE
  2
BYGG-019652$0$ME10_DIM_11
 70
     0
  3

  4

  5

  6

  7

 40
1.0
 41
0.35
 42
0.0
 43
0.38
 44
0.2
 45
0.0
 46
0.0
 47
0.0
 48
0.0
140
0.35
141
0.09
142
0.0
143
25.399999999999999
144
1.0
145
0.0
146
1.0
147
0.2
 71
     0
 72
     0
 73
     0
 74
     0
 75
     0
 76
     0
 77
     1
 78
     8
170
     0
171
     2
172
     1
173
     1
174
     0
175
     0
176
     1
177
     1
178
     2
  0
DIMSTYLE
  2
BYGG-019652$0$ME10_DIM_12
 70
     0
  3

  4

  5

  6

  7

 40
1.0
 41
0.35
 42
0.0
 43
0.38
 44
0.2
 45
0.0
 46
0.0
 47
0.0
 48
0.0
140
0.35
141
0.09
142
0.0
143
25.399999999999999
144
1.0
145
0.0
146
1.0
147
0.2
 71
     0
 72
     0
 73
     0
 74
     0
 75
     0
 76
     0
 77
     1
 78
     8
170
     0
171
     2
172
     1
173
     1
174
     0
175
     0
176
     1
177
     1
178
     2
  0
DIMSTYLE
  2
BYGG-019652$0$ME10_DIM_13
 70
     0
  3

  4

  5

  6

  7

 40
1.0
 41
0.35
 42
0.0
 43
0.38
 44
0.2
 45
0.0
 46
0.0
 47
0.0
 48
0.0
140
0.35
141
0.09
142
0.0
143
25.399999999999999
144
1.0
145
0.0
146
1.0
147
0.2
 71
     0
 72
     0
 73
     0
 74
     0
 75
     0
 76
     0
 77
     1
 78
     8
170
     0
171
     2
172
     1
173
     1
174
     0
175
     0
176
     1
177
     1
178
     2
  0
DIMSTYLE
  2
BYGG-019652$0$ME10_DIM_14
 70
     0
  3

  4

  5

  6

  7

 40
1.0
 41
0.35
 42
0.0
 43
0.38
 44
0.2
 45
0.0
 46
0.0
 47
0.0
 48
0.0
140
0.35
141
0.09
142
0.0
143
25.399999999999999
144
1.0
145
0.0
146
1.0
147
0.2
 71
     0
 72
     0
 73
     0
 74
     0
 75
     0
 76
     0
 77
     1
 78
     8
170
     0
171
     2
172
     1
173
     1
174
     0
175
     0
176
     1
177
     1
178
     2
  0
DIMSTYLE
  2
BYGG-019652$0$ME10_DIM_15
 70
     0
  3

  4

  5

  6

  7

 40
1.0
 41
0.35
 42
0.0
 43
0.38
 44
0.2
 45
0.0
 46
0.0
 47
0.0
 48
0.0
140
0.35
141
0.09
142
0.0
143
25.399999999999999
144
1.0
145
0.0
146
1.0
147
0.2
 71
     0
 72
     0
 73
     0
 74
     0
 75
     0
 76
     0
 77
     1
 78
     8
170
     0
171
     2
172
     1
173
     1
174
     0
175
     0
176
     1
177
     1
178
     2
  0
DIMSTYLE
  2
BYGG-019652$0$ME10_DIM_16
 70
     0
  3

  4

  5

  6

  7

 40
1.0
 41
0.35
 42
0.0
 43
0.38
 44
0.2
 45
0.0
 46
0.0
 47
0.0
 48
0.0
140
0.35
141
0.09
142
0.0
143
25.399999999999999
144
1.0
145
0.0
146
1.0
147
0.2
 71
     0
 72
     0
 73
     0
 74
     0
 75
     0
 76
     0
 77
     1
 78
     8
170
     0
171
     2
172
     1
173
     1
174
     0
175
     0
176
     1
177
     1
178
     2
  0
DIMSTYLE
  2
BYGG-019652$0$ME10_DIM_17
 70
     0
  3

  4

  5

  6

  7

 40
1.0
 41
0.7
 42
0.0
 43
0.38
 44
0.4
 45
0.0
 46
0.0
 47
0.0
 48
0.0
140
0.7
141
0.09
142
0.0
143
25.399999999999999
144
1.0
145
0.0
146
1.0
147
0.4
 71
     0
 72
     0
 73
     0
 74
     0
 75
     0
 76
     0
 77
     1
 78
     8
170
     0
171
     2
172
     1
173
     1
174
     0
175
     0
176
     1
177
     1
178
     2
  0
DIMSTYLE
  2
BYGG-019652$0$ME10_DIM_18
 70
     0
  3

  4

  5

  6

  7

 40
1.0
 41
0.7
 42
0.0
 43
0.38
 44
0.4
 45
0.0
 46
0.0
 47
0.0
 48
0.0
140
0.7
141
0.09
142
0.0
143
25.399999999999999
144
1.0
145
0.0
146
1.0
147
0.4
 71
     0
 72
     0
 73
     0
 74
     0
 75
     0
 76
     0
 77
     1
 78
     8
170
     0
171
     2
172
     1
173
     1
174
     0
175
     0
176
     1
177
     1
178
     2
  0
DIMSTYLE
  2
BYGG-019652$0$ME10_DIM_19
 70
     0
  3

  4

  5

  6

  7

 40
1.0
 41
0.7
 42
0.0
 43
0.38
 44
0.4
 45
0.0
 46
0.0
 47
0.0
 48
0.0
140
0.7
141
0.09
142
0.0
143
25.399999999999999
144
1.0
145
0.0
146
1.0
147
0.4
 71
     0
 72
     0
 73
     0
 74
     0
 75
     0
 76
     0
 77
     1
 78
     8
170
     0
171
     2
172
     1
173
     1
174
     0
175
     0
176
     1
177
     1
178
     2
  0
DIMSTYLE
  2
BYGG-019652$0$ME10_DIM_20
 70
     0
  3

  4

  5

  6

  7

 40
1.0
 41
0.7
 42
0.0
 43
0.38
 44
0.4
 45
0.0
 46
0.0
 47
0.0
 48
0.0
140
0.7
141
0.09
142
0.0
143
25.399999999999999
144
1.0
145
0.0
146
1.0
147
0.4
 71
     0
 72
     0
 73
     0
 74
     0
 75
     0
 76
     0
 77
     1
 78
     8
170
     0
171
     2
172
     1
173
     1
174
     0
175
     0
176
     1
177
     1
178
     2
  0
DIMSTYLE
  2
BYGG-019652$0$ME10_DIM_21
 70
     0
  3

  4

  5

  6

  7

 40
1.0
 41
0.7
 42
0.0
 43
0.38
 44
0.4
 45
0.0
 46
0.0
 47
0.0
 48
0.0
140
0.7
141
0.09
142
0.0
143
25.399999999999999
144
1.0
145
0.0
146
1.0
147
0.4
 71
     0
 72
     0
 73
     0
 74
     0
 75
     0
 76
     0
 77
     1
 78
     8
170
     0
171
     2
172
     1
173
     1
174
     0
175
     0
176
     1
177
     1
178
     2
  0
DIMSTYLE
  2
BYGG-019652$0$ME10_DIM_22
 70
     0
  3

  4

  5

  6

  7

 40
1.0
 41
0.7
 42
0.0
 43
0.38
 44
0.4
 45
0.0
 46
0.0
 47
0.0
 48
0.0
140
0.7
141
0.09
142
0.0
143
25.399999999999999
144
1.0
145
0.0
146
1.0
147
0.4
 71
     0
 72
     0
 73
     0
 74
     0
 75
     0
 76
     0
 77
     1
 78
     8
170
     0
171
     2
172
     1
173
     1
174
     0
175
     0
176
     1
177
     1
178
     2
  0
DIMSTYLE
  2
BYGG-019652$0$ME10_DIM_23
 70
     0
  3

  4

  5

  6

  7

 40
1.0
 41
0.7
 42
0.0
 43
0.38
 44
0.4
 45
0.0
 46
0.0
 47
0.0
 48
0.0
140
0.7
141
0.09
142
0.0
143
25.399999999999999
144
1.0
145
0.0
146
1.0
147
0.4
 71
     0
 72
     0
 73
     0
 74
     0
 75
     0
 76
     0
 77
     1
 78
     8
170
     0
171
     2
172
     1
173
     1
174
     0
175
     0
176
     1
177
     1
178
     2
  0
DIMSTYLE
  2
BYGG-019652$0$ME10_DIM_24
 70
     0
  3

  4

  5

  6

  7

 40
1.0
 41
0.7
 42
0.0
 43
0.38
 44
0.4
 45
0.0
 46
0.0
 47
0.0
 48
0.0
140
0.7
141
0.09
142
0.0
143
25.399999999999999
144
1.0
145
0.0
146
1.0
147
0.4
 71
     0
 72
     0
 73
     0
 74
     0
 75
     0
 76
     0
 77
     1
 78
     8
170
     0
171
     2
172
     1
173
     1
174
     0
175
     0
176
     1
177
     1
178
     2
  0
DIMSTYLE
  2
BYGG-019652$0$ME10_DIM_25
 70
     0
  3

  4

  5

  6

  7

 40
1.0
 41
0.7
 42
0.0
 43
0.38
 44
0.4
 45
0.0
 46
0.0
 47
0.0
 48
0.0
140
0.7
141
0.09
142
0.0
143
25.399999999999999
144
1.0
145
0.0
146
1.0
147
0.4
 71
     0
 72
     0
 73
     0
 74
     0
 75
     0
 76
     0
 77
     1
 78
     8
170
     0
171
     2
172
     1
173
     1
174
     0
175
     0
176
     1
177
     1
178
     2
  0
DIMSTYLE
  2
BYGG-019652$0$ME10_DIM_26
 70
     0
  3

  4

  5

  6

  7

 40
1.0
 41
0.7
 42
0.0
 43
0.38
 44
0.4
 45
0.0
 46
0.0
 47
0.0
 48
0.0
140
0.7
141
0.09
142
0.0
143
25.399999999999999
144
1.0
145
0.0
146
1.0
147
0.4
 71
     0
 72
     0
 73
     0
 74
     0
 75
     0
 76
     0
 77
     1
 78
     8
170
     0
171
     2
172
     1
173
     1
174
     0
175
     0
176
     1
177
     1
178
     2
  0
DIMSTYLE
  2
BYGG-019652$0$ME10_DIM_27
 70
     0
  3

  4

  5

  6

  7

 40
1.0
 41
0.7
 42
0.0
 43
0.38
 44
0.4
 45
0.0
 46
0.0
 47
0.0
 48
0.0
140
0.7
141
0.09
142
0.0
143
25.399999999999999
144
1.0
145
0.0
146
1.0
147
0.4
 71
     0
 72
     0
 73
     0
 74
     0
 75
     0
 76
     0
 77
     1
 78
     8
170
     0
171
     2
172
     1
173
     1
174
     0
175
     0
176
     1
177
     1
178
     2
  0
DIMSTYLE
  2
BYGG-019652$0$ME10_DIM_28
 70
     0
  3

  4

  5

  6

  7

 40
1.0
 41
0.7
 42
0.0
 43
0.38
 44
0.4
 45
0.0
 46
0.0
 47
0.0
 48
0.0
140
0.7
141
0.09
142
0.0
143
25.399999999999999
144
1.0
145
0.0
146
1.0
147
0.4
 71
     0
 72
     0
 73
     0
 74
     0
 75
     0
 76
     0
 77
     1
 78
     8
170
     0
171
     2
172
     1
173
     1
174
     0
175
     0
176
     1
177
     1
178
     2
  0
DIMSTYLE
  2
BYGG-019652$0$ME10_DIM_29
 70
     0
  3

  4

  5

  6

  7

 40
1.0
 41
0.7
 42
0.0
 43
0.38
 44
0.4
 45
0.0
 46
0.0
 47
0.0
 48
0.0
140
0.7
141
0.09
142
0.0
143
25.399999999999999
144
1.0
145
0.0
146
1.0
147
0.4
 71
     0
 72
     0
 73
     0
 74
     0
 75
     0
 76
     0
 77
     1
 78
     8
170
     0
171
     2
172
     1
173
     1
174
     0
175
     0
176
     1
177
     1
178
     2
  0
DIMSTYLE
  2
BYGG-019705$0$STANDARD
 70
     0
  3

  4

  5

  6

  7

 40
1.0
 41
0.18
 42
0.0625
 43
0.38
 44
0.18
 45
0.0
 46
0.0
 47
0.0
 48
0.0
140
0.18
141
0.09
142
0.0
143
25.399999999999999
144
1.0
145
0.0
146
1.0
147
0.09
 71
     0
 72
     0
 73
     1
 74
     1
 75
     0
 76
     0
 77
     0
 78
     0
170
     0
171
     2
172
     0
173
     0
174
     0
175
     0
176
     0
177
     0
178
     0
  0
DIMSTYLE
  2
BYGG-019705$0$MASKIN
 70
     0
  3

  4

  5

  6

  7

 40
0.0
 41
3.0
 42
1.5
 43
10.0
 44
1.5
 45
0.0
 46
0.0
 47
0.0
 48
0.0
140
3.0
141
-5.0
142
0.0
143
25.399999999999999
144
-1.0
145
0.0
146
1.0
147
1.0
 71
     0
 72
     0
 73
     0
 74
     0
 75
     0
 76
     0
 77
     1
 78
     8
170
     0
171
     0
172
     1
173
     0
174
     0
175
     0
176
   256
177
   256
178
     2
  0
ENDTAB
  0
ENDSEC
  0
SECTION
  2
BLOCKS
  0
BLOCK
  8
0
  2
$MODEL_SPACE
 70
     0
 10
0.0
 20
0.0
 30
0.0
  3
$MODEL_SPACE
  1

  0
ENDBLK
  5
37
  8
0
  0
BLOCK
 67
     1
  8
0
  2
$PAPER_SPACE
 70
     0
 10
0.0
 20
0.0
 30
0.0
  3
$PAPER_SPACE
  1

  0
ENDBLK
  5
35
 67
     1
  8
0
  0
BLOCK
  8
0
  2
*U70
 70
     1
 10
0.0
 20
0.0
 30
0.0
  3
*U70
  1

  0
TEXT
  5
1B83
  8
SAPA_ARTIKELNR
 10
49.682835003788853
 20
-7.489531390261595
 30
0.0
 40
3.5
  1
68653
 50
89.999999999999986
  7
ISO
  0
ENDBLK
  5
1B85
  8
0
  0
BLOCK
  8
0
  2
*X71
 70
     1
 10
0.0
 20
0.0
 30
0.0
  3
*X71
  1

  0
LINE
  5
1ED0
  8
0
 62
     0
 10
-68.999999999999474
 20
-11.82230508962288
 30
0.0
 11
-69.822305836698987
 21
-10.99999925292337
 31
0.0
  0
LINE
  5
1ED1
  8
0
 62
     0
 10
-68.999999999999474
 20
-12.94483710475653
 30
0.0
 11
-70.944837851832645
 21
-10.99999925292337
 31
0.0
  0
LINE
  5
1ED2
  8
0
 62
     0
 10
-68.999999999999474
 20
-14.06736911989017
 30
0.0
 11
-71.999999999999488
 21
-11.067369119890159
 31
0.0
  0
LINE
  5
1ED3
  8
0
 62
     0
 10
-68.999999999999474
 20
-15.18990113502382
 30
0.0
 11
-71.999999999999488
 21
-12.18990113502381
 31
0.0
  0
LINE
  5
1ED4
  8
0
 62
     0
 10
-68.999999999999474
 20
-16.31243315015746
 30
0.0
 11
-71.999999999999488
 21
-13.31243315015745
 31
0.0
  0
LINE
  5
1ED5
  8
0
 62
     0
 10
-68.999999999999474
 20
-17.4349651652911
 30
0.0
 11
-71.999999999999488
 21
-14.4349651652911
 31
0.0
  0
LINE
  5
1ED6
  8
0
 62
     0
 10
-68.999999999999474
 20
-18.55749718042475
 30
0.0
 11
-71.999999999999488
 21
-15.55749718042475
 31
0.0
  0
LINE
  5
1ED7
  8
0
 62
     0
 10
-68.999999999999474
 20
-19.68002919555839
 30
0.0
 11
-71.999999999999488
 21
-16.68002919555839
 31
0.0
  0
LINE
  5
1ED8
  8
0
 62
     0
 10
-68.999999999999474
 20
-20.802561210692041
 30
0.0
 11
-71.999999999999488
 21
-17.802561210692041
 31
0.0
  0
LINE
  5
1ED9
  8
0
 62
     0
 10
-68.999999999999474
 20
-21.92509322582568
 30
0.0
 11
-71.999999999999488
 21
-18.92509322582568
 31
0.0
  0
LINE
  5
1EDA
  8
0
 62
     0
 10
-68.999999999999474
 20
-23.047625240959331
 30
0.0
 11
-71.999999999999488
 21
-20.047625240959331
 31
0.0
  0
LINE
  5
1EDB
  8
0
 62
     0
 10
-81.999999999999488
 20
-11.17015725609296
 30
0.0
 11
-82.170158003169092
 21
-10.99999925292337
 31
0.0
  0
LINE
  5
1EDC
  8
0
 62
     0
 10
-68.999999999999474
 20
-24.17015725609297
 30
0.0
 11
-72.190755653812246
 21
-20.979401602280209
 31
0.0
  0
LINE
  5
1EDD
  8
0
 62
     0
 10
-81.999999999999488
 20
-12.2926892712266
 30
0.0
 11
-83.292690018302736
 21
-10.999999252923359
 31
0.0
  0
LINE
  5
1EDE
  8
0
 62
     0
 10
-68.999999999999474
 20
-25.29268927122661
 30
0.0
 11
-73.292690018302736
 21
-20.999999252923359
 31
0.0
  0
LINE
  5
1EDF
  8
0
 62
     0
 10
-81.999999999999488
 20
-13.41522128636025
 30
0.0
 11
-84.415222033436365
 21
-10.999999252923359
 31
0.0
  0
LINE
  5
1EE0
  8
0
 62
     0
 10
-69.415222033436365
 20
-25.99999925292337
 30
0.0
 11
-74.415222033436365
 21
-20.99999925292337
 31
0.0
  0
LINE
  5
1EE1
  8
0
 62
     0
 10
-81.999999999999488
 20
-14.53775330149389
 30
0.0
 11
-84.999999999999474
 21
-11.5377533014939
 31
0.0
  0
LINE
  5
1EE2
  8
0
 62
     0
 10
-70.537754048570022
 20
-25.99999925292337
 30
0.0
 11
-75.537754048570022
 21
-20.999999252923359
 31
0.0
  0
LINE
  5
1EE3
  8
0
 62
     0
 10
-81.999999999999488
 20
-15.66028531662754
 30
0.0
 11
-84.999999999999474
 21
-12.66028531662754
 31
0.0
  0
LINE
  5
1EE4
  8
0
 62
     0
 10
-71.660286063703651
 20
-25.99999925292337
 30
0.0
 11
-76.660286063703666
 21
-20.99999925292337
 31
0.0
  0
LINE
  5
1EE5
  8
0
 62
     0
 10
-81.999999999999488
 20
-16.782817331761191
 30
0.0
 11
-84.999999999999474
 21
-13.782817331761191
 31
0.0
  0
LINE
  5
1EE6
  8
0
 62
     0
 10
-72.782818078837309
 20
-25.99999925292337
 30
0.0
 11
-77.782818078837309
 21
-20.99999925292337
 31
0.0
  0
LINE
  5
1EE7
  8
0
 62
     0
 10
-81.999999999999488
 20
-17.90534934689482
 30
0.0
 11
-84.999999999999474
 21
-14.905349346894839
 31
0.0
  0
LINE
  5
1EE8
  8
0
 62
     0
 10
-73.905350093970952
 20
-25.99999925292337
 30
0.0
 11
-78.905350093970952
 21
-20.99999925292337
 31
0.0
  0
LINE
  5
1EE9
  8
0
 62
     0
 10
-81.999999999999488
 20
-19.02788136202847
 30
0.0
 11
-84.999999999999474
 21
-16.027881362028481
 31
0.0
  0
LINE
  5
1EEA
  8
0
 62
     0
 10
-75.027882109104596
 20
-25.99999925292337
 30
0.0
 11
-80.027882109104596
 21
-20.99999925292337
 31
0.0
  0
LINE
  5
1EEB
  8
0
 62
     0
 10
-81.999999999999488
 20
-20.15041337716211
 30
0.0
 11
-84.999999999999474
 21
-17.150413377162121
 31
0.0
  0
LINE
  5
1EEC
  8
0
 62
     0
 10
-76.150414124238239
 20
-25.99999925292337
 30
0.0
 11
-81.150414124238239
 21
-20.99999925292337
 31
0.0
  0
LINE
  5
1EED
  8
0
 62
     0
 10
-77.272946139371882
 20
-25.99999925292337
 30
0.0
 11
-84.999999999999474
 21
-18.27294539229576
 31
0.0
  0
LINE
  5
1EEE
  8
0
 62
     0
 10
-78.395478154505525
 20
-25.99999925292337
 30
0.0
 11
-84.999999999999474
 21
-19.395477407429411
 31
0.0
  0
LINE
  5
1EEF
  8
0
 62
     0
 10
-79.518010169639169
 20
-25.99999925292337
 30
0.0
 11
-84.999999999999474
 21
-20.51800942256305
 31
0.0
  0
LINE
  5
1EF0
  8
0
 62
     0
 10
-80.640542184772812
 20
-25.999999252923359
 30
0.0
 11
-84.999999999999474
 21
-21.640541437696701
 31
0.0
  0
LINE
  5
1EF1
  8
0
 62
     0
 10
-81.763074199906484
 20
-25.999999252923359
 30
0.0
 11
-84.999999999999474
 21
-22.763073452830341
 31
0.0
  0
LINE
  5
1EF2
  8
0
 62
     0
 10
-82.885606215040113
 20
-25.99999925292337
 30
0.0
 11
-84.999999999999474
 21
-23.885605467963991
 31
0.0
  0
LINE
  5
1EF3
  8
0
 62
     0
 10
-84.008138230173742
 20
-25.99999925292337
 30
0.0
 11
-84.999999999999474
 21
-25.008137483097642
 31
0.0
  0
LINE
  5
1EF4
  8
0
 62
     0
 10
-69.778747843135505
 20
-25.99999925292337
 30
0.0
 11
-68.999999999999474
 21
-25.221251409787349
 31
0.0
  0
LINE
  5
1EF5
  8
0
 62
     0
 10
-70.901279858269149
 20
-25.999999252923381
 30
0.0
 11
-68.999999999999474
 21
-24.09871939465371
 31
0.0
  0
LINE
  5
1EF6
  8
0
 62
     0
 10
-72.023811873402792
 20
-25.999999252923381
 30
0.0
 11
-68.999999999999474
 21
-22.976187379520059
 31
0.0
  0
LINE
  5
1EF7
  8
0
 62
     0
 10
-73.146343888536435
 20
-25.999999252923381
 30
0.0
 11
-68.999999999999474
 21
-21.85365536438643
 31
0.0
  0
LINE
  5
1EF8
  8
0
 62
     0
 10
-74.268875903670079
 20
-25.99999925292337
 30
0.0
 11
-68.999999999999474
 21
-20.73112334925278
 31
0.0
  0
LINE
  5
1EF9
  8
0
 62
     0
 10
-75.391407918803722
 20
-25.99999925292337
 30
0.0
 11
-68.999999999999474
 21
-19.60859133411914
 31
0.0
  0
LINE
  5
1EFA
  8
0
 62
     0
 10
-76.513939933937365
 20
-25.99999925292337
 30
0.0
 11
-68.999999999999474
 21
-18.48605931898549
 31
0.0
  0
LINE
  5
1EFB
  8
0
 62
     0
 10
-71.999999999999488
 20
-20.36352730385185
 30
0.0
 11
-68.999999999999474
 21
-17.363527303851839
 31
0.0
  0
LINE
  5
1EFC
  8
0
 62
     0
 10
-77.636471949070994
 20
-25.99999925292337
 30
0.0
 11
-72.636471949070994
 21
-20.99999925292337
 31
0.0
  0
LINE
  5
1EFD
  8
0
 62
     0
 10
-71.999999999999488
 20
-19.240995288718199
 30
0.0
 11
-68.999999999999474
 21
-16.24099528871821
 31
0.0
  0
LINE
  5
1EFE
  8
0
 62
     0
 10
-78.759003964204652
 20
-25.99999925292337
 30
0.0
 11
-73.759003964204652
 21
-20.99999925292337
 31
0.0
  0
LINE
  5
1EFF
  8
0
 62
     0
 10
-71.999999999999488
 20
-18.11846327358456
 30
0.0
 11
-68.999999999999474
 21
-15.11846327358456
 31
0.0
  0
LINE
  5
1F00
  8
0
 62
     0
 10
-79.881535979338295
 20
-25.99999925292337
 30
0.0
 11
-74.881535979338295
 21
-20.99999925292337
 31
0.0
  0
LINE
  5
1F01
  8
0
 62
     0
 10
-71.999999999999488
 20
-16.995931258450909
 30
0.0
 11
-68.999999999999474
 21
-13.995931258450909
 31
0.0
  0
LINE
  5
1F02
  8
0
 62
     0
 10
-81.004067994471939
 20
-25.99999925292337
 30
0.0
 11
-76.004067994471939
 21
-20.99999925292337
 31
0.0
  0
LINE
  5
1F03
  8
0
 62
     0
 10
-71.999999999999488
 20
-15.873399243317269
 30
0.0
 11
-68.999999999999474
 21
-12.873399243317261
 31
0.0
  0
LINE
  5
1F04
  8
0
 62
     0
 10
-82.126600009605596
 20
-25.99999925292337
 30
0.0
 11
-77.126600009605582
 21
-20.99999925292337
 31
0.0
  0
LINE
  5
1F05
  8
0
 62
     0
 10
-71.999999999999488
 20
-14.75086722818363
 30
0.0
 11
-68.999999999999474
 21
-11.75086722818363
 31
0.0
  0
LINE
  5
1F06
  8
0
 62
     0
 10
-83.249132024739225
 20
-25.99999925292337
 30
0.0
 11
-78.249132024739239
 21
-20.99999925292337
 31
0.0
  0
LINE
  5
1F07
  8
0
 62
     0
 10
-71.999999999999488
 20
-13.628335213049979
 30
0.0
 11
-69.371664039872869
 21
-10.99999925292337
 31
0.0
  0
LINE
  5
1F08
  8
0
 62
     0
 10
-84.371664039872869
 20
-25.99999925292337
 30
0.0
 11
-79.371664039872869
 21
-20.99999925292337
 31
0.0
  0
LINE
  5
1F09
  8
0
 62
     0
 10
-71.999999999999488
 20
-12.50580319791634
 30
0.0
 11
-70.494196055006512
 21
-10.999999252923381
 31
0.0
  0
LINE
  5
1F0A
  8
0
 62
     0
 10
-84.999999999999474
 20
-25.505803197916329
 30
0.0
 11
-80.494196055006526
 21
-20.999999252923381
 31
0.0
  0
LINE
  5
1F0B
  8
0
 62
     0
 10
-71.999999999999488
 20
-11.383271182782689
 30
0.0
 11
-71.616728070140155
 21
-10.99999925292337
 31
0.0
  0
LINE
  5
1F0C
  8
0
 62
     0
 10
-84.999999999999474
 20
-24.383271182782689
 30
0.0
 11
-81.616728070140155
 21
-20.99999925292337
 31
0.0
  0
LINE
  5
1F0D
  8
0
 62
     0
 10
-84.999999999999474
 20
-23.260739167649039
 30
0.0
 11
-81.999999999999488
 21
-20.26073916764906
 31
0.0
  0
LINE
  5
1F0E
  8
0
 62
     0
 10
-84.999999999999474
 20
-22.13820715251541
 30
0.0
 11
-81.999999999999474
 21
-19.138207152515399
 31
0.0
  0
LINE
  5
1F0F
  8
0
 62
     0
 10
-84.999999999999474
 20
-21.01567513738177
 30
0.0
 11
-81.999999999999474
 21
-18.015675137381759
 31
0.0
  0
LINE
  5
1F10
  8
0
 62
     0
 10
-84.999999999999474
 20
-19.893143122248109
 30
0.0
 11
-81.999999999999488
 21
-16.893143122248109
 31
0.0
  0
LINE
  5
1F11
  8
0
 62
     0
 10
-84.999999999999474
 20
-18.770611107114469
 30
0.0
 11
-81.999999999999488
 21
-15.770611107114471
 31
0.0
  0
LINE
  5
1F12
  8
0
 62
     0
 10
-84.999999999999474
 20
-17.648079091980819
 30
0.0
 11
-81.999999999999488
 21
-14.64807909198082
 31
0.0
  0
LINE
  5
1F13
  8
0
 62
     0
 10
-84.999999999999474
 20
-16.525547076847189
 30
0.0
 11
-81.999999999999488
 21
-13.525547076847181
 31
0.0
  0
LINE
  5
1F14
  8
0
 62
     0
 10
-84.999999999999474
 20
-15.403015061713541
 30
0.0
 11
-81.999999999999488
 21
-12.403015061713541
 31
0.0
  0
LINE
  5
1F15
  8
0
 62
     0
 10
-84.999999999999474
 20
-14.28048304657989
 30
0.0
 11
-81.999999999999474
 21
-11.28048304657989
 31
0.0
  0
LINE
  5
1F16
  8
0
 62
     0
 10
-84.999999999999474
 20
-13.157951031446251
 30
0.0
 11
-82.842048221476603
 21
-10.999999252923381
 31
0.0
  0
LINE
  5
1F17
  8
0
 62
     0
 10
-84.999999999999474
 20
-12.0354190163126
 30
0.0
 11
-83.96458023661026
 21
-10.999999252923381
 31
0.0
  0
ENDBLK
  5
1F19
  8
0
  0
BLOCK
  8
0
  2
*X72
 70
     1
 10
0.0
 20
0.0
 30
0.0
  3
*X72
  1

  0
LINE
  5
1F32
  8
0
 62
     0
 10
-68.999999999999474
 20
-11.82230508962288
 30
0.0
 11
-69.822305836698987
 21
-10.99999925292337
 31
0.0
  0
LINE
  5
1F33
  8
0
 62
     0
 10
-68.999999999999474
 20
-12.94483710475653
 30
0.0
 11
-70.944837851832645
 21
-10.99999925292337
 31
0.0
  0
LINE
  5
1F34
  8
0
 62
     0
 10
-68.999999999999474
 20
-14.06736911989017
 30
0.0
 11
-71.999999999999488
 21
-11.067369119890159
 31
0.0
  0
LINE
  5
1F35
  8
0
 62
     0
 10
-68.999999999999474
 20
-15.18990113502382
 30
0.0
 11
-71.999999999999488
 21
-12.18990113502381
 31
0.0
  0
LINE
  5
1F36
  8
0
 62
     0
 10
-68.999999999999474
 20
-16.31243315015746
 30
0.0
 11
-71.999999999999488
 21
-13.31243315015745
 31
0.0
  0
LINE
  5
1F37
  8
0
 62
     0
 10
-68.999999999999474
 20
-17.4349651652911
 30
0.0
 11
-71.999999999999488
 21
-14.4349651652911
 31
0.0
  0
LINE
  5
1F38
  8
0
 62
     0
 10
-68.999999999999474
 20
-18.55749718042475
 30
0.0
 11
-71.999999999999488
 21
-15.55749718042475
 31
0.0
  0
LINE
  5
1F39
  8
0
 62
     0
 10
-68.999999999999474
 20
-19.68002919555839
 30
0.0
 11
-71.999999999999488
 21
-16.68002919555839
 31
0.0
  0
LINE
  5
1F3A
  8
0
 62
     0
 10
-68.999999999999474
 20
-20.802561210692041
 30
0.0
 11
-71.999999999999488
 21
-17.802561210692041
 31
0.0
  0
LINE
  5
1F3B
  8
0
 62
     0
 10
-68.999999999999474
 20
-21.92509322582568
 30
0.0
 11
-71.999999999999488
 21
-18.92509322582568
 31
0.0
  0
LINE
  5
1F3C
  8
0
 62
     0
 10
-68.999999999999474
 20
-23.047625240959331
 30
0.0
 11
-71.999999999999488
 21
-20.047625240959331
 31
0.0
  0
LINE
  5
1F3D
  8
0
 62
     0
 10
-81.999999999999488
 20
-11.17015725609296
 30
0.0
 11
-82.170158003169092
 21
-10.99999925292337
 31
0.0
  0
LINE
  5
1F3E
  8
0
 62
     0
 10
-68.999999999999474
 20
-24.17015725609297
 30
0.0
 11
-72.190755653812246
 21
-20.979401602280209
 31
0.0
  0
LINE
  5
1F3F
  8
0
 62
     0
 10
-81.999999999999488
 20
-12.2926892712266
 30
0.0
 11
-83.292690018302736
 21
-10.999999252923359
 31
0.0
  0
LINE
  5
1F40
  8
0
 62
     0
 10
-68.999999999999474
 20
-25.29268927122661
 30
0.0
 11
-73.292690018302736
 21
-20.999999252923359
 31
0.0
  0
LINE
  5
1F41
  8
0
 62
     0
 10
-81.999999999999488
 20
-13.41522128636025
 30
0.0
 11
-84.415222033436365
 21
-10.999999252923359
 31
0.0
  0
LINE
  5
1F42
  8
0
 62
     0
 10
-69.415222033436365
 20
-25.99999925292337
 30
0.0
 11
-74.415222033436365
 21
-20.99999925292337
 31
0.0
  0
LINE
  5
1F43
  8
0
 62
     0
 10
-81.999999999999488
 20
-14.53775330149389
 30
0.0
 11
-84.999999999999474
 21
-11.5377533014939
 31
0.0
  0
LINE
  5
1F44
  8
0
 62
     0
 10
-70.537754048570022
 20
-25.99999925292337
 30
0.0
 11
-75.537754048570022
 21
-20.999999252923359
 31
0.0
  0
LINE
  5
1F45
  8
0
 62
     0
 10
-81.999999999999488
 20
-15.66028531662754
 30
0.0
 11
-84.999999999999474
 21
-12.66028531662754
 31
0.0
  0
LINE
  5
1F46
  8
0
 62
     0
 10
-71.660286063703651
 20
-25.99999925292337
 30
0.0
 11
-76.660286063703666
 21
-20.99999925292337
 31
0.0
  0
LINE
  5
1F47
  8
0
 62
     0
 10
-81.999999999999488
 20
-16.782817331761191
 30
0.0
 11
-84.999999999999474
 21
-13.782817331761191
 31
0.0
  0
LINE
  5
1F48
  8
0
 62
     0
 10
-72.782818078837309
 20
-25.99999925292337
 30
0.0
 11
-77.782818078837309
 21
-20.99999925292337
 31
0.0
  0
LINE
  5
1F49
  8
0
 62
     0
 10
-81.999999999999488
 20
-17.90534934689482
 30
0.0
 11
-84.999999999999474
 21
-14.905349346894839
 31
0.0
  0
LINE
  5
1F4A
  8
0
 62
     0
 10
-73.905350093970952
 20
-25.99999925292337
 30
0.0
 11
-78.905350093970952
 21
-20.99999925292337
 31
0.0
  0
LINE
  5
1F4B
  8
0
 62
     0
 10
-81.999999999999488
 20
-19.02788136202847
 30
0.0
 11
-84.999999999999474
 21
-16.027881362028481
 31
0.0
  0
LINE
  5
1F4C
  8
0
 62
     0
 10
-75.027882109104596
 20
-25.99999925292337
 30
0.0
 11
-80.027882109104596
 21
-20.99999925292337
 31
0.0
  0
LINE
  5
1F4D
  8
0
 62
     0
 10
-81.999999999999488
 20
-20.15041337716211
 30
0.0
 11
-84.999999999999474
 21
-17.150413377162121
 31
0.0
  0
LINE
  5
1F4E
  8
0
 62
     0
 10
-76.150414124238239
 20
-25.99999925292337
 30
0.0
 11
-81.150414124238239
 21
-20.99999925292337
 31
0.0
  0
LINE
  5
1F4F
  8
0
 62
     0
 10
-77.272946139371882
 20
-25.99999925292337
 30
0.0
 11
-84.999999999999474
 21
-18.27294539229576
 31
0.0
  0
LINE
  5
1F50
  8
0
 62
     0
 10
-78.395478154505525
 20
-25.99999925292337
 30
0.0
 11
-84.999999999999474
 21
-19.395477407429411
 31
0.0
  0
LINE
  5
1F51
  8
0
 62
     0
 10
-79.518010169639169
 20
-25.99999925292337
 30
0.0
 11
-84.999999999999474
 21
-20.51800942256305
 31
0.0
  0
LINE
  5
1F52
  8
0
 62
     0
 10
-80.640542184772812
 20
-25.999999252923359
 30
0.0
 11
-84.999999999999474
 21
-21.640541437696701
 31
0.0
  0
LINE
  5
1F53
  8
0
 62
     0
 10
-81.763074199906484
 20
-25.999999252923359
 30
0.0
 11
-84.999999999999474
 21
-22.763073452830341
 31
0.0
  0
LINE
  5
1F54
  8
0
 62
     0
 10
-82.885606215040113
 20
-25.99999925292337
 30
0.0
 11
-84.999999999999474
 21
-23.885605467963991
 31
0.0
  0
LINE
  5
1F55
  8
0
 62
     0
 10
-84.008138230173742
 20
-25.99999925292337
 30
0.0
 11
-84.999999999999474
 21
-25.008137483097642
 31
0.0
  0
LINE
  5
1F56
  8
0
 62
     0
 10
-69.778747843135505
 20
-25.99999925292337
 30
0.0
 11
-68.999999999999474
 21
-25.221251409787349
 31
0.0
  0
LINE
  5
1F57
  8
0
 62
     0
 10
-70.901279858269149
 20
-25.999999252923381
 30
0.0
 11
-68.999999999999474
 21
-24.09871939465371
 31
0.0
  0
LINE
  5
1F58
  8
0
 62
     0
 10
-72.023811873402792
 20
-25.999999252923381
 30
0.0
 11
-68.999999999999474
 21
-22.976187379520059
 31
0.0
  0
LINE
  5
1F59
  8
0
 62
     0
 10
-73.146343888536435
 20
-25.999999252923381
 30
0.0
 11
-68.999999999999474
 21
-21.85365536438643
 31
0.0
  0
LINE
  5
1F5A
  8
0
 62
     0
 10
-74.268875903670079
 20
-25.99999925292337
 30
0.0
 11
-68.999999999999474
 21
-20.73112334925278
 31
0.0
  0
LINE
  5
1F5B
  8
0
 62
     0
 10
-75.391407918803722
 20
-25.99999925292337
 30
0.0
 11
-68.999999999999474
 21
-19.60859133411914
 31
0.0
  0
LINE
  5
1F5C
  8
0
 62
     0
 10
-76.513939933937365
 20
-25.99999925292337
 30
0.0
 11
-68.999999999999474
 21
-18.48605931898549
 31
0.0
  0
LINE
  5
1F5D
  8
0
 62
     0
 10
-71.999999999999488
 20
-20.36352730385185
 30
0.0
 11
-68.999999999999474
 21
-17.363527303851839
 31
0.0
  0
LINE
  5
1F5E
  8
0
 62
     0
 10
-77.636471949070994
 20
-25.99999925292337
 30
0.0
 11
-72.636471949070994
 21
-20.99999925292337
 31
0.0
  0
LINE
  5
1F5F
  8
0
 62
     0
 10
-71.999999999999488
 20
-19.240995288718199
 30
0.0
 11
-68.999999999999474
 21
-16.24099528871821
 31
0.0
  0
LINE
  5
1F60
  8
0
 62
     0
 10
-78.759003964204652
 20
-25.99999925292337
 30
0.0
 11
-73.759003964204652
 21
-20.99999925292337
 31
0.0
  0
LINE
  5
1F61
  8
0
 62
     0
 10
-71.999999999999488
 20
-18.11846327358456
 30
0.0
 11
-68.999999999999474
 21
-15.11846327358456
 31
0.0
  0
LINE
  5
1F62
  8
0
 62
     0
 10
-79.881535979338295
 20
-25.99999925292337
 30
0.0
 11
-74.881535979338295
 21
-20.99999925292337
 31
0.0
  0
LINE
  5
1F63
  8
0
 62
     0
 10
-71.999999999999488
 20
-16.995931258450909
 30
0.0
 11
-68.999999999999474
 21
-13.995931258450909
 31
0.0
  0
LINE
  5
1F64
  8
0
 62
     0
 10
-81.004067994471939
 20
-25.99999925292337
 30
0.0
 11
-76.004067994471939
 21
-20.99999925292337
 31
0.0
  0
LINE
  5
1F65
  8
0
 62
     0
 10
-71.999999999999488
 20
-15.873399243317269
 30
0.0
 11
-68.999999999999474
 21
-12.873399243317261
 31
0.0
  0
LINE
  5
1F66
  8
0
 62
     0
 10
-82.126600009605596
 20
-25.99999925292337
 30
0.0
 11
-77.126600009605582
 21
-20.99999925292337
 31
0.0
  0
LINE
  5
1F67
  8
0
 62
     0
 10
-71.999999999999488
 20
-14.75086722818363
 30
0.0
 11
-68.999999999999474
 21
-11.75086722818363
 31
0.0
  0
LINE
  5
1F68
  8
0
 62
     0
 10
-83.249132024739225
 20
-25.99999925292337
 30
0.0
 11
-78.249132024739239
 21
-20.99999925292337
 31
0.0
  0
LINE
  5
1F69
  8
0
 62
     0
 10
-71.999999999999488
 20
-13.628335213049979
 30
0.0
 11
-69.371664039872869
 21
-10.99999925292337
 31
0.0
  0
LINE
  5
1F6A
  8
0
 62
     0
 10
-84.371664039872869
 20
-25.99999925292337
 30
0.0
 11
-79.371664039872869
 21
-20.99999925292337
 31
0.0
  0
LINE
  5
1F6B
  8
0
 62
     0
 10
-71.999999999999488
 20
-12.50580319791634
 30
0.0
 11
-70.494196055006512
 21
-10.999999252923381
 31
0.0
  0
LINE
  5
1F6C
  8
0
 62
     0
 10
-84.999999999999474
 20
-25.505803197916329
 30
0.0
 11
-80.494196055006526
 21
-20.999999252923381
 31
0.0
  0
LINE
  5
1F6D
  8
0
 62
     0
 10
-71.999999999999488
 20
-11.383271182782689
 30
0.0
 11
-71.616728070140155
 21
-10.99999925292337
 31
0.0
  0
LINE
  5
1F6E
  8
0
 62
     0
 10
-84.999999999999474
 20
-24.383271182782689
 30
0.0
 11
-81.616728070140155
 21
-20.99999925292337
 31
0.0
  0
LINE
  5
1F6F
  8
0
 62
     0
 10
-84.999999999999474
 20
-23.260739167649039
 30
0.0
 11
-81.999999999999488
 21
-20.26073916764906
 31
0.0
  0
LINE
  5
1F70
  8
0
 62
     0
 10
-84.999999999999474
 20
-22.13820715251541
 30
0.0
 11
-81.999999999999474
 21
-19.138207152515399
 31
0.0
  0
LINE
  5
1F71
  8
0
 62
     0
 10
-84.999999999999474
 20
-21.01567513738177
 30
0.0
 11
-81.999999999999474
 21
-18.015675137381759
 31
0.0
  0
LINE
  5
1F72
  8
0
 62
     0
 10
-84.999999999999474
 20
-19.893143122248109
 30
0.0
 11
-81.999999999999488
 21
-16.893143122248109
 31
0.0
  0
LINE
  5
1F73
  8
0
 62
     0
 10
-84.999999999999474
 20
-18.770611107114469
 30
0.0
 11
-81.999999999999488
 21
-15.770611107114471
 31
0.0
  0
LINE
  5
1F74
  8
0
 62
     0
 10
-84.999999999999474
 20
-17.648079091980819
 30
0.0
 11
-81.999999999999488
 21
-14.64807909198082
 31
0.0
  0
LINE
  5
1F75
  8
0
 62
     0
 10
-84.999999999999474
 20
-16.525547076847189
 30
0.0
 11
-81.999999999999488
 21
-13.525547076847181
 31
0.0
  0
LINE
  5
1F76
  8
0
 62
     0
 10
-84.999999999999474
 20
-15.403015061713541
 30
0.0
 11
-81.999999999999488
 21
-12.403015061713541
 31
0.0
  0
LINE
  5
1F77
  8
0
 62
     0
 10
-84.999999999999474
 20
-14.28048304657989
 30
0.0
 11
-81.999999999999474
 21
-11.28048304657989
 31
0.0
  0
LINE
  5
1F78
  8
0
 62
     0
 10
-84.999999999999474
 20
-13.157951031446251
 30
0.0
 11
-82.842048221476603
 21
-10.999999252923381
 31
0.0
  0
LINE
  5
1F79
  8
0
 62
     0
 10
-84.999999999999474
 20
-12.0354190163126
 30
0.0
 11
-83.96458023661026
 21
-10.999999252923381
 31
0.0
  0
ENDBLK
  5
1F7B
  8
0
  0
BLOCK
  8
0
  2
*X73
 70
     1
 10
0.0
 20
0.0
 30
0.0
  3
*X73
  1

  0
LINE
  5
1F7D
  8
0
 62
     0
 10
-36.706147077329021
 20
-23.42580132326977
 30
0.0
 11
-34.643475596903308
 21
-21.363129842844049
 31
0.0
  0
LINE
  5
1F7E
  8
0
 62
     0
 10
-37.890566917542117
 20
-23.48768914834924
 30
0.0
 11
-35.096344638203782
 21
-20.69346686901088
 31
0.0
  0
LINE
  5
1F7F
  8
0
 62
     0
 10
-38.842666753406071
 20
-23.317256969079551
 30
0.0
 11
-35.78153368385339
 21
-20.256123899526852
 31
0.0
  0
LINE
  5
1F80
  8
0
 62
     0
 10
-39.626002681070091
 20
-22.978060881609949
 30
0.0
 11
-36.635486637702918
 21
-19.987544838242769
 31
0.0
  0
LINE
  5
1F81
  8
0
 62
     0
 10
-40.226654710219442
 20
-22.456180895625671
 30
0.0
 11
-37.672123490067143
 21
-19.901649675473351
 31
0.0
  0
LINE
  5
1F82
  8
0
 62
     0
 10
-40.495678082692081
 20
-21.602672252964609
 30
0.0
 11
-39.04038899910816
 21
-20.147383169380699
 31
0.0
  0
LINE
  5
1F83
  8
0
 62
     0
 10
-34.630668090471659
 20
-21.968526451625561
 30
0.0
 11
-36.60565774403404
 21
-19.993536798063239
 31
0.0
  0
LINE
  5
1F84
  8
0
 62
     0
 10
-35.054278372410693
 20
-22.66744818482022
 30
0.0
 11
-37.814270830288478
 21
-19.90745572694243
 31
0.0
  0
LINE
  5
1F85
  8
0
 62
     0
 10
-35.726133916084962
 20
-23.11812465627958
 30
0.0
 11
-38.779704168127473
 21
-20.064554404237072
 31
0.0
  0
LINE
  5
1F86
  8
0
 62
     0
 10
-36.568165896249013
 20
-23.398624691249271
 30
0.0
 11
-39.574961069476842
 21
-20.391829518021439
 31
0.0
  0
LINE
  5
1F87
  8
0
 62
     0
 10
-37.589521935736059
 20
-23.499800666895851
 30
0.0
 11
-40.19089391150299
 21
-20.89842869112891
 31
0.0
  0
LINE
  5
1F88
  8
0
 62
     0
 10
-38.917769544464647
 20
-23.294085073300892
 30
0.0
 11
-40.499935184287658
 21
-21.71191943347787
 31
0.0
  0
ENDBLK
  5
1F8A
  8
0
  0
BLOCK
  8
0
  2
*X74
 70
     1
 10
0.0
 20
0.0
 30
0.0
  3
*X74
  1

  0
LINE
  5
2038
  8
0
 62
     0
 10
-36.706147077329021
 20
-23.42580132326977
 30
0.0
 11
-34.643475596903308
 21
-21.363129842844049
 31
0.0
  0
LINE
  5
2039
  8
0
 62
     0
 10
-37.890566917542117
 20
-23.48768914834924
 30
0.0
 11
-35.096344638203782
 21
-20.69346686901088
 31
0.0
  0
LINE
  5
203A
  8
0
 62
     0
 10
-38.842666753406071
 20
-23.317256969079551
 30
0.0
 11
-35.78153368385339
 21
-20.256123899526852
 31
0.0
  0
LINE
  5
203B
  8
0
 62
     0
 10
-39.626002681070091
 20
-22.978060881609949
 30
0.0
 11
-36.635486637702918
 21
-19.987544838242769
 31
0.0
  0
LINE
  5
203C
  8
0
 62
     0
 10
-40.226654710219442
 20
-22.456180895625671
 30
0.0
 11
-37.672123490067143
 21
-19.901649675473351
 31
0.0
  0
LINE
  5
203D
  8
0
 62
     0
 10
-40.495678082692081
 20
-21.602672252964609
 30
0.0
 11
-39.04038899910816
 21
-20.147383169380699
 31
0.0
  0
LINE
  5
203E
  8
0
 62
     0
 10
-34.630668090471659
 20
-21.968526451625561
 30
0.0
 11
-36.60565774403404
 21
-19.993536798063239
 31
0.0
  0
LINE
  5
203F
  8
0
 62
     0
 10
-35.054278372410693
 20
-22.66744818482022
 30
0.0
 11
-37.814270830288478
 21
-19.90745572694243
 31
0.0
  0
LINE
  5
2040
  8
0
 62
     0
 10
-35.726133916084962
 20
-23.11812465627958
 30
0.0
 11
-38.779704168127473
 21
-20.064554404237072
 31
0.0
  0
LINE
  5
2041
  8
0
 62
     0
 10
-36.568165896249013
 20
-23.398624691249271
 30
0.0
 11
-39.574961069476842
 21
-20.391829518021439
 31
0.0
  0
LINE
  5
2042
  8
0
 62
     0
 10
-37.589521935736059
 20
-23.499800666895851
 30
0.0
 11
-40.19089391150299
 21
-20.89842869112891
 31
0.0
  0
LINE
  5
2043
  8
0
 62
     0
 10
-38.917769544464647
 20
-23.294085073300892
 30
0.0
 11
-40.499935184287658
 21
-21.71191943347787
 31
0.0
  0
ENDBLK
  5
2045
  8
0
  0
ENDSEC
  0
SECTION
  2
ENTITIES
  0
INSERT
  5
7BD
  8
0
  2
*U70
 10
0.0
 20
0.0
 30
0.0
  0
ARC
  5
A6C
  8
SAPA_GLAS
 10
-155.46368897671971
 20
0.293244782046386
 30
0.0
 40
65.445431905677779
 50
350.06332115724189
 51
9.4158117174847291
  0
LINE
  5
A6D
  8
SAPA_GLAS
 10
-83.332392354088142
 20
-8.1554684367080164
 30
0.0
 11
-81.999999999999488
 21
-10.9999992529234
 31
0.0
  0
LINE
  5
A6E
  8
SAPA_GLAS
 10
-83.332392354088157
 20
8.1554699308655341
 30
0.0
 11
-82.70000000201145
 21
11.00000074707655
 31
0.0
  0
LINE
  5
F4A
  8
SAPA_GLAS
 10
-81.500000000480611
 20
-10.999999999996829
 30
0.0
 11
-85.000000000480611
 21
-10.999999999996829
 31
0.0
  0
LINE
  5
1042
  8
SAPA_GLAS
 10
-85.000000000480611
 20
11.000000747072789
 30
0.0
 11
-81.900000000983027
 21
11.000000747072789
 31
0.0
  0
LINE
  5
1043
  8
SAPA_GLAS
 10
-81.900000000983027
 20
11.000000747072789
 30
0.0
 11
-81.900000000983013
 21
20.000000747076559
 31
0.0
  0
LINE
  5
1044
  8
SAPA_GLAS
 10
-81.900000000983013
 20
20.000000747076559
 30
0.0
 11
-85.000000000480611
 21
20.000000747076559
 31
0.0
  0
ARC
  5
1045
  8
SAPA_GLAS
 10
-81.927472822962287
 20
44.384362071676861
 30
0.0
 40
8.2592372925440731
 50
248.16030517098059
 51
291.50337180106629
  0
LINE
  5
1647
  8
SAPA_GLAS
 10
-85.000000000480611
 20
19.247414603900001
 30
0.0
 11
-84.931249999999991
 21
19.247414603900001
 31
0.0
1001
GRADIENTCOLOR1ACI
1070
     5
1001
GRADIENTCOLOR2ACI
1070
     2
1001
ACAD
1010
0.0
1020
0.0
1030
0.0
  0
LINE
  5
1648
  8
SAPA_GLAS
 10
-83.343749999999986
 20
19.247414603900001
 30
0.0
 11
-82.549999999999983
 21
19.247414603900001
 31
0.0
1001
GRADIENTCOLOR1ACI
1070
     5
1001
GRADIENTCOLOR2ACI
1070
     2
1001
ACAD
1010
0.0
1020
0.0
1030
0.0
  0
LINE
  5
1649
  8
SAPA_GLAS
 10
-85.000000000480611
 20
17.872599275049989
 30
0.0
 11
-84.931249999999991
 21
17.872599275049989
 31
0.0
1001
GRADIENTCOLOR1ACI
1070
     5
1001
GRADIENTCOLOR2ACI
1070
     2
1001
ACAD
1010
0.0
1020
0.0
1030
0.0
  0
LINE
  5
164A
  8
SAPA_GLAS
 10
-83.343749999999986
 20
17.872599275049989
 30
0.0
 11
-82.549999999999983
 21
17.872599275049989
 31
0.0
1001
GRADIENTCOLOR1ACI
1070
     5
1001
GRADIENTCOLOR2ACI
1070
     2
1001
ACAD
1010
0.0
1020
0.0
1030
0.0
  0
LINE
  5
164B
  8
SAPA_GLAS
 10
-85.000000000480611
 20
16.497783946199998
 30
0.0
 11
-84.931249999999991
 21
16.497783946199998
 31
0.0
1001
GRADIENTCOLOR1ACI
1070
     5
1001
GRADIENTCOLOR2ACI
1070
     2
1001
ACAD
1010
0.0
1020
0.0
1030
0.0
  0
LINE
  5
164C
  8
SAPA_GLAS
 10
-83.343749999999986
 20
16.497783946199998
 30
0.0
 11
-82.549999999999983
 21
16.497783946199998
 31
0.0
1001
GRADIENTCOLOR1ACI
1070
     5
1001
GRADIENTCOLOR2ACI
1070
     2
1001
ACAD
1010
0.0
1020
0.0
1030
0.0
  0
LINE
  5
164D
  8
SAPA_GLAS
 10
-85.000000000480611
 20
15.122968617350001
 30
0.0
 11
-84.931249999999991
 21
15.122968617350001
 31
0.0
1001
GRADIENTCOLOR1ACI
1070
     5
1001
GRADIENTCOLOR2ACI
1070
     2
1001
ACAD
1010
0.0
1020
0.0
1030
0.0
  0
LINE
  5
164E
  8
SAPA_GLAS
 10
-83.343749999999986
 20
15.122968617350001
 30
0.0
 11
-82.549999999999983
 21
15.122968617350001
 31
0.0
1001
GRADIENTCOLOR1ACI
1070
     5
1001
GRADIENTCOLOR2ACI
1070
     2
1001
ACAD
1010
0.0
1020
0.0
1030
0.0
  0
LINE
  5
164F
  8
SAPA_GLAS
 10
-85.000000000480611
 20
13.748153288499999
 30
0.0
 11
-84.931249999999991
 21
13.748153288499999
 31
0.0
1001
GRADIENTCOLOR1ACI
1070
     5
1001
GRADIENTCOLOR2ACI
1070
     2
1001
ACAD
1010
0.0
1020
0.0
1030
0.0
  0
LINE
  5
1650
  8
SAPA_GLAS
 10
-83.343749999999986
 20
13.748153288499999
 30
0.0
 11
-82.549999999999983
 21
13.748153288499999
 31
0.0
1001
GRADIENTCOLOR1ACI
1070
     5
1001
GRADIENTCOLOR2ACI
1070
     2
1001
ACAD
1010
0.0
1020
0.0
1030
0.0
  0
LINE
  5
1651
  8
SAPA_GLAS
 10
-85.000000000480611
 20
12.37333795965
 30
0.0
 11
-84.931249999999991
 21
12.37333795965
 31
0.0
1001
GRADIENTCOLOR1ACI
1070
     5
1001
GRADIENTCOLOR2ACI
1070
     2
1001
ACAD
1010
0.0
1020
0.0
1030
0.0
  0
LINE
  5
1652
  8
SAPA_GLAS
 10
-83.343749999999986
 20
12.37333795965
 30
0.0
 11
-82.549999999999983
 21
12.37333795965
 31
0.0
1001
GRADIENTCOLOR1ACI
1070
     5
1001
GRADIENTCOLOR2ACI
1070
     2
1001
ACAD
1010
0.0
1020
0.0
1030
0.0
  0
LINE
  5
1653
  8
SAPA_GLAS
 10
-84.534375014521487
 20
11.68593028393231
 30
0.0
 11
-84.931250014521467
 21
12.373337948186199
 31
0.0
1001
GRADIENTCOLOR1ACI
1070
     5
1001
GRADIENTCOLOR2ACI
1070
     2
1001
ACAD
1010
0.0
1020
0.0
1030
0.0
  0
LINE
  5
1654
  8
SAPA_GLAS
 10
-83.343750014225137
 20
12.37333794835731
 30
0.0
 11
-83.740625014225117
 21
13.0607456126112
 31
0.0
1001
GRADIENTCOLOR1ACI
1070
     5
1001
GRADIENTCOLOR2ACI
1070
     2
1001
ACAD
1010
0.0
1020
0.0
1030
0.0
  0
LINE
  5
1655
  8
SAPA_GLAS
 10
-84.534375014225105
 20
14.435560941119
 30
0.0
 11
-84.931250014225114
 21
15.1229686053729
 31
0.0
1001
GRADIENTCOLOR1ACI
1070
     5
1001
GRADIENTCOLOR2ACI
1070
     2
1001
ACAD
1010
0.0
1020
0.0
1030
0.0
  0
LINE
  5
1656
  8
SAPA_GLAS
 10
-82.153125013928786
 20
13.0607456127823
 30
0.0
 11
-82.550000013928766
 21
13.7481532770362
 31
0.0
1001
GRADIENTCOLOR1ACI
1070
     5
1001
GRADIENTCOLOR2ACI
1070
     2
1001
ACAD
1010
0.0
1020
0.0
1030
0.0
  0
LINE
  5
1657
  8
SAPA_GLAS
 10
-83.343750013928755
 20
15.122968605543999
 30
0.0
 11
-83.740625013928764
 21
15.810376269797899
 31
0.0
1001
GRADIENTCOLOR1ACI
1070
     5
1001
GRADIENTCOLOR2ACI
1070
     2
1001
ACAD
1010
0.0
1020
0.0
1030
0.0
  0
LINE
  5
1658
  8
SAPA_GLAS
 10
-84.534375013928766
 20
17.185191598305689
 30
0.0
 11
-84.931250013928761
 21
17.872599262559589
 31
0.0
1001
GRADIENTCOLOR1ACI
1070
     5
1001
GRADIENTCOLOR2ACI
1070
     2
1001
ACAD
1010
0.0
1020
0.0
1030
0.0
  0
LINE
  5
1659
  8
SAPA_GLAS
 10
-82.153125013632405
 20
15.810376269968989
 30
0.0
 11
-82.550000013632399
 21
16.497783934222891
 31
0.0
1001
GRADIENTCOLOR1ACI
1070
     5
1001
GRADIENTCOLOR2ACI
1070
     2
1001
ACAD
1010
0.0
1020
0.0
1030
0.0
  0
LINE
  5
165A
  8
SAPA_GLAS
 10
-83.343750013632388
 20
17.872599262730692
 30
0.0
 11
-83.740625013632396
 21
18.560006926984592
 31
0.0
1001
GRADIENTCOLOR1ACI
1070
     5
1001
GRADIENTCOLOR2ACI
1070
     2
1001
ACAD
1010
0.0
1020
0.0
1030
0.0
  0
LINE
  5
165B
  8
SAPA_GLAS
 10
-84.534375013632385
 20
19.934822255492382
 30
0.0
 11
-84.5720058332939
 21
20.000000747076559
 31
0.0
1001
GRADIENTCOLOR1ACI
1070
     5
1001
GRADIENTCOLOR2ACI
1070
     2
1001
ACAD
1010
0.0
1020
0.0
1030
0.0
  0
LINE
  5
165C
  8
SAPA_GLAS
 10
-82.153125013336037
 20
18.56000692715569
 30
0.0
 11
-82.550000013336046
 21
19.247414591409591
 31
0.0
1001
GRADIENTCOLOR1ACI
1070
     5
1001
GRADIENTCOLOR2ACI
1070
     2
1001
ACAD
1010
0.0
1020
0.0
1030
0.0
  0
LINE
  5
165D
  8
SAPA_GLAS
 10
-84.931250018077776
 20
19.247414609546372
 30
0.0
 11
-84.534375018077782
 21
19.934822273800261
 31
0.0
1001
GRADIENTCOLOR1ACI
1070
     5
1001
GRADIENTCOLOR2ACI
1070
     2
1001
ACAD
1010
0.0
1020
0.0
1030
0.0
  0
LINE
  5
165E
  8
SAPA_GLAS
 10
-84.931250017781409
 20
16.497783952359669
 30
0.0
 11
-84.534375017781414
 21
17.185191616613562
 31
0.0
1001
GRADIENTCOLOR1ACI
1070
     5
1001
GRADIENTCOLOR2ACI
1070
     2
1001
ACAD
1010
0.0
1020
0.0
1030
0.0
  0
LINE
  5
165F
  8
SAPA_GLAS
 10
-83.740625017781412
 20
18.560006945121359
 30
0.0
 11
-83.343750017781403
 21
19.247414609375259
 31
0.0
1001
GRADIENTCOLOR1ACI
1070
     5
1001
GRADIENTCOLOR2ACI
1070
     2
1001
ACAD
1010
0.0
1020
0.0
1030
0.0
  0
LINE
  5
1660
  8
SAPA_GLAS
 10
-84.931250017485041
 20
13.74815329517298
 30
0.0
 11
-84.534375017485047
 21
14.435560959426869
 31
0.0
1001
GRADIENTCOLOR1ACI
1070
     5
1001
GRADIENTCOLOR2ACI
1070
     2
1001
ACAD
1010
0.0
1020
0.0
1030
0.0
  0
LINE
  5
1661
  8
SAPA_GLAS
 10
-83.740625017485044
 20
15.81037628793467
 30
0.0
 11
-83.343750017485036
 21
16.49778395218857
 31
0.0
1001
GRADIENTCOLOR1ACI
1070
     5
1001
GRADIENTCOLOR2ACI
1070
     2
1001
ACAD
1010
0.0
1020
0.0
1030
0.0
  0
LINE
  5
1662
  8
SAPA_GLAS
 10
-82.550000017485047
 20
17.87259928069637
 30
0.0
 11
-82.153125017485038
 21
18.56000694495026
 31
0.0
1001
GRADIENTCOLOR1ACI
1070
     5
1001
GRADIENTCOLOR2ACI
1070
     2
1001
ACAD
1010
0.0
1020
0.0
1030
0.0
  0
LINE
  5
1663
  8
SAPA_GLAS
 10
-84.930396630509705
 20
11.000000747072781
 30
0.0
 11
-84.534375017188694
 21
11.68593030224018
 31
0.0
1001
GRADIENTCOLOR1ACI
1070
     5
1001
GRADIENTCOLOR2ACI
1070
     2
1001
ACAD
1010
0.0
1020
0.0
1030
0.0
  0
LINE
  5
1664
  8
SAPA_GLAS
 10
-83.740625017188691
 20
13.060745630747981
 30
0.0
 11
-83.343750017188697
 21
13.748153295001879
 31
0.0
1001
GRADIENTCOLOR1ACI
1070
     5
1001
GRADIENTCOLOR2ACI
1070
     2
1001
ACAD
1010
0.0
1020
0.0
1030
0.0
  0
LINE
  5
1665
  8
SAPA_GLAS
 10
-82.550000017188694
 20
15.122968623509671
 30
0.0
 11
-82.153125017188685
 21
15.810376287763569
 31
0.0
1001
GRADIENTCOLOR1ACI
1070
     5
1001
GRADIENTCOLOR2ACI
1070
     2
1001
ACAD
1010
0.0
1020
0.0
1030
0.0
  0
LINE
  5
1666
  8
SAPA_GLAS
 10
-82.550000016892341
 20
12.373337966322969
 30
0.0
 11
-82.153125016892346
 21
13.06074563057687
 31
0.0
1001
GRADIENTCOLOR1ACI
1070
     5
1001
GRADIENTCOLOR2ACI
1070
     2
1001
ACAD
1010
0.0
1020
0.0
1030
0.0
  0
LINE
  5
1667
  8
SAPA_GLAS
 10
-85.000000000480611
 20
36.233457633952973
 30
0.0
 11
-84.647563746945977
 21
36.585893887487593
 31
0.0
1001
GRADIENTCOLOR1ACI
1070
     5
1001
GRADIENTCOLOR2ACI
1070
     2
1001
ACAD
1010
0.0
1020
0.0
1030
0.0
  0
LINE
  5
1668
  8
SAPA_GLAS
 10
-85.000000000480611
 20
35.11092561881933
 30
0.0
 11
-83.776228361374137
 21
36.334697257925782
 31
0.0
1001
GRADIENTCOLOR1ACI
1070
     5
1001
GRADIENTCOLOR2ACI
1070
     2
1001
ACAD
1010
0.0
1020
0.0
1030
0.0
  0
LINE
  5
1669
  8
SAPA_GLAS
 10
-85.000000000480611
 20
33.98839360368568
 30
0.0
 11
-82.815400762344737
 21
36.172992841821539
 31
0.0
1001
GRADIENTCOLOR1ACI
1070
     5
1001
GRADIENTCOLOR2ACI
1070
     2
1001
ACAD
1010
0.0
1020
0.0
1030
0.0
  0
LINE
  5
166A
  8
SAPA_GLAS
 10
-85.000000000480611
 20
32.865861588552029
 30
0.0
 11
-81.73857640929856
 21
36.127285179734073
 31
0.0
1001
GRADIENTCOLOR1ACI
1070
     5
1001
GRADIENTCOLOR2ACI
1070
     2
1001
ACAD
1010
0.0
1020
0.0
1030
0.0
  0
LINE
  5
166B
  8
SAPA_GLAS
 10
-85.000000000480611
 20
31.743329573418379
 30
0.0
 11
-80.492612168466863
 21
36.250717405432098
 31
0.0
1001
GRADIENTCOLOR1ACI
1070
     5
1001
GRADIENTCOLOR2ACI
1070
     2
1001
ACAD
1010
0.0
1020
0.0
1030
0.0
  0
LINE
  5
166C
  8
SAPA_GLAS
 10
-85.000000000480611
 20
30.620797558284739
 30
0.0
 11
-78.93417236301832
 21
36.686625195747027
 31
0.0
1001
GRADIENTCOLOR1ACI
1070
     5
1001
GRADIENTCOLOR2ACI
1070
     2
1001
ACAD
1010
0.0
1020
0.0
1030
0.0
  0
LINE
  5
166D
  8
SAPA_GLAS
 10
-85.000000000480611
 20
29.498265543151099
 30
0.0
 11
-78.900000001050401
 21
35.598265542581302
 31
0.0
1001
GRADIENTCOLOR1ACI
1070
     5
1001
GRADIENTCOLOR2ACI
1070
     2
1001
ACAD
1010
0.0
1020
0.0
1030
0.0
  0
LINE
  5
166E
  8
SAPA_GLAS
 10
-85.000000000480611
 20
28.375733528017449
 30
0.0
 11
-78.900000001119452
 21
34.475733527378608
 31
0.0
1001
GRADIENTCOLOR1ACI
1070
     5
1001
GRADIENTCOLOR2ACI
1070
     2
1001
ACAD
1010
0.0
1020
0.0
1030
0.0
  0
LINE
  5
166F
  8
SAPA_GLAS
 10
-85.000000000480611
 20
27.253201512883798
 30
0.0
 11
-78.900000001188502
 21
33.353201512175922
 31
0.0
1001
GRADIENTCOLOR1ACI
1070
     5
1001
GRADIENTCOLOR2ACI
1070
     2
1001
ACAD
1010
0.0
1020
0.0
1030
0.0
  0
LINE
  5
1670
  8
SAPA_GLAS
 10
-85.000000000480611
 20
26.130669497750159
 30
0.0
 11
-78.900000001257553
 21
32.230669496973221
 31
0.0
1001
GRADIENTCOLOR1ACI
1070
     5
1001
GRADIENTCOLOR2ACI
1070
     2
1001
ACAD
1010
0.0
1020
0.0
1030
0.0
  0
LINE
  5
1671
  8
SAPA_GLAS
 10
-85.000000000480611
 20
25.008137482616519
 30
0.0
 11
-78.900000001326603
 21
31.10813748177053
 31
0.0
1001
GRADIENTCOLOR1ACI
1070
     5
1001
GRADIENTCOLOR2ACI
1070
     2
1001
ACAD
1010
0.0
1020
0.0
1030
0.0
  0
LINE
  5
1672
  8
SAPA_GLAS
 10
-85.000000000480611
 20
23.885605467482868
 30
0.0
 11
-78.900000001395654
 21
29.985605466567829
 31
0.0
1001
GRADIENTCOLOR1ACI
1070
     5
1001
GRADIENTCOLOR2ACI
1070
     2
1001
ACAD
1010
0.0
1020
0.0
1030
0.0
  0
LINE
  5
1673
  8
SAPA_GLAS
 10
-85.000000000480611
 20
22.763073452349229
 30
0.0
 11
-78.900000001464704
 21
28.863073451365128
 31
0.0
1001
GRADIENTCOLOR1ACI
1070
     5
1001
GRADIENTCOLOR2ACI
1070
     2
1001
ACAD
1010
0.0
1020
0.0
1030
0.0
  0
LINE
  5
1674
  8
SAPA_GLAS
 10
-85.000000000480611
 20
21.640541437215589
 30
0.0
 11
-78.900000001533755
 21
27.740541436162442
 31
0.0
1001
GRADIENTCOLOR1ACI
1070
     5
1001
GRADIENTCOLOR2ACI
1070
     2
1001
ACAD
1010
0.0
1020
0.0
1030
0.0
  0
LINE
  5
1675
  8
SAPA_GLAS
 10
-85.000000000480611
 20
20.518009422081949
 30
0.0
 11
-78.900000001602805
 21
26.618009420959741
 31
0.0
1001
GRADIENTCOLOR1ACI
1070
     5
1001
GRADIENTCOLOR2ACI
1070
     2
1001
ACAD
1010
0.0
1020
0.0
1030
0.0
  0
LINE
  5
1676
  8
SAPA_GLAS
 10
-84.395476660352358
 20
20.000000747076559
 30
0.0
 11
-78.900000001671856
 21
25.49547740575705
 31
0.0
1001
GRADIENTCOLOR1ACI
1070
     5
1001
GRADIENTCOLOR2ACI
1070
     2
1001
ACAD
1010
0.0
1020
0.0
1030
0.0
  0
LINE
  5
1677
  8
SAPA_GLAS
 10
-83.272944645218701
 20
20.000000747076552
 30
0.0
 11
-78.900000001740921
 21
24.372945390554349
 31
0.0
1001
GRADIENTCOLOR1ACI
1070
     5
1001
GRADIENTCOLOR2ACI
1070
     2
1001
ACAD
1010
0.0
1020
0.0
1030
0.0
  0
LINE
  5
1678
  8
SAPA_GLAS
 10
-82.150412630085057
 20
20.000000747076559
 30
0.0
 11
-78.900000001809957
 21
23.250413375351659
 31
0.0
1001
GRADIENTCOLOR1ACI
1070
     5
1001
GRADIENTCOLOR2ACI
1070
     2
1001
ACAD
1010
0.0
1020
0.0
1030
0.0
  0
LINE
  5
1679
  8
SAPA_GLAS
 10
-81.027880614951798
 20
20.000000747076161
 30
0.0
 11
-78.900000001879022
 21
22.127881360148962
 31
0.0
1001
GRADIENTCOLOR1ACI
1070
     5
1001
GRADIENTCOLOR2ACI
1070
     2
1001
ACAD
1010
0.0
1020
0.0
1030
0.0
  0
LINE
  5
167A
  8
SAPA_GLAS
 10
-79.763702618352369
 20
20.141646728541961
 30
0.0
 11
-79.041645983383461
 21
20.863703363510879
 31
0.0
1001
GRADIENTCOLOR1ACI
1070
     5
1001
GRADIENTCOLOR2ACI
1070
     2
1001
ACAD
1010
0.0
1020
0.0
1030
0.0
  0
LINE
  5
167B
  8
SAPA_GLAS
 10
-83.984325609694253
 20
20.000000747076559
 30
0.0
 11
-85.000000000480625
 21
21.015675137862921
 31
0.0
1001
GRADIENTCOLOR1ACI
1070
     5
1001
GRADIENTCOLOR2ACI
1070
     2
1001
ACAD
1010
0.0
1020
0.0
1030
0.0
  0
LINE
  5
167C
  8
SAPA_GLAS
 10
-82.861793594560609
 20
20.000000747076552
 30
0.0
 11
-85.000000000480611
 21
22.138207152996561
 31
0.0
1001
GRADIENTCOLOR1ACI
1070
     5
1001
GRADIENTCOLOR2ACI
1070
     2
1001
ACAD
1010
0.0
1020
0.0
1030
0.0
  0
LINE
  5
167D
  8
SAPA_GLAS
 10
-81.715948873831465
 20
19.97668804148104
 30
0.0
 11
-85.000000000480611
 21
23.2607391681302
 31
0.0
1001
GRADIENTCOLOR1ACI
1070
     5
1001
GRADIENTCOLOR2ACI
1070
     2
1001
ACAD
1010
0.0
1020
0.0
1030
0.0
  0
LINE
  5
167E
  8
SAPA_GLAS
 10
-80.616729564292925
 20
20.000000747076161
 30
0.0
 11
-85.000000000480611
 21
24.38327118326384
 31
0.0
1001
GRADIENTCOLOR1ACI
1070
     5
1001
GRADIENTCOLOR2ACI
1070
     2
1001
ACAD
1010
0.0
1020
0.0
1030
0.0
  0
LINE
  5
167F
  8
SAPA_GLAS
 10
-79.678898245822921
 20
20.184701443739801
 30
0.0
 11
-85.000000000480611
 21
25.505803198397491
 31
0.0
1001
GRADIENTCOLOR1ACI
1070
     5
1001
GRADIENTCOLOR2ACI
1070
     2
1001
ACAD
1010
0.0
1020
0.0
1030
0.0
  0
LINE
  5
1680
  8
SAPA_GLAS
 10
-79.108595856393151
 20
20.73693106944366
 30
0.0
 11
-85.000000000480611
 21
26.628335213531141
 31
0.0
1001
GRADIENTCOLOR1ACI
1070
     5
1001
GRADIENTCOLOR2ACI
1070
     2
1001
ACAD
1010
0.0
1020
0.0
1030
0.0
  0
LINE
  5
1681
  8
SAPA_GLAS
 10
-78.900000001908353
 20
21.650867230092519
 30
0.0
 11
-85.000000000480611
 21
27.750867228664781
 31
0.0
1001
GRADIENTCOLOR1ACI
1070
     5
1001
GRADIENTCOLOR2ACI
1070
     2
1001
ACAD
1010
0.0
1020
0.0
1030
0.0
  0
LINE
  5
1682
  8
SAPA_GLAS
 10
-78.900000001839317
 20
22.773399245157119
 30
0.0
 11
-85.000000000480611
 21
28.873399243798431
 31
0.0
1001
GRADIENTCOLOR1ACI
1070
     5
1001
GRADIENTCOLOR2ACI
1070
     2
1001
ACAD
1010
0.0
1020
0.0
1030
0.0
  0
LINE
  5
1683
  8
SAPA_GLAS
 10
-78.900000001770266
 20
23.895931260221712
 30
0.0
 11
-85.000000000480611
 21
29.99593125893206
 31
0.0
1001
GRADIENTCOLOR1ACI
1070
     5
1001
GRADIENTCOLOR2ACI
1070
     2
1001
ACAD
1010
0.0
1020
0.0
1030
0.0
  0
LINE
  5
1684
  8
SAPA_GLAS
 10
-78.900000001701216
 20
25.018463275286312
 30
0.0
 11
-85.000000000480611
 21
31.118463274065711
 31
0.0
1001
GRADIENTCOLOR1ACI
1070
     5
1001
GRADIENTCOLOR2ACI
1070
     2
1001
ACAD
1010
0.0
1020
0.0
1030
0.0
  0
LINE
  5
1685
  8
SAPA_GLAS
 10
-78.900000001632165
 20
26.140995290350901
 30
0.0
 11
-85.000000000480611
 21
32.240995289199361
 31
0.0
1001
GRADIENTCOLOR1ACI
1070
     5
1001
GRADIENTCOLOR2ACI
1070
     2
1001
ACAD
1010
0.0
1020
0.0
1030
0.0
  0
LINE
  5
1686
  8
SAPA_GLAS
 10
-78.900000001563114
 20
27.26352730541549
 30
0.0
 11
-85.000000000480611
 21
33.36352730433299
 31
0.0
1001
GRADIENTCOLOR1ACI
1070
     5
1001
GRADIENTCOLOR2ACI
1070
     2
1001
ACAD
1010
0.0
1020
0.0
1030
0.0
  0
LINE
  5
1687
  8
SAPA_GLAS
 10
-78.90000000149405
 20
28.386059320480069
 30
0.0
 11
-85.000000000480625
 21
34.486059319466648
 31
0.0
1001
GRADIENTCOLOR1ACI
1070
     5
1001
GRADIENTCOLOR2ACI
1070
     2
1001
ACAD
1010
0.0
1020
0.0
1030
0.0
  0
LINE
  5
1688
  8
SAPA_GLAS
 10
-78.900000001424985
 20
29.508591335544661
 30
0.0
 11
-85.000000000480611
 21
35.608591334600291
 31
0.0
1001
GRADIENTCOLOR1ACI
1070
     5
1001
GRADIENTCOLOR2ACI
1070
     2
1001
ACAD
1010
0.0
1020
0.0
1030
0.0
  0
LINE
  5
1689
  8
SAPA_GLAS
 10
-78.900000001355949
 20
30.631123350609261
 30
0.0
 11
-84.978000524301393
 21
36.709123873554702
 31
0.0
1001
GRADIENTCOLOR1ACI
1070
     5
1001
GRADIENTCOLOR2ACI
1070
     2
1001
ACAD
1010
0.0
1020
0.0
1030
0.0
  0
LINE
  5
168A
  8
SAPA_GLAS
 10
-78.900000001286898
 20
31.753655365673861
 30
0.0
 11
-83.404638672388998
 21
36.258294036775958
 31
0.0
1001
GRADIENTCOLOR1ACI
1070
     5
1001
GRADIENTCOLOR2ACI
1070
     2
1001
ACAD
1010
0.0
1020
0.0
1030
0.0
  0
LINE
  5
168B
  8
SAPA_GLAS
 10
-78.900000001217833
 20
32.876187380738443
 30
0.0
 11
-82.151989562931973
 21
36.128176942452583
 31
0.0
1001
GRADIENTCOLOR1ACI
1070
     5
1001
GRADIENTCOLOR2ACI
1070
     2
1001
ACAD
1010
0.0
1020
0.0
1030
0.0
  0
LINE
  5
168C
  8
SAPA_GLAS
 10
-78.900000001148797
 20
33.998719395803043
 30
0.0
 11
-81.070939332733914
 21
36.169658727388168
 31
0.0
1001
GRADIENTCOLOR1ACI
1070
     5
1001
GRADIENTCOLOR2ACI
1070
     2
1001
ACAD
1010
0.0
1020
0.0
1030
0.0
  0
LINE
  5
168D
  8
SAPA_GLAS
 10
-78.900000001079746
 20
35.121251410867643
 30
0.0
 11
-80.107002006827713
 21
36.328253416615603
 31
0.0
1001
GRADIENTCOLOR1ACI
1070
     5
1001
GRADIENTCOLOR2ACI
1070
     2
1001
ACAD
1010
0.0
1020
0.0
1030
0.0
  0
LINE
  5
168E
  8
SAPA_GLAS
 10
-78.900000001010696
 20
36.243783425932229
 30
0.0
 11
-79.23316508769355
 21
36.57694851261509
 31
0.0
1001
GRADIENTCOLOR1ACI
1070
     5
1001
GRADIENTCOLOR2ACI
1070
     2
1001
ACAD
1010
0.0
1020
0.0
1030
0.0
  0
LINE
  5
168F
  8
SAPA_GLAS
 10
-50.910857607580233
 20
54.271211129458941
 30
0.0
 11
-50.910857607580233
 21
13.000000747072789
 31
0.0
  0
LINE
  5
1690
  8
SAPA_GLAS
 10
-50.910857607580233
 20
13.000000747072789
 30
0.0
 11
-42.910857607580219
 21
13.000000747072789
 31
0.0
  0
LINE
  5
1691
  8
SAPA_GLAS
 10
-42.910857607580219
 20
13.000000747072789
 30
0.0
 11
-42.910857607580219
 21
54.271211129458941
 31
0.0
  0
LINE
  5
16B2
  8
SAPA_GLAS
 10
-91.000000000480597
 20
52.271211129458933
 30
0.0
 11
-91.000000000480597
 21
11.000000747072789
 31
0.0
  0
LINE
  5
16B3
  8
SAPA_GLAS
 10
-91.000000000480597
 20
11.000000747072789
 30
0.0
 11
-85.000000000480611
 21
11.000000747072789
 31
0.0
  0
LINE
  5
16B4
  8
SAPA_GLAS
 10
-85.000000000480611
 20
11.000000747072789
 30
0.0
 11
-85.000000000480611
 21
52.271211129458933
 31
0.0
  0
LINE
  5
16F7
  8
SAPA_GLAS
 10
-90.779798038324287
 20
10.248083323703691
 30
0.0
 11
-90.027880614951499
 21
11.000000747076481
 31
0.0
1001
GRADIENTCOLOR1ACI
1070
     5
1001
GRADIENTCOLOR2ACI
1070
     2
1001
ACAD
1010
0.0
1020
0.0
1030
0.0
  0
LINE
  5
16F8
  8
SAPA_GLAS
 10
-90.636644646618151
 20
9.2687047002761673
 30
0.0
 11
-88.905348599817813
 21
11.00000074707652
 31
0.0
1001
GRADIENTCOLOR1ACI
1070
     5
1001
GRADIENTCOLOR2ACI
1070
     2
1001
ACAD
1010
0.0
1020
0.0
1030
0.0
  0
LINE
  5
16F9
  8
SAPA_GLAS
 10
-90.506920139181915
 20
8.2758971925787819
 30
0.0
 11
-87.782816584684156
 21
11.000000747076539
 31
0.0
1001
GRADIENTCOLOR1ACI
1070
     5
1001
GRADIENTCOLOR2ACI
1070
     2
1001
ACAD
1010
0.0
1020
0.0
1030
0.0
  0
LINE
  5
16FA
  8
SAPA_GLAS
 10
-90.391107114333323
 20
7.269178202293709
 30
0.0
 11
-86.660284569550498
 21
11.00000074707655
 31
0.0
1001
GRADIENTCOLOR1ACI
1070
     5
1001
GRADIENTCOLOR2ACI
1070
     2
1001
ACAD
1010
0.0
1020
0.0
1030
0.0
  0
LINE
  5
16FB
  8
SAPA_GLAS
 10
-90.289728303035488
 20
6.2480249984578862
 30
0.0
 11
-85.537752554416812
 21
11.000000747076569
 31
0.0
1001
GRADIENTCOLOR1ACI
1070
     5
1001
GRADIENTCOLOR2ACI
1070
     2
1001
ACAD
1010
0.0
1020
0.0
1030
0.0
  0
LINE
  5
16FC
  8
SAPA_GLAS
 10
-90.203351230600916
 20
5.211870055758836
 30
0.0
 11
-84.415220539283155
 21
11.000000747076591
 31
0.0
1001
GRADIENTCOLOR1ACI
1070
     5
1001
GRADIENTCOLOR2ACI
1070
     2
1001
ACAD
1010
0.0
1020
0.0
1030
0.0
  0
LINE
  5
16FD
  8
SAPA_GLAS
 10
-90.132593611564616
 20
4.1600956596614793
 30
0.0
 11
-83.292688524149511
 21
11.0000007470766
 31
0.0
1001
GRADIENTCOLOR1ACI
1070
     5
1001
GRADIENTCOLOR2ACI
1070
     2
1001
ACAD
1010
0.0
1020
0.0
1030
0.0
  0
LINE
  5
16FE
  8
SAPA_GLAS
 10
-83.000000002011348
 20
11.29268926921476
 30
0.0
 11
-82.999913000954194
 21
11.292776270271901
 31
0.0
1001
GRADIENTCOLOR1ACI
1070
     5
1001
GRADIENTCOLOR2ACI
1070
     2
1001
ACAD
1010
0.0
1020
0.0
1030
0.0
  0
LINE
  5
16FF
  8
SAPA_GLAS
 10
-90.078129623919637
 20
3.0920276321728148
 30
0.0
 11
-82.851468356366524
 21
10.31868889972595
 31
0.0
1001
GRADIENTCOLOR1ACI
1070
     5
1001
GRADIENTCOLOR2ACI
1070
     2
1001
ACAD
1010
0.0
1020
0.0
1030
0.0
  0
LINE
  5
1700
  8
SAPA_GLAS
 10
-90.040697244743896
 20
2.00692799621494
 30
0.0
 11
-83.172370810187175
 21
8.8752544307716406
 31
0.0
1001
GRADIENTCOLOR1ACI
1070
     5
1001
GRADIENTCOLOR2ACI
1070
     2
1001
ACAD
1010
0.0
1020
0.0
1030
0.0
  0
LINE
  5
1701
  8
SAPA_GLAS
 10
-90.021106875631759
 20
0.9039863501934206
 30
0.0
 11
-83.432361537597316
 21
7.4927316882278561
 31
0.0
1001
GRADIENTCOLOR1ACI
1070
     5
1001
GRADIENTCOLOR2ACI
1070
     2
1001
ACAD
1010
0.0
1020
0.0
1030
0.0
  0
LINE
  5
1702
  8
SAPA_GLAS
 10
-90.020251546939235
 20
-0.217690336247685
 30
0.0
 11
-83.60254783070944
 21
6.2000133799820949
 31
0.0
1001
GRADIENTCOLOR1ACI
1070
     5
1001
GRADIENTCOLOR2ACI
1070
     2
1001
ACAD
1010
0.0
1020
0.0
1030
0.0
  0
LINE
  5
1703
  8
SAPA_GLAS
 10
-90.039119069808578
 20
-1.3590898742506989
 30
0.0
 11
-83.73680401777932
 21
4.9432251777785723
 31
0.0
1001
GRADIENTCOLOR1ACI
1070
     5
1001
GRADIENTCOLOR2ACI
1070
     2
1001
ACAD
1010
0.0
1020
0.0
1030
0.0
  0
LINE
  5
1704
  8
SAPA_GLAS
 10
-90.078806611592086
 20
-2.521309431167829
 30
0.0
 11
-83.838215131819368
 21
3.7192820486048879
 31
0.0
1001
GRADIENTCOLOR1ACI
1070
     5
1001
GRADIENTCOLOR2ACI
1070
     2
1001
ACAD
1010
0.0
1020
0.0
1030
0.0
  0
LINE
  5
1705
  8
SAPA_GLAS
 10
-90.140538314220237
 20
-3.7055731489296369
 30
0.0
 11
-83.909399961176817
 21
2.5255652041137888
 31
0.0
1001
GRADIENTCOLOR1ACI
1070
     5
1001
GRADIENTCOLOR2ACI
1070
     2
1001
ACAD
1010
0.0
1020
0.0
1030
0.0
  0
LINE
  5
1706
  8
SAPA_GLAS
 10
-90.225686771766931
 20
-4.91325362160996
 30
0.0
 11
-83.952604112374388
 21
1.359829037782581
 31
0.0
1001
GRADIENTCOLOR1ACI
1070
     5
1001
GRADIENTCOLOR2ACI
1070
     2
1001
ACAD
1010
0.0
1020
0.0
1030
0.0
  0
LINE
  5
1707
  8
SAPA_GLAS
 10
-90.335799456030514
 20
-6.1458983210071869
 30
0.0
 11
-83.969770376089684
 21
0.2201307589336352
 31
0.0
1001
GRADIENTCOLOR1ACI
1070
     5
1001
GRADIENTCOLOR2ACI
1070
     2
1001
ACAD
1010
0.0
1020
0.0
1030
0.0
  0
LINE
  5
1708
  8
SAPA_GLAS
 10
-90.472631562376037
 20
-7.4052624424863529
 30
0.0
 11
-83.962592824067855
 21
-0.8952237041781856
 31
0.0
1001
GRADIENTCOLOR1ACI
1070
     5
1001
GRADIENTCOLOR2ACI
1070
     2
1001
ACAD
1010
0.0
1020
0.0
1030
0.0
  0
LINE
  5
1709
  8
SAPA_GLAS
 10
-90.638187296450056
 20
-8.693350191694023
 30
0.0
 11
-83.932559016556496
 21
-1.9877219118004701
 31
0.0
1001
GRADIENTCOLOR1ACI
1070
     5
1001
GRADIENTCOLOR2ACI
1070
     2
1001
ACAD
1010
0.0
1020
0.0
1030
0.0
  0
LINE
  5
170A
  8
SAPA_GLAS
 10
-90.834772421094385
 20
-10.01246733147201
 30
0.0
 11
-83.880983370036304
 21
-3.0586782804139281
 31
0.0
1001
GRADIENTCOLOR1ACI
1070
     5
1001
GRADIENTCOLOR2ACI
1070
     2
1001
ACAD
1010
0.0
1020
0.0
1030
0.0
  0
LINE
  5
170B
  8
SAPA_GLAS
 10
-90.699772327412134
 20
-10.999999252923409
 30
0.0
 11
-83.809033850641157
 21
-4.109260776152424
 31
0.0
1001
GRADIENTCOLOR1ACI
1070
     5
1001
GRADIENTCOLOR2ACI
1070
     2
1001
ACAD
1010
0.0
1020
0.0
1030
0.0
  0
LINE
  5
170C
  8
SAPA_GLAS
 10
-89.577240312278491
 20
-10.999999252923409
 30
0.0
 11
-83.717753557761682
 21
-5.1405124984065997
 31
0.0
1001
GRADIENTCOLOR1ACI
1070
     5
1001
GRADIENTCOLOR2ACI
1070
     2
1001
ACAD
1010
0.0
1020
0.0
1030
0.0
  0
LINE
  5
170D
  8
SAPA_GLAS
 10
-88.454708297144833
 20
-10.9999992529234
 30
0.0
 11
-83.608078346091645
 21
-6.1533693018701987
 31
0.0
1001
GRADIENTCOLOR1ACI
1070
     5
1001
GRADIENTCOLOR2ACI
1070
     2
1001
ACAD
1010
0.0
1020
0.0
1030
0.0
  0
LINE
  5
170E
  8
SAPA_GLAS
 10
-87.332176282011204
 20
-10.999999252923409
 30
0.0
 11
-83.480851340986476
 21
-7.14867431189868
 31
0.0
1001
GRADIENTCOLOR1ACI
1070
     5
1001
GRADIENTCOLOR2ACI
1070
     2
1001
ACAD
1010
0.0
1020
0.0
1030
0.0
  0
LINE
  5
170F
  8
SAPA_GLAS
 10
-86.209644266877575
 20
-10.999999252923409
 30
0.0
 11
-83.336834991902677
 21
-8.1271899779485182
 31
0.0
1001
GRADIENTCOLOR1ACI
1070
     5
1001
GRADIENTCOLOR2ACI
1070
     2
1001
ACAD
1010
0.0
1020
0.0
1030
0.0
  0
LINE
  5
1710
  8
SAPA_GLAS
 10
-85.087112251743918
 20
-10.999999252923409
 30
0.0
 11
-82.984754708843781
 21
-8.8976417100232581
 31
0.0
1001
GRADIENTCOLOR1ACI
1070
     5
1001
GRADIENTCOLOR2ACI
1070
     2
1001
ACAD
1010
0.0
1020
0.0
1030
0.0
  0
LINE
  5
1711
  8
SAPA_GLAS
 10
-83.964580236610274
 20
-10.9999992529234
 30
0.0
 11
-82.626679395221245
 21
-9.6620984115343731
 31
0.0
1001
GRADIENTCOLOR1ACI
1070
     5
1001
GRADIENTCOLOR2ACI
1070
     2
1001
ACAD
1010
0.0
1020
0.0
1030
0.0
  0
LINE
  5
1712
  8
SAPA_GLAS
 10
-82.842048221476617
 20
-10.999999252923409
 30
0.0
 11
-82.268604081598738
 21
-10.426555113045501
 31
0.0
1001
GRADIENTCOLOR1ACI
1070
     5
1001
GRADIENTCOLOR2ACI
1070
     2
1001
ACAD
1010
0.0
1020
0.0
1030
0.0
  0
LINE
  5
1713
  8
SAPA_GLAS
 10
-90.027882109104553
 20
-10.9999992529234
 30
0.0
 11
-90.859781737806202
 21
-10.16809962422176
 31
0.0
1001
GRADIENTCOLOR1ACI
1070
     5
1001
GRADIENTCOLOR2ACI
1070
     2
1001
ACAD
1010
0.0
1020
0.0
1030
0.0
  0
LINE
  5
1714
  8
SAPA_GLAS
 10
-88.905350093970924
 20
-10.999999252923409
 30
0.0
 11
-90.709791880076565
 21
-9.1955574668177533
 31
0.0
1001
GRADIENTCOLOR1ACI
1070
     5
1001
GRADIENTCOLOR2ACI
1070
     2
1001
ACAD
1010
0.0
1020
0.0
1030
0.0
  0
LINE
  5
1715
  8
SAPA_GLAS
 10
-87.782818078837266
 20
-10.9999992529234
 30
0.0
 11
-90.572993350006215
 21
-8.2098239817544592
 31
0.0
1001
GRADIENTCOLOR1ACI
1070
     5
1001
GRADIENTCOLOR2ACI
1070
     2
1001
ACAD
1010
0.0
1020
0.0
1030
0.0
  0
LINE
  5
1716
  8
SAPA_GLAS
 10
-86.660286063703623
 20
-10.999999252923409
 30
0.0
 11
-90.449849422162856
 21
-7.2104358944641751
 31
0.0
1001
GRADIENTCOLOR1ACI
1070
     5
1001
GRADIENTCOLOR2ACI
1070
     2
1001
ACAD
1010
0.0
1020
0.0
1030
0.0
  0
LINE
  5
1717
  8
SAPA_GLAS
 10
-85.537754048569965
 20
-10.9999992529234
 30
0.0
 11
-90.340861319270857
 21
-6.1968919822225237
 31
0.0
1001
GRADIENTCOLOR1ACI
1070
     5
1001
GRADIENTCOLOR2ACI
1070
     2
1001
ACAD
1010
0.0
1020
0.0
1030
0.0
  0
LINE
  5
1718
  8
SAPA_GLAS
 10
-84.415222033436336
 20
-10.999999252923409
 30
0.0
 11
-90.246572539402933
 21
-5.168648746956797
 31
0.0
1001
GRADIENTCOLOR1ACI
1070
     5
1001
GRADIENTCOLOR2ACI
1070
     2
1001
ACAD
1010
0.0
1020
0.0
1030
0.0
  0
LINE
  5
1719
  8
SAPA_GLAS
 10
-83.292690018302693
 20
-10.9999992529234
 30
0.0
 11
-90.167573851484605
 21
-4.1251154197414968
 31
0.0
1001
GRADIENTCOLOR1ACI
1070
     5
1001
GRADIENTCOLOR2ACI
1070
     2
1001
ACAD
1010
0.0
1020
0.0
1030
0.0
  0
LINE
  5
171A
  8
SAPA_GLAS
 10
-82.170158003169064
 20
-10.999999252923409
 30
0.0
 11
-90.104509089861338
 21
-3.0656481662311128
 31
0.0
1001
GRADIENTCOLOR1ACI
1070
     5
1001
GRADIENTCOLOR2ACI
1070
     2
1001
ACAD
1010
0.0
1020
0.0
1030
0.0
  0
LINE
  5
171B
  8
SAPA_GLAS
 10
-82.839166441139426
 20
-9.2084587998193967
 30
0.0
 11
-90.058081910105713
 21
-1.989543330853081
 31
0.0
1001
GRADIENTCOLOR1ACI
1070
     5
1001
GRADIENTCOLOR2ACI
1070
     2
1001
ACAD
1010
0.0
1020
0.0
1030
0.0
  0
LINE
  5
171C
  8
SAPA_GLAS
 10
-83.432361285601019
 20
-7.4927319402241386
 30
0.0
 11
-90.029063708731016
 21
-0.8960295170941492
 31
0.0
1001
GRADIENTCOLOR1ACI
1070
     5
1001
GRADIENTCOLOR2ACI
1070
     2
1001
ACAD
1010
0.0
1020
0.0
1030
0.0
  0
LINE
  5
171D
  8
SAPA_GLAS
 10
-83.602547628837357
 20
-6.2000135818541651
 30
0.0
 11
-90.018302962112514
 21
0.2157417514209854
 31
0.0
1001
GRADIENTCOLOR1ACI
1070
     5
1001
GRADIENTCOLOR2ACI
1070
     2
1001
ACAD
1010
0.0
1020
0.0
1030
0.0
  0
LINE
  5
171E
  8
SAPA_GLAS
 10
-83.736803861563558
 20
-4.9432253339943202
 30
0.0
 11
-90.026736309002786
 21
1.346707113444914
 31
0.0
1001
GRADIENTCOLOR1ACI
1070
     5
1001
GRADIENTCOLOR2ACI
1070
     2
1001
ACAD
1010
0.0
1020
0.0
1030
0.0
  0
LINE
  5
171F
  8
SAPA_GLAS
 10
-83.838215017487556
 20
-3.719282162936679
 30
0.0
 11
-90.05540179264878
 21
2.497904612224537
 31
0.0
1001
GRADIENTCOLOR1ACI
1070
     5
1001
GRADIENTCOLOR2ACI
1070
     2
1001
ACAD
1010
0.0
1020
0.0
1030
0.0
  0
LINE
  5
1720
  8
SAPA_GLAS
 10
-83.909399885509373
 20
-2.5255652797812331
 30
0.0
 11
-90.105454801396164
 21
3.6704896361055712
 31
0.0
1001
GRADIENTCOLOR1ACI
1070
     5
1001
GRADIENTCOLOR2ACI
1070
     2
1001
ACAD
1010
0.0
1020
0.0
1030
0.0
  0
LINE
  5
1721
  8
SAPA_GLAS
 10
-83.952604072597325
 20
-1.3598290775596089
 30
0.0
 11
-90.178187413475385
 21
4.8657542633184363
 31
0.0
1001
GRADIENTCOLOR1ACI
1070
     5
1001
GRADIENTCOLOR2ACI
1070
     2
1001
ACAD
1010
0.0
1020
0.0
1030
0.0
  0
LINE
  5
1722
  8
SAPA_GLAS
 10
-83.969770369793125
 20
-0.2201307652301665
 30
0.0
 11
-90.275052081109962
 21
6.0851509460866557
 31
0.0
1001
GRADIENTCOLOR1ACI
1070
     5
1001
GRADIENTCOLOR2ACI
1070
     2
1001
ACAD
1010
0.0
1020
0.0
1030
0.0
  0
LINE
  5
1723
  8
SAPA_GLAS
 10
-83.962592849142624
 20
0.8952237292529616
 30
0.0
 11
-90.397690909268434
 21
7.330321789378778
 31
0.0
1001
GRADIENTCOLOR1ACI
1070
     5
1001
GRADIENTCOLOR2ACI
1070
     2
1001
ACAD
1010
0.0
1020
0.0
1030
0.0
  0
LINE
  5
1724
  8
SAPA_GLAS
 10
-83.932559071144354
 20
1.9877219663883201
 30
0.0
 11
-90.547972238264293
 21
8.6031351335082888
 31
0.0
1001
GRADIENTCOLOR1ACI
1070
     5
1001
GRADIENTCOLOR2ACI
1070
     2
1001
ACAD
1010
0.0
1020
0.0
1030
0.0
  0
LINE
  5
1725
  8
SAPA_GLAS
 10
-83.880983452490412
 20
3.0586783628680498
 30
0.0
 11
-90.728036894079082
 21
9.9057318044567211
 31
0.0
1001
GRADIENTCOLOR1ACI
1070
     5
1001
GRADIENTCOLOR2ACI
1070
     2
1001
ACAD
1010
0.0
1020
0.0
1030
0.0
  0
LINE
  5
1726
  8
SAPA_GLAS
 10
-83.809033959494315
 20
4.1092608850055958
 30
0.0
 11
-90.699773821565188
 21
11.00000074707647
 31
0.0
1001
GRADIENTCOLOR1ACI
1070
     5
1001
GRADIENTCOLOR2ACI
1070
     2
1001
ACAD
1010
0.0
1020
0.0
1030
0.0
  0
LINE
  5
1727
  8
SAPA_GLAS
 10
-83.717753691700381
 20
5.1405126323452981
 30
0.0
 11
-89.577241806431573
 21
11.0000007470765
 31
0.0
1001
GRADIENTCOLOR1ACI
1070
     5
1001
GRADIENTCOLOR2ACI
1070
     2
1001
ACAD
1010
0.0
1020
0.0
1030
0.0
  0
LINE
  5
1728
  8
SAPA_GLAS
 10
-83.608078503934834
 20
6.1533694597133808
 30
0.0
 11
-88.454709791297958
 21
11.00000074707653
 31
0.0
1001
GRADIENTCOLOR1ACI
1070
     5
1001
GRADIENTCOLOR2ACI
1070
     2
1001
ACAD
1010
0.0
1020
0.0
1030
0.0
  0
LINE
  5
1729
  8
SAPA_GLAS
 10
-83.480851521668015
 20
7.148674492580219
 30
0.0
 11
-87.332177776164343
 21
11.00000074707655
 31
0.0
1001
GRADIENTCOLOR1ACI
1070
     5
1001
GRADIENTCOLOR2ACI
1070
     2
1001
ACAD
1010
0.0
1020
0.0
1030
0.0
  0
LINE
  5
172A
  8
SAPA_GLAS
 10
-83.336835194456725
 20
8.1271901805025806
 30
0.0
 11
-86.209645761030714
 21
11.000000747076569
 31
0.0
1001
GRADIENTCOLOR1ACI
1070
     5
1001
GRADIENTCOLOR2ACI
1070
     2
1001
ACAD
1010
0.0
1020
0.0
1030
0.0
  0
LINE
  5
172B
  8
SAPA_GLAS
 10
-83.134174817531999
 20
9.0470618187115051
 30
0.0
 11
-85.087113745897085
 21
11.000000747076591
 31
0.0
1001
GRADIENTCOLOR1ACI
1070
     5
1001
GRADIENTCOLOR2ACI
1070
     2
1001
ACAD
1010
0.0
1020
0.0
1030
0.0
  0
LINE
  5
172C
  8
SAPA_GLAS
 10
-82.930005606142331
 20
9.9654246224554726
 30
0.0
 11
-83.964581730763456
 21
11.0000007470766
 31
0.0
1001
GRADIENTCOLOR1ACI
1070
     5
1001
GRADIENTCOLOR2ACI
1070
     2
1001
ACAD
1010
0.0
1020
0.0
1030
0.0
  0
LINE
  5
172D
  8
SAPA_GLAS
 10
-82.725836394752662
 20
10.88378742619944
 30
0.0
 11
-83.000000002011475
 21
11.157951033458261
 31
0.0
1001
GRADIENTCOLOR1ACI
1070
     5
1001
GRADIENTCOLOR2ACI
1070
     2
1001
ACAD
1010
0.0
1020
0.0
1030
0.0
  0
POLYLINE
  5
19BB
  8
SAPA_PROFIL
  6
CONTINUOUS
 62
     7
 66
     1
 10
0.0
 20
0.0
 30
0.0
 70
     1
  0
VERTEX
  5
1D26
  8
SAPA_PROFIL
  6
CONTINUOUS
 62
     7
 10
-74.000000000956746
 20
-16.49999925292078
 30
0.0
  0
VERTEX
  5
1D27
  8
SAPA_PROFIL
  6
CONTINUOUS
 62
     7
 10
-77.00000000000297
 20
-16.49999925292078
 30
0.0
 42
-0.4142135623732074
  0
VERTEX
  5
1D28
  8
SAPA_PROFIL
  6
CONTINUOUS
 62
     7
 10
-77.50000000000297
 20
-15.999999252920579
 30
0.0
  0
VERTEX
  5
1D29
  8
SAPA_PROFIL
  6
CONTINUOUS
 62
     7
 10
-77.499999999999133
 20
-7.3999992529204874
 30
0.0
 42
0.4142135623730951
  0
VERTEX
  5
1D2A
  8
SAPA_PROFIL
  6
CONTINUOUS
 62
     7
 10
-77.999999999999147
 20
-6.8999992529204874
 30
0.0
  0
VERTEX
  5
1D2B
  8
SAPA_PROFIL
  6
CONTINUOUS
 62
     7
 10
-80.299999999999812
 20
-6.8999992529204874
 30
0.0
 42
-0.4142135623730951
  0
VERTEX
  5
1D2C
  8
SAPA_PROFIL
  6
CONTINUOUS
 62
     7
 10
-81.299999999999812
 20
-5.8999992529204874
 30
0.0
  0
VERTEX
  5
1D2D
  8
SAPA_PROFIL
  6
CONTINUOUS
 62
     7
 10
-81.299999999999812
 20
-5.0873689947450842
 30
0.0
 42
-0.2216946626429368
  0
VERTEX
  5
1D2E
  8
SAPA_PROFIL
  6
CONTINUOUS
 62
     7
 10
-81.192836282905773
 20
-4.8575556618093918
 30
0.0
  0
VERTEX
  5
1D2F
  8
SAPA_PROFIL
  6
CONTINUOUS
 62
     7
 10
-80.492836282905216
 20
-4.2701859199848391
 30
0.0
 42
-0.6370702608061857
  0
VERTEX
  5
1D30
  8
SAPA_PROFIL
  6
CONTINUOUS
 62
     7
 10
-79.999999999999616
 20
-4.4999992529207802
 30
0.0
  0
VERTEX
  5
1D31
  8
SAPA_PROFIL
  6
CONTINUOUS
 62
     7
 10
-79.999999999999616
 20
-5.2999992529209763
 30
0.0
 42
0.4142135623730951
  0
VERTEX
  5
1D32
  8
SAPA_PROFIL
  6
CONTINUOUS
 62
     7
 10
-79.699999999999406
 20
-5.5999992529211724
 30
0.0
  0
VERTEX
  5
1D33
  8
SAPA_PROFIL
  6
CONTINUOUS
 62
     7
 10
-75.299999999998875
 20
-5.5999992529202318
 30
0.0
 42
0.4142135623730504
  0
VERTEX
  5
1D34
  8
SAPA_PROFIL
  6
CONTINUOUS
 62
     7
 10
-74.999999999999133
 20
-5.2999992529200792
 30
0.0
  0
VERTEX
  5
1D35
  8
SAPA_PROFIL
  6
CONTINUOUS
 62
     7
 10
-74.999999999999162
 20
5.3000007470793662
 30
0.0
 42
0.4142135623730878
  0
VERTEX
  5
1D36
  8
SAPA_PROFIL
  6
CONTINUOUS
 62
     7
 10
-75.29999999999886
 20
5.6000007470795401
 30
0.0
  0
VERTEX
  5
1D37
  8
SAPA_PROFIL
  6
CONTINUOUS
 62
     7
 10
-79.69999999999942
 20
5.600000747079469
 30
0.0
 42
0.4142135623735842
  0
VERTEX
  5
1D38
  8
SAPA_PROFIL
  6
CONTINUOUS
 62
     7
 10
-79.999999999999119
 20
5.3000007470802677
 30
0.0
  0
VERTEX
  5
1D39
  8
SAPA_PROFIL
  6
CONTINUOUS
 62
     7
 10
-79.999999999999616
 20
4.500000747078281
 30
0.0
 42
-0.6370702608069853
  0
VERTEX
  5
1D3A
  8
SAPA_PROFIL
  6
CONTINUOUS
 62
     7
 10
-80.492836282905216
 20
4.2701874141431944
 30
0.0
  0
VERTEX
  5
1D3B
  8
SAPA_PROFIL
  6
CONTINUOUS
 62
     7
 10
-81.192836282905773
 20
4.8575571559677542
 30
0.0
 42
-0.2216946626431
  0
VERTEX
  5
1D3C
  8
SAPA_PROFIL
  6
CONTINUOUS
 62
     7
 10
-81.299999999999812
 20
5.0873704889036366
 30
0.0
  0
VERTEX
  5
1D3D
  8
SAPA_PROFIL
  6
CONTINUOUS
 62
     7
 10
-81.299999999999329
 20
5.9000007470806324
 30
0.0
 42
-0.4142135623730951
  0
VERTEX
  5
1D3E
  8
SAPA_PROFIL
  6
CONTINUOUS
 62
     7
 10
-80.299999999999329
 20
6.9000007470806324
 30
0.0
  0
VERTEX
  5
1D3F
  8
SAPA_PROFIL
  6
CONTINUOUS
 62
     7
 10
-72.799999999999571
 20
6.9000007470797398
 30
0.0
 42
-0.3178372451964626
  0
VERTEX
  5
1D40
  8
SAPA_PROFIL
  6
CONTINUOUS
 62
     7
 10
-72.517157287524725
 20
6.7000007470790131
 30
0.0
 42
0.3178372451966722
  0
VERTEX
  5
1D41
  8
SAPA_PROFIL
  6
CONTINUOUS
 62
     7
 10
-72.234314575049652
 20
6.5000007470782846
 30
0.0
  0
VERTEX
  5
1D42
  8
SAPA_PROFIL
  6
CONTINUOUS
 62
     7
 10
-70.799999999999329
 20
6.500000747079187
 30
0.0
 42
-0.4142135623726539
  0
VERTEX
  5
1D43
  8
SAPA_PROFIL
  6
CONTINUOUS
 62
     7
 10
-70.499999999999602
 20
6.2000007470790051
 30
0.0
  0
VERTEX
  5
1D44
  8
SAPA_PROFIL
  6
CONTINUOUS
 62
     7
 10
-70.499999999999616
 20
5.6000007470784574
 30
0.0
 42
-0.4142135623730836
  0
VERTEX
  5
1D45
  8
SAPA_PROFIL
  6
CONTINUOUS
 62
     7
 10
-70.799999999999329
 20
5.3000007470791921
 30
0.0
  0
VERTEX
  5
1D46
  8
SAPA_PROFIL
  6
CONTINUOUS
 62
     7
 10
-72.19999999999942
 20
5.300000747079185
 30
0.0
 42
0.4142135623730951
  0
VERTEX
  5
1D47
  8
SAPA_PROFIL
  6
CONTINUOUS
 62
     7
 10
-72.499999999999588
 20
5.0000007470790102
 30
0.0
  0
VERTEX
  5
1D48
  8
SAPA_PROFIL
  6
CONTINUOUS
 62
     7
 10
-72.499999999999588
 20
-4.9999992529215742
 30
0.0
 42
0.4142135623730743
  0
VERTEX
  5
1D49
  8
SAPA_PROFIL
  6
CONTINUOUS
 62
     7
 10
-72.19999999999942
 20
-5.2999992529207818
 30
0.0
  0
VERTEX
  5
1D4A
  8
SAPA_PROFIL
  6
CONTINUOUS
 62
     7
 10
-70.799999999999329
 20
-5.29999925292167
 30
0.0
 42
-0.4142135623721762
  0
VERTEX
  5
1D4B
  8
SAPA_PROFIL
  6
CONTINUOUS
 62
     7
 10
-70.499999999999559
 20
-5.5999992529209779
 30
0.0
  0
VERTEX
  5
1D4C
  8
SAPA_PROFIL
  6
CONTINUOUS
 62
     7
 10
-70.499999999999147
 20
-6.1999992529215913
 30
0.0
 42
-0.4142135623730534
  0
VERTEX
  5
1D4D
  8
SAPA_PROFIL
  6
CONTINUOUS
 62
     7
 10
-70.799999999999315
 20
-6.4999992529208059
 30
0.0
  0
VERTEX
  5
1D4E
  8
SAPA_PROFIL
  6
CONTINUOUS
 62
     7
 10
-72.234314575050036
 20
-6.499999252921695
 30
0.0
 42
0.3178372451963242
  0
VERTEX
  5
1D4F
  8
SAPA_PROFIL
  6
CONTINUOUS
 62
     7
 10
-72.517157287524725
 20
-6.6999992529206391
 30
0.0
 42
-0.3178372451964607
  0
VERTEX
  5
1D50
  8
SAPA_PROFIL
  6
CONTINUOUS
 62
     7
 10
-72.799999999999557
 20
-6.8999992529213516
 30
0.0
  0
VERTEX
  5
1D51
  8
SAPA_PROFIL
  6
CONTINUOUS
 62
     7
 10
-74.499999999999645
 20
-6.8999992529215719
 30
0.0
 42
0.4142135623730597
  0
VERTEX
  5
1D52
  8
SAPA_PROFIL
  6
CONTINUOUS
 62
     7
 10
-74.999999999999588
 20
-7.3999992529215719
 30
0.0
  0
VERTEX
  5
1D53
  8
SAPA_PROFIL
  6
CONTINUOUS
 62
     7
 10
-74.999999999999588
 20
-12.40192304212878
 30
0.0
 42
0.2679491923306345
  0
VERTEX
  5
1D54
  8
SAPA_PROFIL
  6
CONTINUOUS
 62
     7
 10
-74.750000000156476
 20
-12.834935743918081
 30
0.0
 42
-0.2679491923317589
  0
VERTEX
  5
1D55
  8
SAPA_PROFIL
  6
CONTINUOUS
 62
     7
 10
-73.500000000956732
 20
-14.99999925292077
 30
0.0
  0
VERTEX
  5
1D56
  8
SAPA_PROFIL
  6
CONTINUOUS
 62
     7
 10
-73.500000000957527
 20
-15.99999925292078
 30
0.0
 42
-0.4142135623730951
  0
SEQEND
  5
1D57
  8
SAPA_PROFIL
  6
CONTINUOUS
 62
     7
  0
POLYLINE
  5
19BC
  8
SAPA_PROFIL
  6
CONTINUOUS
 62
     7
 66
     1
 10
0.0
 20
0.0
 30
0.0
 70
     1
  0
VERTEX
  5
1D58
  8
SAPA_PROFIL
  6
CONTINUOUS
 62
     7
 10
-43.000000000000448
 20
-23.199999252925512
 30
0.0
  0
VERTEX
  5
1D59
  8
SAPA_PROFIL
  6
CONTINUOUS
 62
     7
 10
-43.000000000000448
 20
-20.499999252915099
 30
0.0
 42
0.4142135623730951
  0
VERTEX
  5
1D5A
  8
SAPA_PROFIL
  6
CONTINUOUS
 62
     7
 10
-43.300000000000452
 20
-20.199999252915109
 30
0.0
  0
VERTEX
  5
1D5B
  8
SAPA_PROFIL
  6
CONTINUOUS
 62
     7
 10
-44.500000000000853
 20
-20.199999252915109
 30
0.0
 42
-0.4142135623730931
  0
VERTEX
  5
1D5C
  8
SAPA_PROFIL
  6
CONTINUOUS
 62
     7
 10
-45.500000000000853
 20
-19.199999252915131
 30
0.0
  0
VERTEX
  5
1D5D
  8
SAPA_PROFIL
  6
CONTINUOUS
 62
     7
 10
-45.500000000000888
 20
-16.699999252925359
 30
0.0
 42
0.4142135623739343
  0
VERTEX
  5
1D5E
  8
SAPA_PROFIL
  6
CONTINUOUS
 62
     7
 10
-45.80000000000085
 20
-16.399999252924491
 30
0.0
  0
VERTEX
  5
1D5F
  8
SAPA_PROFIL
  6
CONTINUOUS
 62
     7
 10
-50.200000000000877
 20
-16.399999252924491
 30
0.0
 42
0.4142135623730951
  0
VERTEX
  5
1D60
  8
SAPA_PROFIL
  6
CONTINUOUS
 62
     7
 10
-50.500000000000888
 20
-16.699999252925501
 30
0.0
  0
VERTEX
  5
1D61
  8
SAPA_PROFIL
  6
CONTINUOUS
 62
     7
 10
-50.500000000000483
 20
-18.399999252924491
 30
0.0
 42
-0.7105995015650853
  0
VERTEX
  5
1D62
  8
SAPA_PROFIL
  6
CONTINUOUS
 62
     7
 10
-51.035076580435863
 20
-18.58638326868547
 30
0.0
  0
VERTEX
  5
1D63
  8
SAPA_PROFIL
  6
CONTINUOUS
 62
     7
 10
-51.445897150363187
 20
-18.068236396719751
 30
0.0
 42
-0.1691807452123823
  0
VERTEX
  5
1D64
  8
SAPA_PROFIL
  6
CONTINUOUS
 62
     7
 10
-51.500000000000831
 20
-17.91291638358587
 30
0.0
  0
VERTEX
  5
1D65
  8
SAPA_PROFIL
  6
CONTINUOUS
 62
     7
 10
-51.500000000000888
 20
-10.09999925291649
 30
0.0
 42
-0.4142135623760433
  0
VERTEX
  5
1D66
  8
SAPA_PROFIL
  6
CONTINUOUS
 62
     7
 10
-51.199999999997857
 20
-9.7999992529164839
 30
0.0
  0
VERTEX
  5
1D67
  8
SAPA_PROFIL
  6
CONTINUOUS
 62
     7
 10
-33.000000000004249
 20
-9.7999992529149011
 30
0.0
 42
-0.5773502691893336
  0
VERTEX
  5
1D68
  8
SAPA_PROFIL
  6
CONTINUOUS
 62
     7
 10
-32.740192378868279
 20
-10.24999925291552
 30
0.0
  0
VERTEX
  5
1D69
  8
SAPA_PROFIL
  6
CONTINUOUS
 62
     7
 10
-33.317542648061419
 20
-11.24999925291843
 30
0.0
 42
-0.6629740412223103
  0
VERTEX
  5
1D6A
  8
SAPA_PROFIL
  6
CONTINUOUS
 62
     7
 10
-33.865977684948881
 20
-11.181817434735949
 30
0.0
 42
0.3354367396460152
  0
VERTEX
  5
1D6B
  8
SAPA_PROFIL
  6
CONTINUOUS
 62
     7
 10
-34.106500531409431
 20
-10.999999252915559
 30
0.0
  0
VERTEX
  5
1D6C
  8
SAPA_PROFIL
  6
CONTINUOUS
 62
     7
 10
-35.199999999994958
 20
-10.999999252915449
 30
0.0
 42
0.4142135623741014
  0
VERTEX
  5
1D6D
  8
SAPA_PROFIL
  6
CONTINUOUS
 62
     7
 10
-35.499999999995993
 20
-11.29999925291548
 30
0.0
  0
VERTEX
  5
1D6E
  8
SAPA_PROFIL
  6
CONTINUOUS
 62
     7
 10
-35.499999999996007
 20
-11.79999925291648
 30
0.0
 42
-0.4142135623730466
  0
VERTEX
  5
1D6F
  8
SAPA_PROFIL
  6
CONTINUOUS
 62
     7
 10
-35.799999999995968
 20
-12.099999252916501
 30
0.0
  0
VERTEX
  5
1D70
  8
SAPA_PROFIL
  6
CONTINUOUS
 62
     7
 10
-36.399999999997021
 20
-12.099999252915451
 30
0.0
 42
-0.4142135623730951
  0
VERTEX
  5
1D71
  8
SAPA_PROFIL
  6
CONTINUOUS
 62
     7
 10
-36.699999999995981
 20
-11.799999252916489
 30
0.0
  0
VERTEX
  5
1D72
  8
SAPA_PROFIL
  6
CONTINUOUS
 62
     7
 10
-36.699999999994972
 20
-11.39999925291526
 30
0.0
 42
0.4142135623731088
  0
VERTEX
  5
1D73
  8
SAPA_PROFIL
  6
CONTINUOUS
 62
     7
 10
-36.999999999994976
 20
-11.09999925291527
 30
0.0
  0
VERTEX
  5
1D74
  8
SAPA_PROFIL
  6
CONTINUOUS
 62
     7
 10
-49.699999999995349
 20
-11.09999925291527
 30
0.0
 42
0.4142135623730847
  0
VERTEX
  5
1D75
  8
SAPA_PROFIL
  6
CONTINUOUS
 62
     7
 10
-49.999999999996042
 20
-11.399999252915251
 30
0.0
  0
VERTEX
  5
1D76
  8
SAPA_PROFIL
  6
CONTINUOUS
 62
     7
 10
-49.999999999996028
 20
-14.599999252924491
 30
0.0
 42
0.4142135623730951
  0
VERTEX
  5
1D77
  8
SAPA_PROFIL
  6
CONTINUOUS
 62
     7
 10
-49.699999999995342
 20
-14.899999252924729
 30
0.0
  0
VERTEX
  5
1D78
  8
SAPA_PROFIL
  6
CONTINUOUS
 62
     7
 10
-45.500000000000952
 20
-14.899999252924561
 30
0.0
 42
-0.4142135623731122
  0
VERTEX
  5
1D79
  8
SAPA_PROFIL
  6
CONTINUOUS
 62
     7
 10
-44.000000000000902
 20
-16.399999252924591
 30
0.0
  0
VERTEX
  5
1D7A
  8
SAPA_PROFIL
  6
CONTINUOUS
 62
     7
 10
-44.000000000000931
 20
-18.399999252915489
 30
0.0
 42
0.4142135623730951
  0
VERTEX
  5
1D7B
  8
SAPA_PROFIL
  6
CONTINUOUS
 62
     7
 10
-43.700000000000919
 20
-18.6999992529155
 30
0.0
  0
VERTEX
  5
1D7C
  8
SAPA_PROFIL
  6
CONTINUOUS
 62
     7
 10
-36.999999999998849
 20
-18.699999252915511
 30
0.0
 42
0.4142135623731017
  0
VERTEX
  5
1D7D
  8
SAPA_PROFIL
  6
CONTINUOUS
 62
     7
 10
-36.69999999999979
 20
-18.399999252916452
 30
0.0
  0
VERTEX
  5
1D7E
  8
SAPA_PROFIL
  6
CONTINUOUS
 62
     7
 10
-36.699999999997878
 20
-17.799999252919498
 30
0.0
 42
-0.4142135623730951
  0
VERTEX
  5
1D7F
  8
SAPA_PROFIL
  6
CONTINUOUS
 62
     7
 10
-36.399999999997902
 20
-17.499999252919501
 30
0.0
  0
VERTEX
  5
1D80
  8
SAPA_PROFIL
  6
CONTINUOUS
 62
     7
 10
-35.799999999998867
 20
-17.49999925291846
 30
0.0
 42
-0.4142135623740693
  0
VERTEX
  5
1D81
  8
SAPA_PROFIL
  6
CONTINUOUS
 62
     7
 10
-35.499999999998842
 20
-17.799999252917459
 30
0.0
  0
VERTEX
  5
1D82
  8
SAPA_PROFIL
  6
CONTINUOUS
 62
     7
 10
-35.499999999998842
 20
-18.399999252918469
 30
0.0
 42
0.4142135623730951
  0
VERTEX
  5
1D83
  8
SAPA_PROFIL
  6
CONTINUOUS
 62
     7
 10
-35.199999999998838
 20
-18.69999925291846
 30
0.0
  0
VERTEX
  5
1D84
  8
SAPA_PROFIL
  6
CONTINUOUS
 62
     7
 10
-34.239949493650222
 20
-18.69999925291739
 30
0.0
 42
0.2360679774982354
  0
VERTEX
  5
1D85
  8
SAPA_PROFIL
  6
CONTINUOUS
 62
     7
 10
-34.0399494936512
 20
-18.599999252918341
 30
0.0
 42
-0.4564120107634379
  0
VERTEX
  5
1D86
  8
SAPA_PROFIL
  6
CONTINUOUS
 62
     7
 10
-32.532842712472487
 20
-18.492892471731871
 30
0.0
  0
VERTEX
  5
1D87
  8
SAPA_PROFIL
  6
CONTINUOUS
 62
     7
 10
-31.637867965644869
 20
-19.387867218559482
 30
0.0
 42
-0.6681786379193021
  0
VERTEX
  5
1D88
  8
SAPA_PROFIL
  6
CONTINUOUS
 62
     7
 10
-31.850000000000851
 20
-19.899999252915482
 30
0.0
  0
VERTEX
  5
1D89
  8
SAPA_PROFIL
  6
CONTINUOUS
 62
     7
 10
-40.199999999999953
 20
-19.899999252918469
 30
0.0
 42
0.4142135623730951
  0
VERTEX
  5
1D8A
  8
SAPA_PROFIL
  6
CONTINUOUS
 62
     7
 10
-40.499999999999943
 20
-20.19999925291847
 30
0.0
  0
VERTEX
  5
1D8B
  8
SAPA_PROFIL
  6
CONTINUOUS
 62
     7
 10
-40.500000000000981
 20
-23.199999252918481
 30
0.0
 42
0.4142135623730951
  0
VERTEX
  5
1D8C
  8
SAPA_PROFIL
  6
CONTINUOUS
 62
     7
 10
-40.200000000000983
 20
-23.499999252918482
 30
0.0
  0
VERTEX
  5
1D8D
  8
SAPA_PROFIL
  6
CONTINUOUS
 62
     7
 10
-35.800000000001667
 20
-23.499999252918482
 30
0.0
 42
-0.4142135623730951
  0
VERTEX
  5
1D8E
  8
SAPA_PROFIL
  6
CONTINUOUS
 62
     7
 10
-35.500000000001677
 20
-23.799999252918479
 30
0.0
  0
VERTEX
  5
1D8F
  8
SAPA_PROFIL
  6
CONTINUOUS
 62
     7
 10
-35.500000000001677
 20
-24.749999252924489
 30
0.0
 42
-0.4142135623730951
  0
VERTEX
  5
1D90
  8
SAPA_PROFIL
  6
CONTINUOUS
 62
     7
 10
-35.750000000001677
 20
-24.999999252924489
 30
0.0
  0
VERTEX
  5
1D91
  8
SAPA_PROFIL
  6
CONTINUOUS
 62
     7
 10
-51.199999999997857
 20
-24.999999252924489
 30
0.0
 42
-0.4142135623750965
  0
VERTEX
  5
1D92
  8
SAPA_PROFIL
  6
CONTINUOUS
 62
     7
 10
-51.500000000001862
 20
-24.699999252918449
 30
0.0
  0
VERTEX
  5
1D93
  8
SAPA_PROFIL
  6
CONTINUOUS
 62
     7
 10
-51.500000000000867
 20
-22.48708212226315
 30
0.0
 42
-0.1691807452124803
  0
VERTEX
  5
1D94
  8
SAPA_PROFIL
  6
CONTINUOUS
 62
     7
 10
-51.445897150363102
 20
-22.331762109129219
 30
0.0
  0
VERTEX
  5
1D95
  8
SAPA_PROFIL
  6
CONTINUOUS
 62
     7
 10
-51.035076580435863
 20
-21.813615237164498
 30
0.0
 42
-0.7105995015660667
  0
VERTEX
  5
1D96
  8
SAPA_PROFIL
  6
CONTINUOUS
 62
     7
 10
-50.500000000000838
 20
-21.999999252924489
 30
0.0
  0
VERTEX
  5
1D97
  8
SAPA_PROFIL
  6
CONTINUOUS
 62
     7
 10
-50.500000000000888
 20
-23.19999925292451
 30
0.0
 42
0.4142135623730951
  0
VERTEX
  5
1D98
  8
SAPA_PROFIL
  6
CONTINUOUS
 62
     7
 10
-50.200000000000877
 20
-23.499999252924521
 30
0.0
  0
VERTEX
  5
1D99
  8
SAPA_PROFIL
  6
CONTINUOUS
 62
     7
 10
-43.300000000000473
 20
-23.499999252924489
 30
0.0
 42
0.4142135623731053
  0
SEQEND
  5
1D9A
  8
SAPA_PROFIL
  6
CONTINUOUS
 62
     7
  0
ARC
  5
19BD
  8
SAPA_PROFIL
 10
-33.900000000001491
 20
12.288211253246001
 30
0.0
 40
0.2999999999998626
 50
45.784666420770662
 51
181.55442622518859
  0
LINE
  5
19BE
  8
SAPA_PROFIL
 10
-31.430030478057692
 20
10.30355555189516
 30
0.0
 11
-33.690792918440138
 21
12.50322845494042
 31
0.0
  0
ARC
  5
19BF
  8
SAPA_PROFIL
 10
-31.591879883392519
 20
10.050959490974259
 30
0.0
 40
0.2999999999999829
 50
359.9999999999888
 51
57.350526721836623
  0
LINE
  5
19C0
  8
SAPA_PROFIL
 10
-31.291879883392539
 20
9.50000037353783
 30
0.0
 11
-31.291879883392539
 21
10.050959490974201
 31
0.0
  0
ARC
  5
19C1
  8
SAPA_PROFIL
 10
-31.59187988339238
 20
9.5000003735379437
 30
0.0
 40
0.2999999999998408
 50
269.99999999997829
 51
359.99999999997829
  0
LINE
  5
19C2
  8
SAPA_PROFIL
 10
-56.693485944234617
 20
9.2000003735381597
 30
0.0
 11
-31.591879883392501
 21
9.2000003735381028
 31
0.0
  0
ARC
  5
19C3
  8
SAPA_PROFIL
 10
-56.693485944234602
 20
8.7000003735381473
 30
0.0
 40
0.5000000000000142
 50
90.000000000001606
 51
179.99999999999861
  0
LINE
  5
19C4
  8
SAPA_PROFIL
 10
-57.193485944234617
 20
7.0000003735381142
 30
0.0
 11
-57.193485944234617
 21
8.7000003735381597
 31
0.0
  0
ARC
  5
19C5
  8
SAPA_PROFIL
 10
-56.693485944234638
 20
7.0000003735380911
 30
0.0
 40
0.4999999999999769
 50
179.9999999999973
 51
270.0000000000025
  0
LINE
  5
19C6
  8
SAPA_PROFIL
 10
-43.991879883392073
 20
6.5000003735385681
 30
0.0
 11
-56.693485944234617
 21
6.5000003735381142
 31
0.0
  0
ARC
  5
19C7
  8
SAPA_PROFIL
 10
-43.991879883392073
 20
6.2000003735386144
 30
0.0
 40
0.2999999999999545
 50
359.99999999995657
 51
90.0
  0
LINE
  5
19C8
  8
SAPA_PROFIL
 10
-43.691879883392119
 20
5.3000003735382961
 30
0.0
 11
-43.691879883392119
 21
6.2000003735383871
 31
0.0
  0
ARC
  5
19C9
  8
SAPA_PROFIL
 10
-43.991879883392301
 20
5.3000003735382961
 30
0.0
 40
0.3000000000001819
 50
270.0
 51
0.0
  0
LINE
  5
19CA
  8
SAPA_PROFIL
 10
-58.393485944234897
 20
5.0000003735390228
 30
0.0
 11
-43.991879883392301
 21
5.0000003735381142
 31
0.0
  0
ARC
  5
19CB
  8
SAPA_PROFIL
 10
-58.393485944234911
 20
5.3000003735387429
 30
0.0
 40
0.29999999999972
 50
179.99999999999861
 51
270.00000000000131
  0
LINE
  5
19CC
  8
SAPA_PROFIL
 10
-58.693485944234169
 20
14.400000373537519
 30
0.0
 11
-58.693485944234617
 21
5.30000037353875
 31
0.0
  0
ARC
  5
19CD
  8
SAPA_PROFIL
 10
-71.4542055070591
 20
14.550000373547061
 30
0.0
 40
12.76160114409887
 50
359.32652927028761
 51
0.6734707296255361
  0
ARC
  5
19CE
  8
SAPA_PROFIL
 10
-48.309870737645561
 20
14.85000037352947
 30
0.0
 40
10.38469858775357
 50
179.17237214583739
 51
180.82762785407559
  0
LINE
  5
19CF
  8
SAPA_PROFIL
 10
-58.693485944233707
 20
17.800000373537159
 30
0.0
 11
-58.693485944233707
 21
15.00000037353743
 31
0.0
  0
LINE
  5
19D0
  8
SAPA_PROFIL
 10
-58.228562524668341
 20
18.386384389297969
 30
0.0
 11
-58.693485944233707
 21
17.800000373537159
 31
0.0
  0
ARC
  5
19D1
  8
SAPA_PROFIL
 10
-57.993485944233527
 20
18.20000037353724
 30
0.0
 40
0.3000000000000398
 50
0.000000000001357
 51
141.5903289366027
  0
LINE
  5
19D2
  8
SAPA_PROFIL
 10
-57.693485944233707
 20
16.500000373537429
 30
0.0
 11
-57.69348594423348
 21
18.20000037353725
 31
0.0
  0
ARC
  5
19D3
  8
SAPA_PROFIL
 10
-57.393485944233532
 20
16.500000373537429
 30
0.0
 40
0.3000000000001819
 50
180.0
 51
270.0
  0
LINE
  5
19D4
  8
SAPA_PROFIL
 10
-53.193485944233707
 20
16.20000037353725
 30
0.0
 11
-57.393485944233532
 21
16.20000037353725
 31
0.0
  0
ARC
  5
19D5
  8
SAPA_PROFIL
 10
-53.193485944233942
 20
16.500000373537201
 30
0.0
 40
0.2999999999999545
 50
270.00000000004343
 51
0.0000000000434252
  0
LINE
  5
19D6
  8
SAPA_PROFIL
 10
-52.89348594423376
 20
23.000000373537429
 30
0.0
 11
-52.89348594423398
 21
16.500000373537429
 31
0.0
  0
ARC
  5
19D7
  8
SAPA_PROFIL
 10
-53.193485944233487
 20
23.000000373537429
 30
0.0
 40
0.2999999999997271
 50
0.0
 51
90.000000000043414
  0
LINE
  5
19D8
  8
SAPA_PROFIL
 10
-57.393485944233753
 20
23.300000373537159
 30
0.0
 11
-53.193485944233707
 21
23.300000373537159
 31
0.0
  0
ARC
  5
19D9
  8
SAPA_PROFIL
 10
-57.393485944233817
 20
23.000000373537489
 30
0.0
 40
0.2999999999996703
 50
89.999999999989143
 51
180.0000000000108
  0
LINE
  5
19DA
  8
SAPA_PROFIL
 10
-57.693485944233707
 20
21.800000373537159
 30
0.0
 11
-57.69348594423348
 21
23.000000373537429
 31
0.0
  0
ARC
  5
19DB
  8
SAPA_PROFIL
 10
-57.993485944233647
 20
21.80000037353717
 30
0.0
 40
0.2999999999999416
 50
218.4096710634125
 51
359.99999999999858
  0
LINE
  5
19DC
  8
SAPA_PROFIL
 10
-58.693485944233707
 20
22.20000037353725
 30
0.0
 11
-58.228562524668341
 21
21.61361635777644
 31
0.0
  0
LINE
  5
19DD
  8
SAPA_PROFIL
 10
-58.693485944233707
 20
24.500000373537429
 30
0.0
 11
-58.693485944233707
 21
22.20000037353725
 31
0.0
  0
ARC
  5
19DE
  8
SAPA_PROFIL
 10
-58.39348594423376
 20
24.500000373537208
 30
0.0
 40
0.2999999999999545
 50
89.999999999956557
 51
179.99999999995649
  0
LINE
  5
19DF
  8
SAPA_PROFIL
 10
-51.193485944233707
 20
24.800000373537159
 30
0.0
 11
-58.393485944233532
 21
24.800000373537159
 31
0.0
  0
ARC
  5
19E0
  8
SAPA_PROFIL
 10
-51.193485944233707
 20
24.500000373537208
 30
0.0
 40
0.2999999999999545
 50
359.99999999995657
 51
90.0
  0
LINE
  5
19E1
  8
SAPA_PROFIL
 10
-50.89348594423376
 20
22.70000037353725
 30
0.0
 11
-50.89348594423376
 21
24.500000373536981
 31
0.0
  0
LINE
  5
19E2
  8
SAPA_PROFIL
 10
-51.093485944233578
 20
22.70000037353725
 30
0.0
 11
-50.89348594423376
 21
22.70000037353725
 31
0.0
  0
ARC
  5
19E3
  8
SAPA_PROFIL
 10
-51.093485944233798
 20
22.400000373537519
 30
0.0
 40
0.2999999999997271
 50
89.999999999956557
 51
180.0
  0
LINE
  5
19E4
  8
SAPA_PROFIL
 10
-51.393485944233532
 20
15.00000037353743
 30
0.0
 11
-51.393485944233532
 21
22.400000373537519
 31
0.0
  0
ARC
  5
19E5
  8
SAPA_PROFIL
 10
-51.693485944233721
 20
15.00000037353743
 30
0.0
 40
0.3000000000001819
 50
270.0
 51
0.0
  0
LINE
  5
19E6
  8
SAPA_PROFIL
 10
-56.693485944234169
 20
14.70000037353725
 30
0.0
 11
-51.693485944233721
 21
14.70000037353725
 31
0.0
  0
ARC
  5
19E7
  8
SAPA_PROFIL
 10
-56.693485944234148
 20
14.20000037353724
 30
0.0
 40
0.5000000000000142
 50
90.000000000001606
 51
179.99999999999861
  0
LINE
  5
19E8
  8
SAPA_PROFIL
 10
-57.193485944234403
 20
11.20000037353725
 30
0.0
 11
-57.193485944234169
 21
14.20000037353725
 31
0.0
  0
ARC
  5
19E9
  8
SAPA_PROFIL
 10
-56.693485944234311
 20
11.20000037353711
 30
0.0
 40
0.5000000000000853
 50
179.99999999998369
 51
269.99999999999022
  0
LINE
  5
19EA
  8
SAPA_PROFIL
 10
-34.500000000001357
 20
10.70000037353816
 30
0.0
 11
-56.693485944234389
 21
10.700000373537019
 31
0.0
  0
ARC
  5
19EB
  8
SAPA_PROFIL
 10
-34.500000000001378
 20
11.00000037353812
 30
0.0
 40
0.2999999999999687
 50
270.00000000000267
 51
359.99999999999801
  0
LINE
  5
19EC
  8
SAPA_PROFIL
 10
-34.20000000000141
 20
12.28821125324612
 30
0.0
 11
-34.20000000000141
 21
11.000000373538111
 31
0.0
  0
ARC
  5
19ED
  8
SAPA_PROFIL
  6
CONTINUOUS
 62
     7
 10
-74.000000000957129
 20
16.000000747073369
 30
0.0
 40
0.4999999999996021
 50
359.99999999995521
 51
89.999999999956032
  0
LINE
  5
19EE
  8
SAPA_PROFIL
  6
CONTINUOUS
 62
     7
 10
-73.500000000956732
 20
15.000000747072971
 30
0.0
 11
-73.500000000957527
 21
16.000000747072981
 31
0.0
  0
ARC
  5
19EF
  8
SAPA_PROFIL
  6
CONTINUOUS
 62
     7
 10
-76.000000000962487
 20
15.00000074707267
 30
0.0
 40
2.5000000000057541
 50
300.00000002125398
 51
0.0000000000069209
  0
ARC
  5
19F0
  8
SAPA_PROFIL
  6
CONTINUOUS
 62
     7
 10
-74.500000000004775
 20
12.40192453627164
 30
0.0
 40
0.4999999999948131
 50
120.0000000204161
 51
179.9999999989285
  0
LINE
  5
19F1
  8
SAPA_PROFIL
  6
CONTINUOUS
 62
     7
 10
-74.999999999999588
 20
7.4000007470737774
 30
0.0
 11
-74.999999999999588
 21
12.40192453628099
 31
0.0
  0
ARC
  5
19F2
  8
SAPA_PROFIL
  6
CONTINUOUS
 62
     7
 10
-74.499999999999588
 20
7.4000007470737792
 30
0.0
 40
0.5000000000000018
 50
180.0000000000002
 51
269.99999999999352
  0
LINE
  5
19F3
  8
SAPA_PROFIL
  6
CONTINUOUS
 62
     7
 10
-72.799999999999557
 20
6.9000007470735572
 30
0.0
 11
-74.499999999999645
 21
6.9000007470737774
 31
0.0
  0
ARC
  5
19F4
  8
SAPA_PROFIL
  6
CONTINUOUS
 62
     7
 10
-72.799999999999585
 20
6.6000007470735733
 30
0.0
 40
0.2999999999999841
 50
19.471220634343979
 51
89.999999999994586
  0
ARC
  5
19F5
  8
SAPA_PROFIL
  6
CONTINUOUS
 62
     7
 10
-72.234314575051116
 20
6.8000007470730042
 30
0.0
 40
0.2999999999991045
 50
199.4712206345838
 51
270.00000000020623
  0
LINE
  5
19F6
  8
SAPA_PROFIL
  6
CONTINUOUS
 62
     7
 10
-70.799999999999315
 20
6.5000007470730106
 30
0.0
 11
-72.234314575050036
 21
6.5000007470738987
 31
0.0
  0
ARC
  5
19F7
  8
SAPA_PROFIL
  6
CONTINUOUS
 62
     7
 10
-70.799999999998875
 20
6.2000007470732976
 30
0.0
 40
0.2999999999997271
 50
0.0000000000949926
 51
90.000000000084114
  0
LINE
  5
19F8
  8
SAPA_PROFIL
  6
CONTINUOUS
 62
     7
 10
-70.499999999999559
 20
5.6000007470731834
 30
0.0
 11
-70.499999999999147
 21
6.200000747073795
 31
0.0
  0
ARC
  5
19F9
  8
SAPA_PROFIL
  6
CONTINUOUS
 62
     7
 10
-70.799999999999557
 20
5.6000007470738851
 30
0.0
 40
0.3000000000000096
 50
270.00000000004343
 51
359.99999999986602
  0
LINE
  5
19FA
  8
SAPA_PROFIL
  6
CONTINUOUS
 62
     7
 10
-72.19999999999942
 20
5.3000007470729873
 30
0.0
 11
-70.799999999999329
 21
5.3000007470738746
 31
0.0
  0
ARC
  5
19FB
  8
SAPA_PROFIL
  6
CONTINUOUS
 62
     7
 10
-72.199999999999889
 20
5.0000007470732877
 30
0.0
 40
0.2999999999996987
 50
89.999999999910429
 51
179.99999999990629
  0
LINE
  5
19FC
  8
SAPA_PROFIL
  6
CONTINUOUS
 62
     7
 10
-72.499999999999588
 20
-4.999999252926802
 30
0.0
 11
-72.499999999999588
 21
5.000000747073778
 31
0.0
  0
ARC
  5
19FD
  8
SAPA_PROFIL
  6
CONTINUOUS
 62
     7
 10
-72.19999999999942
 20
-4.9999992529268047
 30
0.0
 40
0.3000000000001712
 50
179.99999999999929
 51
270.0
  0
LINE
  5
19FE
  8
SAPA_PROFIL
  6
CONTINUOUS
 62
     7
 10
-70.799999999999329
 20
-5.2999992529269866
 30
0.0
 11
-72.19999999999942
 21
-5.2999992529269759
 31
0.0
  0
ARC
  5
19FF
  8
SAPA_PROFIL
  6
CONTINUOUS
 62
     7
 10
-70.799999999999102
 20
-5.5999992529264819
 30
0.0
 40
0.2999999999994856
 50
0.0000000000439341
 51
90.000000000043414
  0
LINE
  5
1A00
  8
SAPA_PROFIL
  6
CONTINUOUS
 62
     7
 10
-70.499999999999602
 20
-6.1999992529268013
 30
0.0
 11
-70.499999999999616
 21
-5.5999992529262519
 31
0.0
  0
ARC
  5
1A01
  8
SAPA_PROFIL
  6
CONTINUOUS
 62
     7
 10
-70.799999999999784
 20
-6.1999992529268031
 30
0.0
 40
0.3000000000001801
 50
270.0000000000868
 51
0.0000000000003393
  0
LINE
  5
1A02
  8
SAPA_PROFIL
  6
CONTINUOUS
 62
     7
 10
-72.234314575049652
 20
-6.4999992529260773
 30
0.0
 11
-70.799999999999329
 21
-6.4999992529269832
 31
0.0
  0
ARC
  5
1A03
  8
SAPA_PROFIL
  6
CONTINUOUS
 62
     7
 10
-72.234314575049837
 20
-6.7999992529260762
 30
0.0
 40
0.3000000000000111
 50
89.999999999964714
 51
160.52877936565761
  0
ARC
  5
1A04
  8
SAPA_PROFIL
  6
CONTINUOUS
 62
     7
 10
-72.799999999999613
 20
-6.5999992529275318
 30
0.0
 40
0.2999999999999998
 50
270.00000000000807
 51
340.5287793656575
  0
LINE
  5
1A05
  8
SAPA_PROFIL
  6
CONTINUOUS
 62
     7
 10
-80.299999999999329
 20
-6.8999992529284269
 30
0.0
 11
-72.799999999999571
 21
-6.8999992529275316
 31
0.0
  0
ARC
  5
1A06
  8
SAPA_PROFIL
  6
CONTINUOUS
 62
     7
 10
-80.299999999999329
 20
-5.8999992529284269
 30
0.0
 40
1.0
 50
180.0
 51
270.0
  0
LINE
  5
1A07
  8
SAPA_PROFIL
  6
CONTINUOUS
 62
     7
 10
-81.299999999999812
 20
-5.087368994751432
 30
0.0
 11
-81.299999999999329
 21
-5.8999992529284269
 31
0.0
  0
ARC
  5
1A08
  8
SAPA_PROFIL
  6
CONTINUOUS
 62
     7
 10
-80.999999999999801
 20
-5.0873689947512473
 30
0.0
 40
0.30000000000001
 50
130.00000000000099
 51
180.00000000003541
  0
LINE
  5
1A09
  8
SAPA_PROFIL
  6
CONTINUOUS
 62
     7
 10
-80.492836282905216
 20
-4.2701859199909888
 30
0.0
 11
-81.192836282905773
 21
-4.8575556618155487
 31
0.0
  0
ARC
  5
1A0A
  8
SAPA_PROFIL
  6
CONTINUOUS
 62
     7
 10
-80.2999999999994
 20
-4.499999252926516
 30
0.0
 40
0.299999999999784
 50
0.000000000083797
 51
130.00000000000119
  0
LINE
  5
1A0B
  8
SAPA_PROFIL
  6
CONTINUOUS
 62
     7
 10
-79.999999999999119
 20
-5.2999992529280631
 30
0.0
 11
-79.999999999999616
 21
-4.4999992529260773
 31
0.0
  0
ARC
  5
1A0C
  8
SAPA_PROFIL
  6
CONTINUOUS
 62
     7
 10
-79.699999999999903
 20
-5.2999992529280648
 30
0.0
 40
0.2999999999991996
 50
179.9999999999996
 51
270.00000000009499
  0
LINE
  5
1A0D
  8
SAPA_PROFIL
  6
CONTINUOUS
 62
     7
 10
-75.29999999999886
 20
-5.5999992529273364
 30
0.0
 11
-79.69999999999942
 21
-5.5999992529272653
 31
0.0
  0
ARC
  5
1A0E
  8
SAPA_PROFIL
  6
CONTINUOUS
 62
     7
 10
-75.299999999999102
 20
-5.299999252927396
 30
0.0
 40
0.2999999999999403
 50
270.0000000000461
 51
0.0000000000447822
  0
LINE
  5
1A0F
  8
SAPA_PROFIL
  6
CONTINUOUS
 62
     7
 10
-74.999999999999133
 20
5.300000747072283
 30
0.0
 11
-74.999999999999162
 21
-5.2999992529271607
 31
0.0
  0
ARC
  5
1A10
  8
SAPA_PROFIL
  6
CONTINUOUS
 62
     7
 10
-75.299999999999116
 20
5.300000747072473
 30
0.0
 40
0.2999999999999634
 50
359.99999999996368
 51
89.999999999953857
  0
LINE
  5
1A11
  8
SAPA_PROFIL
  6
CONTINUOUS
 62
     7
 10
-79.699999999999406
 20
5.600000747073377
 30
0.0
 11
-75.299999999998875
 21
5.6000007470724373
 31
0.0
  0
ARC
  5
1A12
  8
SAPA_PROFIL
  6
CONTINUOUS
 62
     7
 10
-79.69999999999942
 20
5.3000007470731729
 30
0.0
 40
0.3000000000001961
 50
89.999999999997286
 51
179.99999999999861
  0
LINE
  5
1A13
  8
SAPA_PROFIL
  6
CONTINUOUS
 62
     7
 10
-79.999999999999616
 20
4.5000007470729839
 30
0.0
 11
-79.999999999999616
 21
5.30000074707318
 31
0.0
  0
ARC
  5
1A14
  8
SAPA_PROFIL
  6
CONTINUOUS
 62
     7
 10
-80.299999999999756
 20
4.5000007470733383
 30
0.0
 40
0.3000000000001468
 50
230.00000000014489
 51
359.99999999993253
  0
LINE
  5
1A15
  8
SAPA_PROFIL
  6
CONTINUOUS
 62
     7
 10
-81.192836282905773
 20
4.8575571559615973
 30
0.0
 11
-80.492836282905216
 21
4.2701874141370437
 31
0.0
  0
ARC
  5
1A16
  8
SAPA_PROFIL
  6
CONTINUOUS
 62
     7
 10
-80.999999999999815
 20
5.0873704888972924
 30
0.0
 40
0.2999999999999971
 50
180.00000000000071
 51
230.0000000000008
  0
LINE
  5
1A17
  8
SAPA_PROFIL
  6
CONTINUOUS
 62
     7
 10
-81.299999999999812
 20
5.9000007470726921
 30
0.0
 11
-81.299999999999812
 21
5.0873704888972879
 31
0.0
  0
ARC
  5
1A18
  8
SAPA_PROFIL
  6
CONTINUOUS
 62
     7
 10
-80.299999999999812
 20
5.9000007470726921
 30
0.0
 40
1.0
 50
90.0
 51
180.0
  0
LINE
  5
1A19
  8
SAPA_PROFIL
  6
CONTINUOUS
 62
     7
 10
-77.999999999999147
 20
6.9000007470726921
 30
0.0
 11
-80.299999999999812
 21
6.9000007470726921
 31
0.0
  0
ARC
  5
1A1A
  8
SAPA_PROFIL
  6
CONTINUOUS
 62
     7
 10
-77.999999999999147
 20
7.4000007470726921
 30
0.0
 40
0.5
 50
270.0
 51
0.0
  0
LINE
  5
1A1B
  8
SAPA_PROFIL
  6
CONTINUOUS
 62
     7
 10
-77.50000000000297
 20
16.000000747072779
 30
0.0
 11
-77.499999999999133
 21
7.4000007470726921
 31
0.0
  0
ARC
  5
1A1C
  8
SAPA_PROFIL
  6
CONTINUOUS
 62
     7
 10
-77.00000000000297
 20
16.000000747072981
 30
0.0
 40
0.5000000000000036
 50
90.0
 51
180.0000000000224
  0
LINE
  5
1A1D
  8
SAPA_PROFIL
  6
CONTINUOUS
 62
     7
 10
-74.000000000956746
 20
16.500000747072981
 30
0.0
 11
-77.00000000000297
 21
16.500000747072981
 31
0.0
  0
LINE
  5
1A1E
  8
SAPA_PROFIL
 10
-70.999999999999886
 20
24.100000747076301
 30
0.0
 11
-70.20000000095672
 21
24.100000747076301
 31
0.0
  0
ARC
  5
1A1F
  8
SAPA_PROFIL
 10
-70.999999999999915
 20
23.800000747076311
 30
0.0
 40
0.2999999999999829
 50
89.999999999994586
 51
179.9999999999952
  0
LINE
  5
1A20
  8
SAPA_PROFIL
 10
-71.299999999999898
 20
22.400000747076248
 30
0.0
 11
-71.299999999999898
 21
23.800000747076339
 31
0.0
  0
ARC
  5
1A21
  8
SAPA_PROFIL
 10
-71.600000000000023
 20
22.400000747076302
 30
0.0
 40
0.3000000000001286
 50
270.0000000000108
 51
359.99999999998909
  0
LINE
  5
1A22
  8
SAPA_PROFIL
 10
-76.89999999999992
 20
22.10000074707629
 30
0.0
 11
-71.599999999999966
 21
22.10000074707618
 31
0.0
  0
ARC
  5
1A23
  8
SAPA_PROFIL
 10
-76.89999999999992
 20
22.400000747076248
 30
0.0
 40
0.2999999999999545
 50
180.0
 51
270.0
  0
LINE
  5
1A24
  8
SAPA_PROFIL
 10
-77.199999999999875
 20
33.200000747076203
 30
0.0
 11
-77.199999999999875
 21
22.400000747076248
 31
0.0
  0
ARC
  5
1A25
  8
SAPA_PROFIL
 10
-76.899999999999835
 20
33.200000747076231
 30
0.0
 40
0.3000000000000398
 50
90.000000000016271
 51
180.0000000000054
  0
LINE
  5
1A26
  8
SAPA_PROFIL
 10
-71.599999999999966
 20
33.500000747076271
 30
0.0
 11
-76.89999999999992
 21
33.500000747076271
 31
0.0
  0
ARC
  5
1A27
  8
SAPA_PROFIL
 10
-71.600000000000023
 20
33.200000747076153
 30
0.0
 40
0.300000000000125
 50
0.0000000000108563
 51
89.999999999989143
  0
LINE
  5
1A28
  8
SAPA_PROFIL
 10
-71.299999999999898
 20
31.800000747076229
 30
0.0
 11
-71.299999999999898
 21
33.200000747076203
 31
0.0
  0
ARC
  5
1A29
  8
SAPA_PROFIL
 10
-70.999999999999915
 20
31.800000747076261
 30
0.0
 40
0.2999999999999829
 50
180.0000000000054
 51
270.0000000000054
  0
LINE
  5
1A2A
  8
SAPA_PROFIL
 10
-70.20000000095672
 20
31.500000747076271
 30
0.0
 11
-70.999999999999886
 21
31.500000747076271
 31
0.0
  0
ARC
  5
1A2B
  8
SAPA_PROFIL
 10
-70.200000000956692
 20
31.800000747076261
 30
0.0
 40
0.2999999999999829
 50
269.9999999999946
 51
359.99999999999449
  0
LINE
  5
1A2C
  8
SAPA_PROFIL
 10
-69.900000000956709
 20
33.200000747076317
 30
0.0
 11
-69.900000000956709
 21
31.800000747076229
 31
0.0
  0
ARC
  5
1A2D
  8
SAPA_PROFIL
 10
-69.600000000956726
 20
33.200000747076288
 30
0.0
 40
0.2999999999999829
 50
89.999999999994586
 51
179.99999999999449
  0
LINE
  5
1A2E
  8
SAPA_PROFIL
 10
-67.600000000956683
 20
33.500000747076271
 30
0.0
 11
-69.600000000956697
 21
33.500000747076271
 31
0.0
  0
ARC
  5
1A2F
  8
SAPA_PROFIL
 10
-67.600000000956669
 20
33.200000747076288
 30
0.0
 40
0.2999999999999829
 50
0.0000000000054281
 51
90.000000000005414
  0
LINE
  5
1A30
  8
SAPA_PROFIL
 10
-67.300000000956686
 20
22.400000747076131
 30
0.0
 11
-67.300000000956686
 21
33.200000747076317
 31
0.0
  0
ARC
  5
1A31
  8
SAPA_PROFIL
 10
-67.600000000956669
 20
22.40000074707616
 30
0.0
 40
0.2999999999999829
 50
269.9999999999946
 51
359.99999999999449
  0
LINE
  5
1A32
  8
SAPA_PROFIL
 10
-69.600000000956697
 20
22.10000074707618
 30
0.0
 11
-67.600000000956683
 21
22.10000074707618
 31
0.0
  0
ARC
  5
1A33
  8
SAPA_PROFIL
 10
-69.600000000956726
 20
22.40000074707617
 30
0.0
 40
0.2999999999999829
 50
180.00000000000611
 51
270.0000000000054
  0
LINE
  5
1A34
  8
SAPA_PROFIL
 10
-69.900000000956709
 20
23.800000747076339
 30
0.0
 11
-69.900000000956709
 21
22.400000747076142
 31
0.0
  0
ARC
  5
1A35
  8
SAPA_PROFIL
 10
-70.200000000956692
 20
23.800000747076311
 30
0.0
 40
0.2999999999999865
 50
0.0000000000061067
 51
90.000000000005414
  0
ARC
  5
1A36
  8
SAPA_PROFIL
  6
CONTINUOUS
 62
     7
 10
-80.199999999999136
 20
18.30625686266276
 30
0.0
 40
0.2999999999995566
 50
93.583321732830768
 51
179.9999999999097
  0
LINE
  5
1A37
  8
SAPA_PROFIL
  6
CONTINUOUS
 62
     7
 10
-80.499999999998579
 20
11.30000074707622
 30
0.0
 11
-80.499999999998693
 21
18.306256862663229
 31
0.0
  0
ARC
  5
1A38
  8
SAPA_PROFIL
  6
CONTINUOUS
 62
     7
 10
-80.799999999998647
 20
11.30000074707622
 30
0.0
 40
0.3000000000000682
 50
270.0
 51
0.0
  0
LINE
  5
1A39
  8
SAPA_PROFIL
  6
CONTINUOUS
 62
     7
 10
-81.600000000982675
 20
11.00000074707615
 30
0.0
 11
-80.799999999998647
 21
11.00000074707615
 31
0.0
  0
ARC
  5
1A3A
  8
SAPA_PROFIL
  6
CONTINUOUS
 62
     7
 10
-81.600000000982646
 20
11.30000074707619
 30
0.0
 40
0.3000000000000398
 50
179.99999999999449
 51
269.9999999999946
  0
LINE
  5
1A3B
  8
SAPA_PROFIL
  6
CONTINUOUS
 62
     7
 10
-81.900000000982644
 20
19.700000747076199
 30
0.0
 11
-81.900000000982686
 21
11.30000074707622
 31
0.0
  0
ARC
  5
1A3C
  8
SAPA_PROFIL
  6
CONTINUOUS
 62
     7
 10
-81.600000000982675
 20
19.700000747076199
 30
0.0
 40
0.2999999999999545
 50
90.0
 51
180.0
  0
LINE
  5
1A3D
  8
SAPA_PROFIL
  6
CONTINUOUS
 62
     7
 10
-80.400000001917647
 20
20.000000747076161
 30
0.0
 11
-81.600000000982675
 21
20.000000747076161
 31
0.0
  0
ARC
  5
1A3E
  8
SAPA_PROFIL
  6
CONTINUOUS
 62
     7
 10
-80.400000001917647
 20
21.500000747076161
 30
0.0
 40
1.5
 50
270.0
 51
359.99999999671712
  0
LINE
  5
1A3F
  8
SAPA_PROFIL
  6
CONTINUOUS
 62
     7
 10
-78.900000000982629
 20
36.700000747102237
 30
0.0
 11
-78.900000001917647
 21
21.50000074699021
 31
0.0
  0
ARC
  5
1A40
  8
SAPA_PROFIL
  6
CONTINUOUS
 62
     7
 10
-78.600000000982675
 20
36.700000747076203
 30
0.0
 40
0.2999999999999545
 50
90.0
 51
179.99999999502779
  0
LINE
  5
1A41
  8
SAPA_PROFIL
  6
CONTINUOUS
 62
     7
 10
-77.499999999999659
 20
37.000000747076157
 30
0.0
 11
-78.600000000982675
 21
37.000000747076157
 31
0.0
  0
ARC
  5
1A42
  8
SAPA_PROFIL
  6
CONTINUOUS
 62
     7
 10
-77.499999999999631
 20
36.700000747076182
 30
0.0
 40
0.2999999999999829
 50
0.0000000000054281
 51
90.000000000005414
  0
LINE
  5
1A43
  8
SAPA_PROFIL
  6
CONTINUOUS
 62
     7
 10
-77.199999999999648
 20
35.200000747076203
 30
0.0
 11
-77.199999999999648
 21
36.700000747076203
 31
0.0
  0
ARC
  5
1A44
  8
SAPA_PROFIL
  6
CONTINUOUS
 62
     7
 10
-76.899999999999636
 20
35.200000747076153
 30
0.0
 40
0.3000000000000114
 50
179.99999999998909
 51
269.99999999998909
  0
LINE
  5
1A45
  8
SAPA_PROFIL
  6
CONTINUOUS
 62
     7
 10
-66.200000000956663
 20
34.900000747076142
 30
0.0
 11
-76.899999999999693
 21
34.900000747076142
 31
0.0
  0
ARC
  5
1A46
  8
SAPA_PROFIL
  6
CONTINUOUS
 62
     7
 10
-66.200000000956635
 20
34.600000747076152
 30
0.0
 40
0.2999999999999829
 50
0.0000000000054281
 51
90.000000000005414
  0
LINE
  5
1A47
  8
SAPA_PROFIL
  6
CONTINUOUS
 62
     7
 10
-65.900000000956652
 20
11.30000074707622
 30
0.0
 11
-65.900000000956652
 21
34.60000074707618
 31
0.0
  0
ARC
  5
1A48
  8
SAPA_PROFIL
  6
CONTINUOUS
 62
     7
 10
-66.20000000095618
 20
11.30000074707568
 30
0.0
 40
0.29999999999953
 50
269.99999999990769
 51
0.0000000001027955
  0
LINE
  5
1A49
  8
SAPA_PROFIL
  6
CONTINUOUS
 62
     7
 10
-73.199999999998681
 20
11.00000074707615
 30
0.0
 11
-66.200000000956663
 21
11.00000074707615
 31
0.0
  0
ARC
  5
1A4A
  8
SAPA_PROFIL
  6
CONTINUOUS
 62
     7
 10
-73.199999999998653
 20
11.30000074707619
 30
0.0
 40
0.3000000000000398
 50
179.99999999999449
 51
269.9999999999946
  0
LINE
  5
1A4B
  8
SAPA_PROFIL
  6
CONTINUOUS
 62
     7
 10
-73.499999999998693
 20
20.300000747076229
 30
0.0
 11
-73.499999999998693
 21
11.30000074707622
 31
0.0
  0
ARC
  5
1A4C
  8
SAPA_PROFIL
  6
CONTINUOUS
 62
     7
 10
-73.79999999999967
 20
20.300000747076229
 30
0.0
 40
0.3000000000009741
 50
359.99999999999932
 51
89.999999999804587
  0
LINE
  5
1A4D
  8
SAPA_PROFIL
  6
CONTINUOUS
 62
     7
 10
-74.919615242269344
 20
20.60000074707618
 30
0.0
 11
-73.799999999998633
 21
20.6000007470772
 31
0.0
  0
ARC
  5
1A4E
  8
SAPA_PROFIL
  6
CONTINUOUS
 62
     7
 10
-74.91961524226943
 20
20.90000074707611
 30
0.0
 40
0.2999999999999325
 50
240.0000000000164
 51
270.00000000001631
  0
LINE
  5
1A4F
  8
SAPA_PROFIL
  6
CONTINUOUS
 62
     7
 10
-75.449999999998681
 20
20.859808368211521
 30
0.0
 11
-75.069615242269322
 21
20.640193125940801
 31
0.0
  0
ARC
  5
1A50
  8
SAPA_PROFIL
  6
CONTINUOUS
 62
     7
 10
-75.599999999998658
 20
20.600000747076219
 30
0.0
 40
0.2999999999999598
 50
60.000000000000561
 51
119.9999999999994
  0
LINE
  5
1A51
  8
SAPA_PROFIL
  6
CONTINUOUS
 62
     7
 10
-76.130384757727995
 20
20.640193125940801
 30
0.0
 11
-75.749999999998636
 21
20.859808368211521
 31
0.0
  0
ARC
  5
1A52
  8
SAPA_PROFIL
  6
CONTINUOUS
 62
     7
 10
-76.280384757727887
 20
20.90000074707611
 30
0.0
 40
0.2999999999999261
 50
269.9999999999838
 51
299.99999999998431
  0
LINE
  5
1A53
  8
SAPA_PROFIL
  6
CONTINUOUS
 62
     7
 10
-77.433520607080652
 20
20.60000074707618
 30
0.0
 11
-76.280384757727973
 21
20.60000074707618
 31
0.0
  0
ARC
  5
1A54
  8
SAPA_PROFIL
  6
CONTINUOUS
 62
     7
 10
-77.433520607080638
 20
20.300000747076229
 30
0.0
 40
0.2999999999999472
 50
90.000000000002728
 51
157.97568716296459
  0
ARC
  5
1A55
  8
SAPA_PROFIL
  6
CONTINUOUS
 62
     7
 10
-80.400000001918286
 20
21.500000747075688
 30
0.0
 40
2.899999999999296
 50
273.58332173291052
 51
337.97568716296257
  0
POLYLINE
  5
1A56
  8
SAPA_PROFIL
 66
     1
 10
0.0
 20
0.0
 30
0.0
 70
     1
  0
VERTEX
  5
1D9B
  8
SAPA_PROFIL
 10
24.299999999996398
 20
28.70000037353828
 30
0.0
  0
VERTEX
  5
1D9C
  8
SAPA_PROFIL
 10
31.199999999996269
 20
28.70000037353828
 30
0.0
  0
VERTEX
  5
1D9D
  8
SAPA_PROFIL
 10
31.49999999999633
 20
28.400000373538319
 30
0.0
  0
VERTEX
  5
1D9E
  8
SAPA_PROFIL
 10
31.799999999996398
 20
28.70000037353828
 30
0.0
  0
VERTEX
  5
1D9F
  8
SAPA_PROFIL
 10
41.499999999996326
 20
28.70000037353828
 30
0.0
 42
0.4142135623730951
  0
VERTEX
  5
1DA0
  8
SAPA_PROFIL
 10
42.499999999996326
 20
29.70000037353827
 30
0.0
  0
VERTEX
  5
1DA1
  8
SAPA_PROFIL
 10
42.499999999996326
 20
42.500000373538228
 30
0.0
  0
VERTEX
  5
1DA2
  8
SAPA_PROFIL
 10
41.599999999996349
 20
42.500000373538228
 30
0.0
 42
-0.4142135623730951
  0
VERTEX
  5
1DA3
  8
SAPA_PROFIL
 10
40.999999999996326
 20
43.10000037353813
 30
0.0
  0
VERTEX
  5
1DA4
  8
SAPA_PROFIL
 10
40.999999999996326
 20
44.700000373538273
 30
0.0
 42
-0.4142135623730951
  0
VERTEX
  5
1DA5
  8
SAPA_PROFIL
 10
41.299999999996402
 20
45.000000373538228
 30
0.0
  0
VERTEX
  5
1DA6
  8
SAPA_PROFIL
 10
43.699999999996272
 20
45.000000373538228
 30
0.0
 42
-0.4142135623730951
  0
VERTEX
  5
1DA7
  8
SAPA_PROFIL
 10
43.999999999996326
 20
44.700000373538273
 30
0.0
  0
VERTEX
  5
1DA8
  8
SAPA_PROFIL
 10
43.999999999996326
 20
25.000000373538231
 30
0.0
  0
VERTEX
  5
1DA9
  8
SAPA_PROFIL
 10
41.499999999996326
 20
25.000000373538231
 30
0.0
  0
VERTEX
  5
1DAA
  8
SAPA_PROFIL
 10
41.499999999996326
 20
26.70000037353827
 30
0.0
 42
0.4142135623730951
  0
VERTEX
  5
1DAB
  8
SAPA_PROFIL
 10
40.999999999996326
 20
27.20000037353827
 30
0.0
  0
VERTEX
  5
1DAC
  8
SAPA_PROFIL
 10
20.99999999999633
 20
27.20000037353827
 30
0.0
 42
0.4142135623730951
  0
VERTEX
  5
1DAD
  8
SAPA_PROFIL
 10
20.49999999999633
 20
26.70000037353827
 30
0.0
  0
VERTEX
  5
1DAE
  8
SAPA_PROFIL
 10
20.49999999999633
 20
25.000000373538231
 30
0.0
  0
VERTEX
  5
1DAF
  8
SAPA_PROFIL
 10
18.99999999999633
 20
25.000000373538231
 30
0.0
  0
VERTEX
  5
1DB0
  8
SAPA_PROFIL
 10
18.99999999999633
 20
28.20000037353827
 30
0.0
 42
-0.4142135623730951
  0
VERTEX
  5
1DB1
  8
SAPA_PROFIL
 10
19.49999999999633
 20
28.70000037353828
 30
0.0
  0
VERTEX
  5
1DB2
  8
SAPA_PROFIL
 10
23.699999999996379
 20
28.70000037353828
 30
0.0
  0
VERTEX
  5
1DB3
  8
SAPA_PROFIL
 10
23.99999999999633
 20
28.400000373538319
 30
0.0
  0
SEQEND
  5
1DB4
  8
SAPA_PROFIL
  0
POLYLINE
  5
1A57
  8
SAPA_PROFIL
 66
     1
 10
0.0
 20
0.0
 30
0.0
 70
     1
  0
VERTEX
  5
1DB5
  8
SAPA_PROFIL
 10
-25.00000000000291
 20
-22.59999962646156
 30
0.0
 42
0.767326987974136
  0
VERTEX
  5
1DB6
  8
SAPA_PROFIL
 10
-24.849999999999749
 20
-22.040192005328091
 30
0.0
 42
-0.2679491924279902
  0
VERTEX
  5
1DB7
  8
SAPA_PROFIL
 10
-25.000000000002451
 20
-21.780384384204581
 30
0.0
  0
VERTEX
  5
1DB8
  8
SAPA_PROFIL
 10
-25.00000000000183
 20
-18.799999626461322
 30
0.0
 42
-0.4142135623730395
  0
VERTEX
  5
1DB9
  8
SAPA_PROFIL
 10
-23.500000000001769
 20
-17.299999626461599
 30
0.0
  0
VERTEX
  5
1DBA
  8
SAPA_PROFIL
 10
-22.400000000002368
 20
-17.299999626461599
 30
0.0
 42
-0.4142135623730951
  0
VERTEX
  5
1DBB
  8
SAPA_PROFIL
 10
-22.100000000002421
 20
-17.599999626461329
 30
0.0
  0
VERTEX
  5
1DBC
  8
SAPA_PROFIL
 10
-22.100000000002421
 20
-18.099999626461329
 30
0.0
 42
-0.4142135623730948
  0
VERTEX
  5
1DBD
  8
SAPA_PROFIL
 10
-22.400000000002368
 20
-18.399999626461511
 30
0.0
  0
VERTEX
  5
1DBE
  8
SAPA_PROFIL
 10
-22.73662692463655
 20
-18.399999626461511
 30
0.0
 42
0.5643553431119927
  0
VERTEX
  5
1DBF
  8
SAPA_PROFIL
 10
-20.874395043239481
 20
-22.724394669695808
 30
0.0
  0
VERTEX
  5
1DC0
  8
SAPA_PROFIL
 10
-20.500000000002512
 20
-22.34999962646361
 30
0.0
  0
VERTEX
  5
1DC1
  8
SAPA_PROFIL
 10
-20.125604956769632
 20
-22.724394669696721
 30
0.0
 42
0.564355343112654
  0
VERTEX
  5
1DC2
  8
SAPA_PROFIL
 10
-18.263373075367099
 20
-18.399999626461511
 30
0.0
  0
VERTEX
  5
1DC3
  8
SAPA_PROFIL
 10
-18.600000000002641
 20
-18.399999626461511
 30
0.0
 42
-0.4142135623729843
  0
VERTEX
  5
1DC4
  8
SAPA_PROFIL
 10
-18.900000000002709
 20
-18.099999626461791
 30
0.0
  0
VERTEX
  5
1DC5
  8
SAPA_PROFIL
 10
-18.900000000002599
 20
-17.599999626461329
 30
0.0
 42
-0.4142135623730951
  0
VERTEX
  5
1DC6
  8
SAPA_PROFIL
 10
-18.600000000002641
 20
-17.299999626461599
 30
0.0
  0
VERTEX
  5
1DC7
  8
SAPA_PROFIL
 10
-16.30000000000269
 20
-17.299999626461599
 30
0.0
 42
-0.4142135623732062
  0
VERTEX
  5
1DC8
  8
SAPA_PROFIL
 10
-16.000000000002391
 20
-17.599999626461329
 30
0.0
  0
VERTEX
  5
1DC9
  8
SAPA_PROFIL
 10
-16.000000000002512
 20
-21.999999626461481
 30
0.0
 42
0.4142135623731117
  0
VERTEX
  5
1DCA
  8
SAPA_PROFIL
 10
-15.00000000000251
 20
-22.999999626461591
 30
0.0
  0
VERTEX
  5
1DCB
  8
SAPA_PROFIL
 10
19.999999999995559
 20
-22.999999626461811
 30
0.0
 42
0.7673269879789009
  0
VERTEX
  5
1DCC
  8
SAPA_PROFIL
 10
20.24999999999573
 20
-22.066986924569662
 30
0.0
 42
-0.2679491924311131
  0
VERTEX
  5
1DCD
  8
SAPA_PROFIL
 10
19.99999999999584
 20
-21.633974222677391
 30
0.0
  0
VERTEX
  5
1DCE
  8
SAPA_PROFIL
 10
19.999999999996639
 20
-18.799999626461538
 30
0.0
 42
-0.4142135623730395
  0
VERTEX
  5
1DCF
  8
SAPA_PROFIL
 10
21.499999999996689
 20
-17.299999626461819
 30
0.0
  0
VERTEX
  5
1DD0
  8
SAPA_PROFIL
 10
22.59999999999609
 20
-17.299999626461819
 30
0.0
 42
-0.4142135623730951
  0
VERTEX
  5
1DD1
  8
SAPA_PROFIL
 10
22.899999999996052
 20
-17.59999962646155
 30
0.0
  0
VERTEX
  5
1DD2
  8
SAPA_PROFIL
 10
22.899999999996052
 20
-18.09999962646155
 30
0.0
 42
-0.4142135623730948
  0
VERTEX
  5
1DD3
  8
SAPA_PROFIL
 10
22.59999999999609
 20
-18.399999626461732
 30
0.0
  0
VERTEX
  5
1DD4
  8
SAPA_PROFIL
 10
22.263373075361919
 20
-18.399999626461732
 30
0.0
 42
0.5643553431119927
  0
VERTEX
  5
1DD5
  8
SAPA_PROFIL
 10
24.125604956758991
 20
-22.724394669696022
 30
0.0
  0
VERTEX
  5
1DD6
  8
SAPA_PROFIL
 10
24.499999999995961
 20
-22.34999962646382
 30
0.0
  0
VERTEX
  5
1DD7
  8
SAPA_PROFIL
 10
24.874395043228841
 20
-22.724394669696931
 30
0.0
 42
0.564355343112654
  0
VERTEX
  5
1DD8
  8
SAPA_PROFIL
 10
26.736626924631359
 20
-18.399999626461732
 30
0.0
  0
VERTEX
  5
1DD9
  8
SAPA_PROFIL
 10
26.399999999995821
 20
-18.399999626461732
 30
0.0
 42
-0.4142135623729843
  0
VERTEX
  5
1DDA
  8
SAPA_PROFIL
 10
26.099999999995749
 20
-18.099999626462001
 30
0.0
  0
VERTEX
  5
1DDB
  8
SAPA_PROFIL
 10
26.09999999999587
 20
-17.599999626461539
 30
0.0
 42
-0.4142135623730951
  0
VERTEX
  5
1DDC
  8
SAPA_PROFIL
 10
26.399999999995821
 20
-17.299999626461819
 30
0.0
  0
VERTEX
  5
1DDD
  8
SAPA_PROFIL
 10
28.699999999995779
 20
-17.299999626461819
 30
0.0
 42
-0.4142135623732062
  0
VERTEX
  5
1DDE
  8
SAPA_PROFIL
 10
28.999999999996071
 20
-17.599999626461539
 30
0.0
  0
VERTEX
  5
1DDF
  8
SAPA_PROFIL
 10
28.999999999995961
 20
-21.99999962646169
 30
0.0
 42
0.4142135623730951
  0
VERTEX
  5
1DE0
  8
SAPA_PROFIL
 10
29.999999999995961
 20
-22.999999626461701
 30
0.0
  0
VERTEX
  5
1DE1
  8
SAPA_PROFIL
 10
34.699999999996351
 20
-22.999999626461861
 30
0.0
 42
0.4142135623730984
  0
VERTEX
  5
1DE2
  8
SAPA_PROFIL
 10
34.999999999996362
 20
-22.69999962646185
 30
0.0
  0
VERTEX
  5
1DE3
  8
SAPA_PROFIL
 10
34.999999999996362
 20
-21.399999626461842
 30
0.0
 42
-0.4142135623730951
  0
VERTEX
  5
1DE4
  8
SAPA_PROFIL
 10
35.299999999996373
 20
-21.09999962646183
 30
0.0
  0
VERTEX
  5
1DE5
  8
SAPA_PROFIL
 10
35.875735931284389
 20
-21.09999962646183
 30
0.0
 42
-0.198912367379637
  0
VERTEX
  5
1DE6
  8
SAPA_PROFIL
 10
36.087867965640378
 20
-21.18786759210586
 30
0.0
  0
VERTEX
  5
1DE7
  8
SAPA_PROFIL
 10
37.812132034352139
 20
-22.912131660817732
 30
0.0
 42
0.1989123673796579
  0
VERTEX
  5
1DE8
  8
SAPA_PROFIL
 10
38.024264068708128
 20
-22.999999626461751
 30
0.0
  0
VERTEX
  5
1DE9
  8
SAPA_PROFIL
 10
41.499999999996461
 20
-22.999999626461811
 30
0.0
 42
0.4142135623730951
  0
VERTEX
  5
1DEA
  8
SAPA_PROFIL
 10
42.499999999996469
 20
-21.999999626461811
 30
0.0
  0
VERTEX
  5
1DEB
  8
SAPA_PROFIL
 10
42.499999999996447
 20
22.000000373538079
 30
0.0
 42
0.4142135623730951
  0
VERTEX
  5
1DEC
  8
SAPA_PROFIL
 10
41.499999999996447
 20
23.000000373538079
 30
0.0
  0
VERTEX
  5
1DED
  8
SAPA_PROFIL
 10
38.024264068708057
 20
23.000000373538018
 30
0.0
 42
0.1989123673796579
  0
VERTEX
  5
1DEE
  8
SAPA_PROFIL
 10
37.812132034352068
 20
22.912132407893999
 30
0.0
  0
VERTEX
  5
1DEF
  8
SAPA_PROFIL
 10
36.08786796564042
 20
21.187868339182181
 30
0.0
 42
-0.198912367379658
  0
VERTEX
  5
1DF0
  8
SAPA_PROFIL
 10
35.875735931284432
 20
21.100000373538158
 30
0.0
  0
VERTEX
  5
1DF1
  8
SAPA_PROFIL
 10
35.299999999996352
 20
21.100000373538158
 30
0.0
 42
-0.4142135623730951
  0
VERTEX
  5
1DF2
  8
SAPA_PROFIL
 10
34.999999999996341
 20
21.40000037353817
 30
0.0
  0
VERTEX
  5
1DF3
  8
SAPA_PROFIL
 10
34.999999999996341
 20
22.700000373538071
 30
0.0
 42
0.4142135623730984
  0
VERTEX
  5
1DF4
  8
SAPA_PROFIL
 10
34.699999999996329
 20
23.000000373538079
 30
0.0
  0
VERTEX
  5
1DF5
  8
SAPA_PROFIL
 10
29.999999999995939
 20
23.000000373537969
 30
0.0
 42
0.4142135623730951
  0
VERTEX
  5
1DF6
  8
SAPA_PROFIL
 10
28.999999999995939
 20
22.000000373537969
 30
0.0
  0
VERTEX
  5
1DF7
  8
SAPA_PROFIL
 10
28.99999999999606
 20
17.600000373537821
 30
0.0
 42
-0.4142135623732062
  0
VERTEX
  5
1DF8
  8
SAPA_PROFIL
 10
28.699999999995761
 20
17.30000037353809
 30
0.0
  0
VERTEX
  5
1DF9
  8
SAPA_PROFIL
 10
26.39999999999581
 20
17.30000037353809
 30
0.0
 42
-0.4142135623730951
  0
VERTEX
  5
1DFA
  8
SAPA_PROFIL
 10
26.099999999995848
 20
17.600000373537821
 30
0.0
  0
VERTEX
  5
1DFB
  8
SAPA_PROFIL
 10
26.099999999995742
 20
18.100000373538268
 30
0.0
 42
-0.414213562372984
  0
VERTEX
  5
1DFC
  8
SAPA_PROFIL
 10
26.39999999999581
 20
18.400000373537999
 30
0.0
  0
VERTEX
  5
1DFD
  8
SAPA_PROFIL
 10
26.736626924631349
 20
18.400000373537999
 30
0.0
 42
0.5643553431126542
  0
VERTEX
  5
1DFE
  8
SAPA_PROFIL
 10
24.874395043228819
 20
22.724395416773199
 30
0.0
  0
VERTEX
  5
1DFF
  8
SAPA_PROFIL
 10
24.499999999995939
 20
22.350000373540091
 30
0.0
  0
VERTEX
  5
1E00
  8
SAPA_PROFIL
 10
24.12560495675897
 20
22.724395416772289
 30
0.0
 42
0.5643553431119927
  0
VERTEX
  5
1E01
  8
SAPA_PROFIL
 10
22.263373075361908
 20
18.400000373537999
 30
0.0
  0
VERTEX
  5
1E02
  8
SAPA_PROFIL
 10
22.599999999996079
 20
18.400000373537999
 30
0.0
 42
-0.414213562373095
  0
VERTEX
  5
1E03
  8
SAPA_PROFIL
 10
22.89999999999603
 20
18.100000373537821
 30
0.0
  0
VERTEX
  5
1E04
  8
SAPA_PROFIL
 10
22.89999999999603
 20
17.600000373537821
 30
0.0
 42
-0.4142135623730953
  0
VERTEX
  5
1E05
  8
SAPA_PROFIL
 10
22.599999999996079
 20
17.30000037353809
 30
0.0
  0
VERTEX
  5
1E06
  8
SAPA_PROFIL
 10
21.499999999996682
 20
17.300000373537859
 30
0.0
 42
-0.4142135623730508
  0
VERTEX
  5
1E07
  8
SAPA_PROFIL
 10
19.999999999996621
 20
18.800000373537578
 30
0.0
  0
VERTEX
  5
1E08
  8
SAPA_PROFIL
 10
19.999999999995879
 20
21.633974969753432
 30
0.0
 42
-0.2679491924311283
  0
VERTEX
  5
1E09
  8
SAPA_PROFIL
 10
20.249999999995719
 20
22.066987671645698
 30
0.0
 42
0.7673269879788167
  0
VERTEX
  5
1E0A
  8
SAPA_PROFIL
 10
19.999999999995541
 20
23.000000373537851
 30
0.0
  0
VERTEX
  5
1E0B
  8
SAPA_PROFIL
 10
-15.000000000002521
 20
23.00000037353761
 30
0.0
 42
0.4142135623730951
  0
VERTEX
  5
1E0C
  8
SAPA_PROFIL
 10
-16.000000000002519
 20
22.00000037353761
 30
0.0
  0
VERTEX
  5
1E0D
  8
SAPA_PROFIL
 10
-16.000000000002409
 20
17.600000373537458
 30
0.0
 42
-0.4142135623732062
  0
VERTEX
  5
1E0E
  8
SAPA_PROFIL
 10
-16.300000000002701
 20
17.300000373537731
 30
0.0
  0
VERTEX
  5
1E0F
  8
SAPA_PROFIL
 10
-18.600000000002659
 20
17.300000373537731
 30
0.0
 42
-0.4142135623730951
  0
VERTEX
  5
1E10
  8
SAPA_PROFIL
 10
-18.90000000000261
 20
17.600000373537458
 30
0.0
  0
VERTEX
  5
1E11
  8
SAPA_PROFIL
 10
-18.900000000002731
 20
18.10000037353791
 30
0.0
 42
-0.414213562372984
  0
VERTEX
  5
1E12
  8
SAPA_PROFIL
 10
-18.600000000002659
 20
18.40000037353764
 30
0.0
  0
VERTEX
  5
1E13
  8
SAPA_PROFIL
 10
-18.26337307536712
 20
18.40000037353764
 30
0.0
 42
0.5643553431126542
  0
VERTEX
  5
1E14
  8
SAPA_PROFIL
 10
-20.125604956769639
 20
22.72439541677284
 30
0.0
  0
VERTEX
  5
1E15
  8
SAPA_PROFIL
 10
-20.500000000002519
 20
22.350000373539739
 30
0.0
  0
VERTEX
  5
1E16
  8
SAPA_PROFIL
 10
-20.874395043239488
 20
22.724395416771941
 30
0.0
 42
0.5643553431119927
  0
VERTEX
  5
1E17
  8
SAPA_PROFIL
 10
-22.73662692463656
 20
18.40000037353764
 30
0.0
  0
VERTEX
  5
1E18
  8
SAPA_PROFIL
 10
-22.40000000000239
 20
18.40000037353764
 30
0.0
 42
-0.414213562373095
  0
VERTEX
  5
1E19
  8
SAPA_PROFIL
 10
-22.100000000002431
 20
18.100000373537458
 30
0.0
  0
VERTEX
  5
1E1A
  8
SAPA_PROFIL
 10
-22.100000000002431
 20
17.600000373537458
 30
0.0
 42
-0.4142135623730951
  0
VERTEX
  5
1E1B
  8
SAPA_PROFIL
 10
-22.40000000000239
 20
17.300000373537621
 30
0.0
  0
VERTEX
  5
1E1C
  8
SAPA_PROFIL
 10
-23.500000000001791
 20
17.300000373537621
 30
0.0
 42
-0.4142135623730508
  0
VERTEX
  5
1E1D
  8
SAPA_PROFIL
 10
-25.00000000000184
 20
18.80000037353734
 30
0.0
  0
VERTEX
  5
1E1E
  8
SAPA_PROFIL
 10
-25.000000000002469
 20
21.780385131280589
 30
0.0
 42
-0.2679491924279903
  0
VERTEX
  5
1E1F
  8
SAPA_PROFIL
 10
-24.84999999999976
 20
22.040192752404099
 30
0.0
 42
0.767326987974136
  0
VERTEX
  5
1E20
  8
SAPA_PROFIL
 10
-25.00000000000292
 20
22.600000373537629
 30
0.0
  0
VERTEX
  5
1E21
  8
SAPA_PROFIL
 10
-27.00000000000184
 20
22.600000373537579
 30
0.0
 42
0.4142135623730951
  0
VERTEX
  5
1E22
  8
SAPA_PROFIL
 10
-28.00000000000184
 20
21.600000373537579
 30
0.0
  0
VERTEX
  5
1E23
  8
SAPA_PROFIL
 10
-28.00000000000183
 20
-21.59999962646156
 30
0.0
 42
0.4142135623731284
  0
VERTEX
  5
1E24
  8
SAPA_PROFIL
 10
-27.00000000000183
 20
-22.59999962646167
 30
0.0
  0
SEQEND
  5
1E25
  8
SAPA_PROFIL
  0
POLYLINE
  5
1A58
  8
SAPA_PROFIL
 66
     1
 10
0.0
 20
0.0
 30
0.0
 70
     1
  0
VERTEX
  5
1E26
  8
SAPA_PROFIL
 10
-30.999999999011791
 20
2.700000373538507
 30
0.0
  0
VERTEX
  5
1E27
  8
SAPA_PROFIL
 10
-31.249999999011791
 20
2.700000373538507
 30
0.0
  0
VERTEX
  5
1E28
  8
SAPA_PROFIL
 10
-31.249999999011852
 20
2.3500003735385979
 30
0.0
 42
-0.5450207774094042
  0
VERTEX
  5
1E29
  8
SAPA_PROFIL
 10
-31.673765403337331
 20
2.076720069286587
 30
0.0
  0
VERTEX
  5
1E2A
  8
SAPA_PROFIL
 10
-33.049999999011973
 20
2.700000373538507
 30
0.0
  0
VERTEX
  5
1E2B
  8
SAPA_PROFIL
 10
-33.049999999012087
 20
2.3500003735385979
 30
0.0
 42
-0.5450207774090177
  0
VERTEX
  5
1E2C
  8
SAPA_PROFIL
 10
-33.473765403337168
 20
2.0767200692864729
 30
0.0
  0
VERTEX
  5
1E2D
  8
SAPA_PROFIL
 10
-34.849999999011928
 20
2.700000373538507
 30
0.0
  0
VERTEX
  5
1E2E
  8
SAPA_PROFIL
 10
-34.849999999011978
 20
2.3500003735385979
 30
0.0
 42
-0.5450207774094042
  0
VERTEX
  5
1E2F
  8
SAPA_PROFIL
 10
-35.273765403337457
 20
2.076720069286587
 30
0.0
  0
VERTEX
  5
1E30
  8
SAPA_PROFIL
 10
-36.649999999011882
 20
2.700000373538507
 30
0.0
  0
VERTEX
  5
1E31
  8
SAPA_PROFIL
 10
-36.649999999011882
 20
2.3500003735385979
 30
0.0
 42
-0.545020777409516
  0
VERTEX
  5
1E32
  8
SAPA_PROFIL
 10
-37.073765403337532
 20
2.076720069286587
 30
0.0
  0
VERTEX
  5
1E33
  8
SAPA_PROFIL
 10
-38.449999999012071
 20
2.700000373538507
 30
0.0
  0
VERTEX
  5
1E34
  8
SAPA_PROFIL
 10
-38.449999999012071
 20
2.3500003735385979
 30
0.0
 42
-0.545020777409516
  0
VERTEX
  5
1E35
  8
SAPA_PROFIL
 10
-38.873765403337721
 20
2.076720069286587
 30
0.0
  0
VERTEX
  5
1E36
  8
SAPA_PROFIL
 10
-40.249999999012253
 20
2.700000373538507
 30
0.0
  0
VERTEX
  5
1E37
  8
SAPA_PROFIL
 10
-40.249999999012253
 20
2.3500003735385979
 30
0.0
 42
-0.5450207774090177
  0
VERTEX
  5
1E38
  8
SAPA_PROFIL
 10
-40.673765403337441
 20
2.0767200692864729
 30
0.0
  0
VERTEX
  5
1E39
  8
SAPA_PROFIL
 10
-41.449999999012057
 20
2.4282674991239399
 30
0.0
  0
VERTEX
  5
1E3A
  8
SAPA_PROFIL
 10
-41.449999999012107
 20
-1.0006700427426229
 30
0.0
  0
VERTEX
  5
1E3B
  8
SAPA_PROFIL
 10
-41.449999999012107
 20
-2.6999996264615862
 30
0.0
  0
VERTEX
  5
1E3C
  8
SAPA_PROFIL
 10
-41.149999999012103
 20
-2.6999996264615862
 30
0.0
  0
VERTEX
  5
1E3D
  8
SAPA_PROFIL
 10
-39.773765403337812
 20
-2.0767193222092111
 30
0.0
 42
-0.5450207774093642
  0
VERTEX
  5
1E3E
  8
SAPA_PROFIL
 10
-39.349999999012383
 20
-2.3499996264614502
 30
0.0
  0
VERTEX
  5
1E3F
  8
SAPA_PROFIL
 10
-39.349999999012148
 20
-2.6999996264615862
 30
0.0
  0
VERTEX
  5
1E40
  8
SAPA_PROFIL
 10
-37.973765403337623
 20
-2.0767193222093812
 30
0.0
 42
-0.5450207774088696
  0
VERTEX
  5
1E41
  8
SAPA_PROFIL
 10
-37.549999999012428
 20
-2.3499996264614502
 30
0.0
  0
VERTEX
  5
1E42
  8
SAPA_PROFIL
 10
-37.549999999012201
 20
-2.6999996264615862
 30
0.0
  0
VERTEX
  5
1E43
  8
SAPA_PROFIL
 10
-36.173765403337669
 20
-2.0767193222093812
 30
0.0
 42
-0.5450207774094402
  0
VERTEX
  5
1E44
  8
SAPA_PROFIL
 10
-35.74999999901236
 20
-2.3499996264614458
 30
0.0
  0
VERTEX
  5
1E45
  8
SAPA_PROFIL
 10
-35.749999999012253
 20
-2.6999996264615831
 30
0.0
  0
VERTEX
  5
1E46
  8
SAPA_PROFIL
 10
-34.373765403337941
 20
-2.0767193222092071
 30
0.0
 42
-0.5450207774093642
  0
VERTEX
  5
1E47
  8
SAPA_PROFIL
 10
-33.949999999012519
 20
-2.3499996264614458
 30
0.0
  0
VERTEX
  5
1E48
  8
SAPA_PROFIL
 10
-33.949999999012292
 20
-2.6999996264615831
 30
0.0
  0
VERTEX
  5
1E49
  8
SAPA_PROFIL
 10
-32.573765403337759
 20
-2.076719322209378
 30
0.0
 42
-0.5450207774088696
  0
VERTEX
  5
1E4A
  8
SAPA_PROFIL
 10
-32.149999999012621
 20
-2.3499996264614458
 30
0.0
  0
VERTEX
  5
1E4B
  8
SAPA_PROFIL
 10
-32.149999999011882
 20
-2.6999996264615831
 30
0.0
  0
VERTEX
  5
1E4C
  8
SAPA_PROFIL
 10
-30.999999999011791
 20
-2.6999996264615831
 30
0.0
 42
0.4142135623730951
  0
VERTEX
  5
1E4D
  8
SAPA_PROFIL
 10
-29.999999999011791
 20
-1.6999996264615831
 30
0.0
  0
VERTEX
  5
1E4E
  8
SAPA_PROFIL
 10
-29.999999999011791
 20
1.700000373538507
 30
0.0
 42
0.4142135623730951
  0
SEQEND
  5
1E4F
  8
SAPA_PROFIL
  0
POLYLINE
  5
1A59
  8
SAPA_PROFIL
 66
     1
 10
0.0
 20
0.0
 30
0.0
 70
     1
  0
VERTEX
  5
1E50
  8
SAPA_PROFIL
 10
-30.00000000000178
 20
-16.699999626462429
 30
0.0
  0
VERTEX
  5
1E51
  8
SAPA_PROFIL
 10
-30.00000000000178
 20
-23.199999626462098
 30
0.0
 42
-0.4142135623732062
  0
VERTEX
  5
1E52
  8
SAPA_PROFIL
 10
-30.300000000001841
 20
-23.499999626462049
 30
0.0
  0
VERTEX
  5
1E53
  8
SAPA_PROFIL
 10
-34.200000000001602
 20
-23.499999626462049
 30
0.0
 42
-0.4142135623730951
  0
VERTEX
  5
1E54
  8
SAPA_PROFIL
 10
-34.500000000001549
 20
-23.199999626462098
 30
0.0
  0
VERTEX
  5
1E55
  8
SAPA_PROFIL
 10
-34.500000000001663
 20
-21.99999962646222
 30
0.0
 42
0.7105995015650612
  0
VERTEX
  5
1E56
  8
SAPA_PROFIL
 10
-35.035076580436517
 20
-21.81361561070138
 30
0.0
  0
VERTEX
  5
1E57
  8
SAPA_PROFIL
 10
-35.283588601450973
 20
-22.127051051281111
 30
0.0
 42
0.169180745212488
  0
VERTEX
  5
1E58
  8
SAPA_PROFIL
 10
-35.500000000001783
 20
-22.748331103817002
 30
0.0
  0
VERTEX
  5
1E59
  8
SAPA_PROFIL
 10
-35.500000000001663
 20
-24.699999626462269
 30
0.0
 42
0.4142135623730951
  0
VERTEX
  5
1E5A
  8
SAPA_PROFIL
 10
-35.200000000001701
 20
-24.99999962646222
 30
0.0
  0
VERTEX
  5
1E5B
  8
SAPA_PROFIL
 10
43.999999999996412
 20
-24.999999626461872
 30
0.0
 42
0.4142135623730951
  0
VERTEX
  5
1E5C
  8
SAPA_PROFIL
 10
44.499999999996412
 20
-24.499999626461872
 30
0.0
  0
VERTEX
  5
1E5D
  8
SAPA_PROFIL
 10
44.49999999999639
 20
24.500000373538128
 30
0.0
 42
0.4142135623730951
  0
VERTEX
  5
1E5E
  8
SAPA_PROFIL
 10
43.99999999999639
 20
25.000000373538139
 30
0.0
  0
VERTEX
  5
1E5F
  8
SAPA_PROFIL
 10
-35.200000000001829
 20
25.000000373538239
 30
0.0
 42
0.4142135623730951
  0
VERTEX
  5
1E60
  8
SAPA_PROFIL
 10
-35.500000000001783
 20
24.70000037353828
 30
0.0
  0
VERTEX
  5
1E61
  8
SAPA_PROFIL
 10
-35.500000000001783
 20
22.748331850893191
 30
0.0
 42
0.1691807452125303
  0
VERTEX
  5
1E62
  8
SAPA_PROFIL
 10
-35.283588601450859
 20
22.127051798357179
 30
0.0
  0
VERTEX
  5
1E63
  8
SAPA_PROFIL
 10
-35.03507658043641
 20
21.813616357777509
 30
0.0
 42
0.7105995015650845
  0
VERTEX
  5
1E64
  8
SAPA_PROFIL
 10
-34.500000000001783
 20
22.000000373538239
 30
0.0
  0
VERTEX
  5
1E65
  8
SAPA_PROFIL
 10
-34.500000000001783
 20
23.20000037353817
 30
0.0
 42
-0.4142135623732061
  0
VERTEX
  5
1E66
  8
SAPA_PROFIL
 10
-34.200000000001708
 20
23.500000373538121
 30
0.0
  0
VERTEX
  5
1E67
  8
SAPA_PROFIL
 10
-30.300000000001958
 20
23.500000373538121
 30
0.0
 42
-0.4142135623732061
  0
VERTEX
  5
1E68
  8
SAPA_PROFIL
 10
-30.000000000001901
 20
23.20000037353817
 30
0.0
  0
VERTEX
  5
1E69
  8
SAPA_PROFIL
 10
-30.00000000000178
 20
16.70000037353822
 30
0.0
 42
-0.4142135623730951
  0
VERTEX
  5
1E6A
  8
SAPA_PROFIL
 10
-30.50000000000178
 20
16.20000037353822
 30
0.0
  0
VERTEX
  5
1E6B
  8
SAPA_PROFIL
 10
-34.200000000001602
 20
16.20000037353811
 30
0.0
 42
-0.4142135623733172
  0
VERTEX
  5
1E6C
  8
SAPA_PROFIL
 10
-34.500000000001783
 20
16.500000373538288
 30
0.0
  0
VERTEX
  5
1E6D
  8
SAPA_PROFIL
 10
-34.500000000001549
 20
18.400000373538209
 30
0.0
 42
0.7105995015650612
  0
VERTEX
  5
1E6E
  8
SAPA_PROFIL
 10
-35.03507658043641
 20
18.586384389299049
 30
0.0
  0
VERTEX
  5
1E6F
  8
SAPA_PROFIL
 10
-35.283588601450859
 20
18.272948948719488
 30
0.0
 42
0.1691807452125303
  0
VERTEX
  5
1E70
  8
SAPA_PROFIL
 10
-35.500000000001783
 20
17.65166889618348
 30
0.0
  0
VERTEX
  5
1E71
  8
SAPA_PROFIL
 10
-35.500000000001783
 20
11.30000037353819
 30
0.0
 42
0.4142135623728731
  0
VERTEX
  5
1E72
  8
SAPA_PROFIL
 10
-35.200000000001822
 20
11.00000037353823
 30
0.0
  0
VERTEX
  5
1E73
  8
SAPA_PROFIL
 10
-34.500000000001549
 20
11.000000373538461
 30
0.0
 42
0.4142135623730951
  0
VERTEX
  5
1E74
  8
SAPA_PROFIL
 10
-34.200000000001602
 20
11.30000037353841
 30
0.0
  0
VERTEX
  5
1E75
  8
SAPA_PROFIL
 10
-34.200000000001602
 20
14.200000373537989
 30
0.0
 42
-0.4142135623730951
  0
VERTEX
  5
1E76
  8
SAPA_PROFIL
 10
-33.700000000001587
 20
14.700000373537989
 30
0.0
  0
VERTEX
  5
1E77
  8
SAPA_PROFIL
 10
-30.50000000000178
 20
14.70000037353822
 30
0.0
 42
-0.4142135623731617
  0
VERTEX
  5
1E78
  8
SAPA_PROFIL
 10
-30.00000000000178
 20
14.20000037353822
 30
0.0
  0
VERTEX
  5
1E79
  8
SAPA_PROFIL
 10
-30.000000000002011
 20
6.0000003735388026
 30
0.0
 42
-0.4142135623730951
  0
VERTEX
  5
1E7A
  8
SAPA_PROFIL
 10
-31.000000000002
 20
5.0000003735388026
 30
0.0
  0
VERTEX
  5
1E7B
  8
SAPA_PROFIL
 10
-52.199999999011887
 20
5.0000003735385681
 30
0.0
 42
0.4142135623730951
  0
VERTEX
  5
1E7C
  8
SAPA_PROFIL
 10
-52.499999999011912
 20
4.7000003735385567
 30
0.0
  0
VERTEX
  5
1E7D
  8
SAPA_PROFIL
 10
-52.499999999011841
 20
3.0750109032518358
 30
0.0
  0
VERTEX
  5
1E7E
  8
SAPA_PROFIL
 10
-51.535790539647863
 20
2.2144755244675589
 30
0.0
 42
0.6264792893017398
  0
VERTEX
  5
1E7F
  8
SAPA_PROFIL
 10
-51.049999999012421
 20
2.4500214329656269
 30
0.0
  0
VERTEX
  5
1E80
  8
SAPA_PROFIL
 10
-51.049999999012201
 20
2.7000003735385572
 30
0.0
  0
VERTEX
  5
1E81
  8
SAPA_PROFIL
 10
-49.673765403337889
 20
2.1767200692864321
 30
0.0
 42
0.5450207774090681
  0
VERTEX
  5
1E82
  8
SAPA_PROFIL
 10
-49.24999999901236
 20
2.4500003735385572
 30
0.0
  0
VERTEX
  5
1E83
  8
SAPA_PROFIL
 10
-49.249999999012239
 20
2.7000003735384999
 30
0.0
  0
VERTEX
  5
1E84
  8
SAPA_PROFIL
 10
-47.873765403337941
 20
2.1767200692865449
 30
0.0
 42
0.545020777409516
  0
VERTEX
  5
1E85
  8
SAPA_PROFIL
 10
-47.449999999012292
 20
2.4500003735385572
 30
0.0
  0
VERTEX
  5
1E86
  8
SAPA_PROFIL
 10
-47.449999999012292
 20
2.7000003735384999
 30
0.0
  0
VERTEX
  5
1E87
  8
SAPA_PROFIL
 10
-46.073765403337639
 20
2.1767200692864321
 30
0.0
 42
0.5450207774091295
  0
VERTEX
  5
1E88
  8
SAPA_PROFIL
 10
-45.649999999012387
 20
2.4500003735385572
 30
0.0
  0
VERTEX
  5
1E89
  8
SAPA_PROFIL
 10
-45.649999999012337
 20
2.7000003735384999
 30
0.0
  0
VERTEX
  5
1E8A
  8
SAPA_PROFIL
 10
-44.273765403337812
 20
2.1767200692865449
 30
0.0
 42
0.545020777409516
  0
VERTEX
  5
1E8B
  8
SAPA_PROFIL
 10
-43.849999999012148
 20
2.4500003735385638
 30
0.0
  0
VERTEX
  5
1E8C
  8
SAPA_PROFIL
 10
-43.849999999012148
 20
2.700000373538507
 30
0.0
  0
VERTEX
  5
1E8D
  8
SAPA_PROFIL
 10
-43.182570825615649
 20
2.4460472213682531
 30
0.0
 42
-0.3492695052203141
  0
VERTEX
  5
1E8E
  8
SAPA_PROFIL
 10
-42.949999999012228
 20
2.1537232460000899
 30
0.0
  0
VERTEX
  5
1E8F
  8
SAPA_PROFIL
 10
-42.949999999012228
 20
1.2649114376056401
 30
0.0
 42
0.3475404855924057
  0
VERTEX
  5
1E90
  8
SAPA_PROFIL
 10
-42.719230768242952
 20
0.973008884359281
 30
0.0
 42
-0.7905694150422074
  0
VERTEX
  5
1E91
  8
SAPA_PROFIL
 10
-42.719230768243122
 20
-0.973008137283724
 30
0.0
 42
0.3475404855923888
  0
VERTEX
  5
1E92
  8
SAPA_PROFIL
 10
-42.949999999012228
 20
-1.2649106905309351
 30
0.0
  0
VERTEX
  5
1E93
  8
SAPA_PROFIL
 10
-42.949999999012121
 20
-1.8767193222094489
 30
0.0
 42
-0.4142135623730951
  0
VERTEX
  5
1E94
  8
SAPA_PROFIL
 10
-43.249999999012132
 20
-2.1767193222094612
 30
0.0
  0
VERTEX
  5
1E95
  8
SAPA_PROFIL
 10
-43.373765403337707
 20
-2.1767193222094039
 30
0.0
  0
VERTEX
  5
1E96
  8
SAPA_PROFIL
 10
-44.749999999012239
 20
-2.6999996264615862
 30
0.0
  0
VERTEX
  5
1E97
  8
SAPA_PROFIL
 10
-44.749999999012473
 20
-2.4499996264614161
 30
0.0
 42
0.5450207774088696
  0
VERTEX
  5
1E98
  8
SAPA_PROFIL
 10
-45.173765403337661
 20
-2.1767193222093471
 30
0.0
  0
VERTEX
  5
1E99
  8
SAPA_PROFIL
 10
-46.549999999012201
 20
-2.6999996264615862
 30
0.0
  0
VERTEX
  5
1E9A
  8
SAPA_PROFIL
 10
-46.549999999012421
 20
-2.4499996264614161
 30
0.0
 42
0.5450207774091855
  0
VERTEX
  5
1E9B
  8
SAPA_PROFIL
 10
-46.973765403337786
 20
-2.1767193222092902
 30
0.0
  0
VERTEX
  5
1E9C
  8
SAPA_PROFIL
 10
-48.349999999012148
 20
-2.6999996264615862
 30
0.0
  0
VERTEX
  5
1E9D
  8
SAPA_PROFIL
 10
-48.349999999012148
 20
-2.4499996264614161
 30
0.0
 42
0.5450207774093374
  0
VERTEX
  5
1E9E
  8
SAPA_PROFIL
 10
-48.773765403337741
 20
-2.176719322209518
 30
0.0
  0
VERTEX
  5
1E9F
  8
SAPA_PROFIL
 10
-50.149999999012337
 20
-2.6999996264615862
 30
0.0
  0
VERTEX
  5
1EA0
  8
SAPA_PROFIL
 10
-50.149999999011939
 20
-2.1499785670343909
 30
0.0
  0
VERTEX
  5
1EA1
  8
SAPA_PROFIL
 10
-51.347075010161483
 20
-2.1499785670343341
 30
0.0
 42
0.1681572645226206
  0
VERTEX
  5
1EA2
  8
SAPA_PROFIL
 10
-51.532521788160707
 20
-2.2141619167958839
 30
0.0
  0
VERTEX
  5
1EA3
  8
SAPA_PROFIL
 10
-52.499999999011791
 20
-3.0749890967481401
 30
0.0
  0
VERTEX
  5
1EA4
  8
SAPA_PROFIL
 10
-52.499999999011841
 20
-4.6999996264640913
 30
0.0
 42
0.4142135623730951
  0
VERTEX
  5
1EA5
  8
SAPA_PROFIL
 10
-52.19999999901183
 20
-4.9999996264641018
 30
0.0
  0
VERTEX
  5
1EA6
  8
SAPA_PROFIL
 10
-31.00000000000189
 20
-4.999999626463925
 30
0.0
 42
-0.4142135623730951
  0
VERTEX
  5
1EA7
  8
SAPA_PROFIL
 10
-30.00000000000189
 20
-5.999999626463925
 30
0.0
  0
VERTEX
  5
1EA8
  8
SAPA_PROFIL
 10
-30.00000000000178
 20
-14.19999962646232
 30
0.0
 42
-0.4142135623730951
  0
VERTEX
  5
1EA9
  8
SAPA_PROFIL
 10
-30.500000000001769
 20
-14.69999962646232
 30
0.0
  0
VERTEX
  5
1EAA
  8
SAPA_PROFIL
 10
-33.700000000001822
 20
-14.69999962646232
 30
0.0
 42
-0.4142135623730951
  0
VERTEX
  5
1EAB
  8
SAPA_PROFIL
 10
-34.200000000001822
 20
-14.19999962646232
 30
0.0
  0
VERTEX
  5
1EAC
  8
SAPA_PROFIL
 10
-34.200000000001602
 20
-11.2999996264624
 30
0.0
 42
0.4142135623730951
  0
VERTEX
  5
1EAD
  8
SAPA_PROFIL
 10
-34.500000000001549
 20
-10.99999962646244
 30
0.0
  0
VERTEX
  5
1EAE
  8
SAPA_PROFIL
 10
-35.200000000001708
 20
-10.99999962646233
 30
0.0
 42
0.4142135623730951
  0
VERTEX
  5
1EAF
  8
SAPA_PROFIL
 10
-35.500000000001783
 20
-11.299999626462171
 30
0.0
  0
VERTEX
  5
1EB0
  8
SAPA_PROFIL
 10
-35.500000000001663
 20
-17.651668149107469
 30
0.0
 42
0.1691807452124953
  0
VERTEX
  5
1EB1
  8
SAPA_PROFIL
 10
-35.283588601450802
 20
-18.272948201643359
 30
0.0
  0
VERTEX
  5
1EB2
  8
SAPA_PROFIL
 10
-35.03507658043641
 20
-18.58638364222303
 30
0.0
 42
0.7105995015650612
  0
VERTEX
  5
1EB3
  8
SAPA_PROFIL
 10
-34.500000000001549
 20
-18.399999626462201
 30
0.0
  0
VERTEX
  5
1EB4
  8
SAPA_PROFIL
 10
-34.500000000001783
 20
-16.49999962646239
 30
0.0
 42
-0.4142135623732061
  0
VERTEX
  5
1EB5
  8
SAPA_PROFIL
 10
-34.200000000001602
 20
-16.199999626462319
 30
0.0
  0
VERTEX
  5
1EB6
  8
SAPA_PROFIL
 10
-30.500000000001769
 20
-16.199999626462429
 30
0.0
 42
-0.4142135623730951
  0
SEQEND
  5
1EB7
  8
SAPA_PROFIL
  0
LINE
  5
1A5A
  8
SAPA_PROFIL
 62
     0
 10
41.387268607697358
 20
26.696374173179471
 30
0.0
 11
40.903121456642623
 21
27.180521324234231
 31
0.0
  0
LINE
  5
1A5B
  8
SAPA_PROFIL
 62
     0
 10
41.306491262576678
 20
25.009384565333821
 30
0.0
 11
39.13535450367624
 21
27.180521324234231
 31
0.0
  0
LINE
  5
1A5C
  8
SAPA_PROFIL
 62
     0
 10
39.538724309610302
 20
25.009384565333821
 30
0.0
 11
37.367587550709857
 21
27.180521324234231
 31
0.0
  0
LINE
  5
1A5D
  8
SAPA_PROFIL
 62
     0
 10
37.770957356643919
 20
25.009384565333821
 30
0.0
 11
35.59982059774353
 21
27.180521324234231
 31
0.0
  0
LINE
  5
1A5E
  8
SAPA_PROFIL
 62
     0
 10
36.003190403677543
 20
25.009384565333821
 30
0.0
 11
33.832053644777147
 21
27.180521324234231
 31
0.0
  0
LINE
  5
1A5F
  8
SAPA_PROFIL
 62
     0
 10
27.164355638845731
 20
25.009384565333821
 30
0.0
 11
26.43054871305009
 21
25.743191491129469
 31
0.0
  0
LINE
  5
1A60
  8
SAPA_PROFIL
 62
     0
 10
28.93212259181206
 20
25.009384565333821
 30
0.0
 11
26.760985832911668
 21
27.180521324234231
 31
0.0
  0
LINE
  5
1A61
  8
SAPA_PROFIL
 62
     0
 10
30.699889544778451
 20
25.009384565333821
 30
0.0
 11
28.528752785878059
 21
27.180521324234231
 31
0.0
  0
LINE
  5
1A62
  8
SAPA_PROFIL
 62
     0
 10
32.467656497744827
 20
25.009384565333821
 30
0.0
 11
30.296519738844381
 21
27.180521324234231
 31
0.0
  0
LINE
  5
1A63
  8
SAPA_PROFIL
 62
     0
 10
34.23542345071121
 20
25.009384565333821
 30
0.0
 11
32.064286691810771
 21
27.180521324234231
 31
0.0
  0
LINE
  5
1A64
  8
SAPA_PROFIL
 62
     0
 10
40.158205981169601
 20
25.009384565333821
 30
0.0
 11
41.387268607697358
 21
26.238447191861638
 31
0.0
  0
LINE
  5
1A65
  8
SAPA_PROFIL
 62
     0
 10
38.390439028203218
 20
25.009384565333821
 30
0.0
 11
40.561575787103664
 21
27.180521324234231
 31
0.0
  0
LINE
  5
1A66
  8
SAPA_PROFIL
 62
     0
 10
36.622672075236828
 20
25.009384565333821
 30
0.0
 11
38.79380883413728
 21
27.180521324234231
 31
0.0
  0
LINE
  5
1A67
  8
SAPA_PROFIL
 62
     0
 10
34.854905122270509
 20
25.009384565333821
 30
0.0
 11
37.026041881170897
 21
27.180521324234231
 31
0.0
  0
LINE
  5
1A68
  8
SAPA_PROFIL
 62
     0
 10
33.087138169304133
 20
25.009384565333821
 30
0.0
 11
35.258274928204521
 21
27.180521324234231
 31
0.0
  0
LINE
  5
1A69
  8
SAPA_PROFIL
 62
     0
 10
26.43054871305009
 20
25.42386292094529
 30
0.0
 11
28.187207116339039
 21
27.180521324234231
 31
0.0
  0
LINE
  5
1A6A
  8
SAPA_PROFIL
 62
     0
 10
27.78383731040503
 20
25.009384565333821
 30
0.0
 11
29.954974069305418
 21
27.180521324234231
 31
0.0
  0
LINE
  5
1A6B
  8
SAPA_PROFIL
 62
     0
 10
29.55160426337136
 20
25.009384565333821
 30
0.0
 11
31.722741022271808
 21
27.180521324234231
 31
0.0
  0
LINE
  5
1A6C
  8
SAPA_PROFIL
 62
     0
 10
31.319371216337739
 20
25.009384565333821
 30
0.0
 11
33.490507975238188
 21
27.180521324234231
 31
0.0
  0
LINE
  5
1A6D
  8
SAPA_PROFIL
 62
     0
 10
42.368339987301901
 20
41.101220568616611
 30
0.0
 11
41.100466111177013
 21
42.369094444741563
 31
0.0
  0
LINE
  5
1A6E
  8
SAPA_PROFIL
 62
     0
 10
42.368339987301901
 20
39.333453615650228
 30
0.0
 11
41.017410448430553
 21
40.684383154521583
 31
0.0
  0
LINE
  5
1A6F
  8
SAPA_PROFIL
 62
     0
 10
42.368339987301901
 20
37.565686662683902
 30
0.0
 11
41.017410448430553
 21
38.916616201555257
 31
0.0
  0
LINE
  5
1A70
  8
SAPA_PROFIL
 62
     0
 10
42.368339987301901
 20
35.797919709717519
 30
0.0
 11
41.017410448430553
 21
37.148849248588881
 31
0.0
  0
LINE
  5
1A71
  8
SAPA_PROFIL
 62
     0
 10
41.814302157073648
 20
29.280889728080329
 30
0.0
 11
41.017410448430553
 21
30.077781436723399
 31
0.0
  0
LINE
  5
1A72
  8
SAPA_PROFIL
 62
     0
 10
42.368339987301901
 20
30.494618850818402
 30
0.0
 11
41.017410448430553
 21
31.84554838968975
 31
0.0
  0
LINE
  5
1A73
  8
SAPA_PROFIL
 62
     0
 10
42.368339987301901
 20
32.262385803784781
 30
0.0
 11
41.017410448430553
 21
33.613315342656144
 31
0.0
  0
LINE
  5
1A74
  8
SAPA_PROFIL
 62
     0
 10
42.368339987301901
 20
34.030152756751143
 30
0.0
 11
41.017410448430553
 21
35.381082295622491
 31
0.0
  0
LINE
  5
1A75
  8
SAPA_PROFIL
 62
     0
 10
41.017410448430553
 20
29.812844389529861
 30
0.0
 11
42.368339987301901
 21
31.163773928401191
 31
0.0
  0
LINE
  5
1A76
  8
SAPA_PROFIL
 62
     0
 10
41.017410448430553
 20
31.580611342496208
 30
0.0
 11
42.368339987301901
 21
32.931540881367567
 31
0.0
  0
LINE
  5
1A77
  8
SAPA_PROFIL
 62
     0
 10
41.017410448430553
 20
33.348378295462588
 30
0.0
 11
42.368339987301901
 21
34.699307834333929
 31
0.0
  0
LINE
  5
1A78
  8
SAPA_PROFIL
 62
     0
 10
41.017410448430553
 20
42.187213060294432
 30
0.0
 11
41.199291832877677
 21
42.369094444741563
 31
0.0
  0
LINE
  5
1A79
  8
SAPA_PROFIL
 62
     0
 10
41.017410448430553
 20
40.419446107328042
 30
0.0
 11
42.368339987301901
 21
41.77037564619939
 31
0.0
  0
LINE
  5
1A7A
  8
SAPA_PROFIL
 62
     0
 10
41.017410448430553
 20
38.651679154361723
 30
0.0
 11
42.368339987301901
 21
40.002608693233007
 31
0.0
  0
LINE
  5
1A7B
  8
SAPA_PROFIL
 62
     0
 10
41.017410448430553
 20
36.883912201395333
 30
0.0
 11
42.368339987301901
 21
38.234841740266688
 31
0.0
  0
LINE
  5
1A7C
  8
SAPA_PROFIL
 62
     0
 10
41.017410448430553
 20
35.11614524842895
 30
0.0
 11
42.368339987301901
 21
36.467074787300312
 31
0.0
  0
LINE
  5
1A7D
  8
SAPA_PROFIL
 10
-83.396440251906995
 20
-8.1554691837842341
 30
0.0
 11
-82.653051271135723
 21
-10.999999999999609
 31
0.0
  0
LINE
  5
1A7E
  8
SAPA_PROFIL
 10
31.199999999996411
 20
28.700000373538259
 30
0.0
 11
31.199999999996411
 21
60.957152116740893
 31
0.0
  0
LINE
  5
1A7F
  8
SAPA_PROFIL
 10
30.441791374795908
 20
28.75763204886492
 30
0.0
 11
30.441791374795859
 21
60.957152116740893
 31
0.0
  0
LINE
  5
1A80
  8
SAPA_PROFIL
 10
29.74179137479587
 20
28.75763204886492
 30
0.0
 11
29.74179137479581
 21
60.957152116740893
 31
0.0
  0
LINE
  5
1A81
  8
SAPA_PROFIL
 10
40.97543824846673
 20
28.82269299792198
 30
0.0
 11
40.97543824846678
 21
60.957152116740907
 31
0.0
  0
LINE
  5
1AA0
  8
SAPA_GLAS
 10
-84.999999999999503
 20
-37.999999252923367
 30
0.0
 11
-68.999999999999503
 21
-37.999999252923367
 31
0.0
  0
LINE
  5
1AA1
  8
SAPA_GLAS
 10
-84.999999999999474
 20
-25.99999925292337
 30
0.0
 11
-68.999999999999474
 21
-25.99999925292337
 31
0.0
1001
ACAD
1000
ASC_BOUNDS
1002
{
1070
    19
1005
1AA7
1002
}
  0
LINE
  5
1AA2
  8
SAPA_GLAS
 10
-81.999999999999488
 20
-10.99999925292337
 30
0.0
 11
-84.999999999999474
 21
-10.99999925292337
 31
0.0
1001
ACAD
1000
ASC_BOUNDS
1002
{
1070
    19
1005
1AA7
1002
}
  0
LINE
  5
1AA3
  8
SAPA_GLAS
 10
-68.999999999999474
 20
-10.99999925292337
 30
0.0
 11
-71.999999999999488
 21
-10.99999925292337
 31
0.0
1001
ACAD
1000
ASC_BOUNDS
1002
{
1070
    19
1005
1AA7
1002
}
  0
POLYLINE
  5
1AA4
  8
SAPA_GLAS
 66
     1
 10
0.0
 20
0.0
 30
0.0
1001
ACAD
1000
ASC_BOUNDS
1002
{
1070
    19
1005
1AA7
1002
}
  0
VERTEX
  5
1F1A
  8
SAPA_GLAS
 10
-90.999999999999488
 20
-40.999999252923359
 30
0.0
  0
VERTEX
  5
1F1B
  8
SAPA_GLAS
 10
-90.999999999999488
 20
-10.99999925292337
 30
0.0
  0
VERTEX
  5
1F1C
  8
SAPA_GLAS
 10
-84.999999999999474
 20
-10.99999925292337
 30
0.0
  0
VERTEX
  5
1F1D
  8
SAPA_GLAS
 10
-84.999999999999503
 20
-40.999999252923359
 30
0.0
  0
SEQEND
  5
1F1E
  8
SAPA_GLAS
  0
POLYLINE
  5
1AA5
  8
SAPA_GLAS
 66
     1
 10
0.0
 20
0.0
 30
0.0
1001
ACAD
1000
ASC_BOUNDS
1002
{
1070
    19
1005
1AA7
1002
}
  0
VERTEX
  5
1F1F
  8
SAPA_GLAS
 10
-68.999999999999503
 20
-40.999999252923367
 30
0.0
  0
VERTEX
  5
1F20
  8
SAPA_GLAS
 10
-68.999999999999474
 20
-10.99999925292337
 30
0.0
  0
VERTEX
  5
1F21
  8
SAPA_GLAS
 10
-62.999999999999488
 20
-10.99999925292337
 30
0.0
  0
VERTEX
  5
1F22
  8
SAPA_GLAS
 10
-62.999999999999503
 20
-40.999999252923367
 30
0.0
  0
SEQEND
  5
1F23
  8
SAPA_GLAS
  0
POLYLINE
  5
1AA6
  8
SAPA_GLAS
 66
     1
 10
0.0
 20
0.0
 30
0.0
 70
     1
1001
ACAD
1000
ASC_BOUNDS
1002
{
1070
    19
1005
1AA7
1002
}
  0
VERTEX
  5
1F24
  8
SAPA_GLAS
 10
-80.199999999999477
 20
-18.99999925292337
 30
0.0
  0
VERTEX
  5
1F25
  8
SAPA_GLAS
 10
-73.7999999999995
 20
-18.99999925292337
 30
0.0
 42
0.4142135623730951
  0
VERTEX
  5
1F26
  8
SAPA_GLAS
 10
-73.499999999999488
 20
-18.699999252923359
 30
0.0
  0
VERTEX
  5
1F27
  8
SAPA_GLAS
 10
-73.499999999999488
 20
-10.99999925292337
 30
0.0
  0
VERTEX
  5
1F28
  8
SAPA_GLAS
 10
-71.999999999999488
 20
-10.99999925292337
 30
0.0
  0
VERTEX
  5
1F29
  8
SAPA_GLAS
 10
-71.999999999999488
 20
-20.699999252923359
 30
0.0
 42
-0.4142135623730951
  0
VERTEX
  5
1F2A
  8
SAPA_GLAS
 10
-72.2999999999995
 20
-20.99999925292337
 30
0.0
  0
VERTEX
  5
1F2B
  8
SAPA_GLAS
 10
-81.699999999999477
 20
-20.99999925292337
 30
0.0
 42
-0.4142135623730951
  0
VERTEX
  5
1F2C
  8
SAPA_GLAS
 10
-81.999999999999488
 20
-20.699999252923359
 30
0.0
  0
VERTEX
  5
1F2D
  8
SAPA_GLAS
 10
-81.999999999999488
 20
-10.99999925292337
 30
0.0
  0
VERTEX
  5
1F2E
  8
SAPA_GLAS
 10
-80.499999999999488
 20
-10.99999925292337
 30
0.0
  0
VERTEX
  5
1F2F
  8
SAPA_GLAS
 10
-80.499999999999488
 20
-18.699999252923359
 30
0.0
 42
0.4142135623730951
  0
SEQEND
  5
1F30
  8
SAPA_GLAS
  0
INSERT
  5
1AA7
  8
SAPA_GLAS
  6
CONTINUOUS
  2
*X72
 10
0.0
 20
0.0
 30
0.0
1001
GRADIENTCOLOR1ACI
1070
     5
1001
GRADIENTCOLOR2ACI
1070
     2
1001
ACAD
1000
HATCH
1002
{
1070
    19
1000
ANSI37
1040
0.25
1040
0.0
1000
ASC_BOUNDS
1070
     1
1070
     1
1070
     6
1005
1AA2
1005
1AA4
1005
1AA1
1005
1AA5
1005
1AA3
1005
1AA6
1000
ASC_SEEDPOINT
1011
-79.450586921254398
1021
0.0
1031
0.0
1021
-21.804616525189878
1031
0.0
1000
R14_HATCH_DATA
1000
1AA7
1011
1.0
1021
0.0
1031
0.0
1021
0.0
1031
0.0
1011
0.0
1021
0.0
1031
0.0
1021
1.0
1031
0.0
1011
0.0
1021
0.0
1031
0.0
1021
0.0
1031
1.0
1040
0.0
1010
0.0
1020
0.0
1030
1.0
1000
ANSI37
1070
     0
1070
     1
1071
        1
1071
        7
1070
     1
1070
     1
1071
       10
1040
-72.2999999999995
1040
-20.99999925292337
1040
0.4142135623730951
1040
-71.999999999999488
1040
-20.699999252923359
1040
0.0
1040
-71.999999999999488
1040
-10.99999925292337
1040
0.0
1040
-68.999999999999474
1040
-10.99999925292337
1040
0.0
1040
-68.999999999999474
1040
-25.99999925292337
1040
0.0
1040
-84.999999999999474
1040
-25.99999925292337
1040
0.0
1040
-84.999999999999474
1040
-10.99999925292337
1040
0.0
1040
-81.999999999999488
1040
-10.99999925292337
1040
0.0
1040
-81.999999999999488
1040
-20.699999252923359
1040
0.4142135623730951
1040
-81.699999999999477
1040
-20.99999925292337
1040
0.0
1071
        6
1005
1AA6
1005
1AA3
1005
1AA5
1005
1AA1
1005
1AA4
1005
1AA2
1070
     1
1070
     1
1040
0.0
1040
0.25
1070
     0
1070
     2
1040
0.7853981633974483
1040
0.0
1040
0.0
1040
-0.5612660075668221
1040
0.5612660075668221
1070
     0
1040
2.3561944901923439
1040
0.0
1040
0.0
1040
-0.5612660075668221
1040
-0.5612660075668221
1070
     0
1040
0.1332406017304326
1071
        1
1040
-79.450586921254398
1040
-21.804616525189878
1040
0.0
1002
}
  0
LINE
  5
1AEF
  8
SAPA_ISOLATOR
 10
-70.199999999012164
 20
3.8000003735347709
 30
0.0
 11
-63.099999999012191
 21
3.800000373535795
 31
0.0
  0
ARC
  5
1AF0
  8
SAPA_ISOLATOR
 10
-70.199999999012164
 20
3.3000003735347709
 30
0.0
 40
0.5
 50
90.0
 51
180.0
  0
LINE
  5
1AF1
  8
SAPA_ISOLATOR
 10
-70.699999999012164
 20
-3.2999996264651368
 30
0.0
 11
-70.699999999012164
 21
3.3000003735347709
 31
0.0
  0
ARC
  5
1AF2
  8
SAPA_ISOLATOR
 10
-70.199999999012164
 20
-3.2999996264651368
 30
0.0
 40
0.5
 50
180.0
 51
270.0
  0
LINE
  5
1AF3
  8
SAPA_ISOLATOR
 10
-63.099999999012027
 20
-3.799999626464114
 30
0.0
 11
-70.199999999012164
 21
-3.7999996264651368
 31
0.0
  0
ARC
  5
1AF4
  8
SAPA_ISOLATOR
 10
-63.099999999012091
 20
-3.2999996264641052
 30
0.0
 40
0.5000000000000071
 50
270.00000000000728
 51
359.99999999999898
  0
LINE
  5
1AF5
  8
SAPA_ISOLATOR
 10
-62.599999999012141
 20
3.300000373535795
 30
0.0
 11
-62.599999999012077
 21
-3.299999626464114
 31
0.0
  0
ARC
  5
1AF6
  8
SAPA_ISOLATOR
 10
-63.099999999012127
 20
3.300000373535803
 30
0.0
 40
0.4999999999999912
 50
359.99999999999898
 51
90.000000000007304
  0
LINE
  5
1AF7
  8
SAPA_ISOLATOR
 10
-80.299999999010254
 20
6.8000003735354531
 30
0.0
 11
-71.499999999010072
 21
6.8000003735347709
 31
0.0
  0
ARC
  5
1AF8
  8
SAPA_ISOLATOR
 10
-80.299999999010495
 20
5.8000003735354531
 30
0.0
 40
1.0
 50
89.999999999986969
 51
180.0
  0
LINE
  5
1AF9
  8
SAPA_ISOLATOR
 10
-81.299999999010481
 20
5.087372370187154
 30
0.0
 11
-81.299999999010481
 21
5.8000003735354531
 31
0.0
  0
ARC
  5
1AFA
  8
SAPA_ISOLATOR
 10
-80.999999999010754
 20
5.0873723701873761
 30
0.0
 40
0.2999999999997271
 50
180.00000000004241
 51
230.00000000006
  0
LINE
  5
1AFB
  8
SAPA_ISOLATOR
 10
-80.492055318909081
 20
4.2695339896559972
 30
0.0
 11
-81.192836281916286
 21
4.857559037251689
 31
0.0
  0
ARC
  5
1AFC
  8
SAPA_ISOLATOR
 10
-80.299999999010026
 20
4.500000373534812
 30
0.0
 40
0.2999999999994998
 50
230.19442890772871
 51
0.0000000000442733
  0
LINE
  5
1AFD
  8
SAPA_ISOLATOR
 10
-79.999999999010072
 20
5.3000003735349992
 30
0.0
 11
-79.999999999010527
 21
4.5000003735350438
 31
0.0
  0
ARC
  5
1AFE
  8
SAPA_ISOLATOR
 10
-79.699999999010458
 20
5.3000003735351147
 30
0.0
 40
0.2999999999996108
 50
89.999999999934857
 51
180.0000000000222
  0
LINE
  5
1AFF
  8
SAPA_ISOLATOR
 10
-72.499999999010527
 20
5.6000003735344981
 30
0.0
 11
-79.699999999010117
 21
5.6000003735347264
 31
0.0
  0
ARC
  5
1B00
  8
SAPA_ISOLATOR
 10
-72.50013621431691
 20
5.299671520693777
 30
0.0
 40
0.3003288837312077
 50
270.02598671944082
 51
89.974013280602605
  0
LINE
  5
1B01
  8
SAPA_ISOLATOR
 10
-72.499999999010242
 20
0.8660257773196917
 30
0.0
 11
-72.499999999010299
 21
4.9993426678530559
 31
0.0
  0
LINE
  5
1B02
  8
SAPA_ISOLATOR
 10
-71.999999999010129
 20
0.0000003735350447
 30
0.0
 11
-72.499999999010242
 21
0.8660257773196917
 31
0.0
  0
LINE
  5
1B03
  8
SAPA_ISOLATOR
 10
-72.499999999010015
 20
-0.8660250302492613
 30
0.0
 11
-71.999999999010129
 21
0.0000003735350447
 31
0.0
  0
LINE
  5
1B04
  8
SAPA_ISOLATOR
 10
-72.499999999010299
 20
-4.9993419207834222
 30
0.0
 11
-72.499999999010015
 21
-0.8660250302492613
 31
0.0
  0
ARC
  5
1B05
  8
SAPA_ISOLATOR
 10
-72.500136214317138
 20
-5.2996707736243698
 30
0.0
 40
0.3003288837314351
 50
270.02598671944082
 51
89.974013280515891
  0
LINE
  5
1B06
  8
SAPA_ISOLATOR
 10
-79.699999999010117
 20
-5.5999996264650909
 30
0.0
 11
-72.499999999010527
 21
-5.5999996264653191
 31
0.0
  0
ARC
  5
1B07
  8
SAPA_ISOLATOR
 10
-79.699999999010345
 20
-5.2999996264651372
 30
0.0
 40
0.2999999999999545
 50
180.0000000000434
 51
270.00000000004343
  0
LINE
  5
1B08
  8
SAPA_ISOLATOR
 10
-79.999999999010527
 20
-4.4999996264644997
 30
0.0
 11
-79.999999999010299
 21
-5.2999996264653637
 31
0.0
  0
ARC
  5
1B09
  8
SAPA_ISOLATOR
 10
-80.299999999010467
 20
-4.4999996264635982
 30
0.0
 40
0.2999999999999353
 50
359.99999999982771
 51
129.805571092094
  0
LINE
  5
1B0A
  8
SAPA_ISOLATOR
 10
-81.192836281916286
 20
-4.8575582901793259
 30
0.0
 11
-80.492055318909081
 21
-4.2695332425838606
 31
0.0
  0
ARC
  5
1B0B
  8
SAPA_ISOLATOR
 10
-80.999999999010555
 20
-5.0873716231150992
 30
0.0
 40
0.2999999999999119
 50
129.99999999995649
 51
179.99999999998451
  0
LINE
  5
1B0C
  8
SAPA_ISOLATOR
 10
-81.299999999010481
 20
-5.7999996264653637
 30
0.0
 11
-81.299999999010481
 21
-5.0873716231150183
 31
0.0
  0
ARC
  5
1B0D
  8
SAPA_ISOLATOR
 10
-80.299999999010495
 20
-5.7999996264653362
 30
0.0
 40
0.9999999999999715
 50
180.00000000000159
 51
270.00000000000171
  0
LINE
  5
1B0E
  8
SAPA_ISOLATOR
 10
-71.499999999010527
 20
-6.7999996264650804
 30
0.0
 11
-80.299999999010495
 21
-6.7999996264653069
 31
0.0
  0
ARC
  5
1B0F
  8
SAPA_ISOLATOR
 10
-71.499999999010157
 20
-6.2999996264648814
 30
0.0
 40
0.500000000000199
 50
269.99999999995759
 51
359.99999999997061
  0
LINE
  5
1B10
  8
SAPA_ISOLATOR
 10
-70.999999999009958
 20
-5.4999996264676829
 30
0.0
 11
-70.999999999009958
 21
-6.2999996264651372
 31
0.0
  0
ARC
  5
1B11
  8
SAPA_ISOLATOR
 10
-70.499999999009958
 20
-5.4999996264676829
 30
0.0
 40
0.5
 50
90.0
 51
180.0
  0
LINE
  5
1B12
  8
SAPA_ISOLATOR
 10
-52.999999999011997
 20
-4.9999996264624542
 30
0.0
 11
-70.499999999009958
 21
-4.9999996264676829
 31
0.0
  0
ARC
  5
1B13
  8
SAPA_ISOLATOR
 10
-52.999999999011997
 20
-4.4999996264624542
 30
0.0
 40
0.5
 50
270.0
 51
0.0
  0
LINE
  5
1B14
  8
SAPA_ISOLATOR
 10
-52.499999999011997
 20
-3.099999252924249
 30
0.0
 11
-52.499999999011997
 21
-4.4999996264624542
 31
0.0
  0
LINE
  5
1B15
  8
SAPA_ISOLATOR
 10
-51.700000372551528
 20
-2.2999996264639999
 30
0.0
 11
-52.499999999011997
 21
-3.099999252924249
 31
0.0
  0
LINE
  5
1B16
  8
SAPA_ISOLATOR
 10
-47.241781050847912
 20
-2.2999996264639999
 30
0.0
 11
-51.700000372551528
 21
-2.2999996264639999
 31
0.0
  0
ARC
  5
1B17
  8
SAPA_ISOLATOR
 10
-49.344890072917273
 20
4.1158137332288911
 30
0.0
 40
6.751720419650332
 50
288.14918733854262
 51
310.32822698929499
  0
ARC
  5
1B18
  8
SAPA_ISOLATOR
 10
-45.85642357346304
 20
0.0000007470754409
 30
0.0
 40
1.356423574450988
 50
310.50482872848471
 51
49.495171271521613
  0
ARC
  5
1B19
  8
SAPA_ISOLATOR
 10
-49.344890072919561
 20
-4.1158122390722687
 30
0.0
 40
6.7517204196474427
 50
49.671773010659912
 51
71.850792308486703
  0
LINE
  5
1B1A
  8
SAPA_ISOLATOR
 10
-51.699999625472572
 20
2.3000003735359078
 30
0.0
 11
-47.241778771785278
 21
2.3000003735377268
 31
0.0
  0
LINE
  5
1B1B
  8
SAPA_ISOLATOR
 10
-52.499999999011997
 20
3.1000007470753408
 30
0.0
 11
-51.699999625472572
 21
2.3000003735359078
 31
0.0
  0
LINE
  5
1B1C
  8
SAPA_ISOLATOR
 10
-52.499999999011997
 20
4.500000373537091
 30
0.0
 11
-52.499999999011997
 21
3.1000007470753408
 31
0.0
  0
ARC
  5
1B1D
  8
SAPA_ISOLATOR
 10
-52.999999999011997
 20
4.500000373537091
 30
0.0
 40
0.5
 50
0.0
 51
90.0
  0
LINE
  5
1B1E
  8
SAPA_ISOLATOR
 10
-70.499999999009958
 20
5.0000003735373184
 30
0.0
 11
-52.999999999011997
 21
5.000000373537091
 31
0.0
  0
ARC
  5
1B1F
  8
SAPA_ISOLATOR
 10
-70.499999999009958
 20
5.5000003735373184
 30
0.0
 40
0.5
 50
180.0
 51
270.0
  0
LINE
  5
1B20
  8
SAPA_ISOLATOR
 10
-70.999999999009958
 20
6.3000003735347709
 30
0.0
 11
-70.999999999009958
 21
5.5000003735373184
 31
0.0
  0
ARC
  5
1B21
  8
SAPA_ISOLATOR
 10
-71.499999999009987
 20
6.3000003735347434
 30
0.0
 40
0.5000000000000285
 50
0.0000000000032569
 51
90.000000000009763
  0
ARC
  5
1B22
  8
SAPA_ISOLATOR
 10
-53.999999999011777
 20
3.500000373537318
 30
0.0
 40
0.2999999999999545
 50
0.0
 51
90.000000000043414
  0
LINE
  5
1B23
  8
SAPA_ISOLATOR
 10
-61.099999999012141
 20
3.8000003735361361
 30
0.0
 11
-53.999999999012012
 21
3.800000373537272
 31
0.0
  0
ARC
  5
1B24
  8
SAPA_ISOLATOR
 10
-61.09999999901207
 20
3.3000003735361232
 30
0.0
 40
0.5000000000000142
 50
90.000000000008114
 51
179.99999999999861
  0
LINE
  5
1B25
  8
SAPA_ISOLATOR
 10
-61.59999999901202
 20
-3.2999996264636589
 30
0.0
 11
-61.599999999012077
 21
3.3000003735361361
 31
0.0
  0
ARC
  5
1B26
  8
SAPA_ISOLATOR
 10
-61.099999999012027
 20
-3.2999996264636682
 30
0.0
 40
0.4999999999999912
 50
179.99999999999901
 51
270.00000000000728
  0
LINE
  5
1B27
  8
SAPA_ISOLATOR
 10
-53.999999999012012
 20
-3.7999996264626361
 30
0.0
 11
-61.09999999901197
 21
-3.7999996264636589
 31
0.0
  0
ARC
  5
1B28
  8
SAPA_ISOLATOR
 10
-53.999999999012111
 20
-3.499999626462567
 30
0.0
 40
0.3000000000000682
 50
270.0000000000216
 51
359.99999999997829
  0
LINE
  5
1B29
  8
SAPA_ISOLATOR
 10
-53.69999999901205
 20
-2.6029429780766118
 30
0.0
 11
-53.69999999901205
 21
-3.4999996264626811
 31
0.0
  0
LINE
  5
1B2A
  8
SAPA_ISOLATOR
 10
-52.197056647398938
 20
-1.099999626463954
 30
0.0
 11
-53.69999999901205
 21
-2.6029429780766118
 31
0.0
  0
LINE
  5
1B2B
  8
SAPA_ISOLATOR
 10
-46.478138086686783
 20
-1.099999626463954
 30
0.0
 11
-52.197056647398938
 21
-1.099999626463954
 31
0.0
  0
ARC
  5
1B2C
  8
SAPA_ISOLATOR
 10
-49.345115413884287
 20
4.1161789070879093
 30
0.0
 40
5.9521489807087189
 50
298.79459217278452
 51
310.3038695677597
  0
ARC
  5
1B2D
  8
SAPA_ISOLATOR
 10
-45.85642357346336
 20
0.000000747075724
 30
0.0
 40
0.5564235744509308
 50
310.50482872843122
 51
49.495171271476437
  0
ARC
  5
1B2E
  8
SAPA_ISOLATOR
 10
-49.345115414542249
 20
-4.1161774138437739
 30
0.0
 40
5.9521489818262543
 50
49.69613043305101
 51
61.20539289560255
  0
LINE
  5
1B2F
  8
SAPA_ISOLATOR
 10
-52.197055900320429
 20
1.1000003735360899
 30
0.0
 11
-46.47813672744013
 21
1.1000003735363171
 31
0.0
  0
LINE
  5
1B30
  8
SAPA_ISOLATOR
 10
-53.699999999011823
 20
2.602944472227477
 30
0.0
 11
-52.197055900320429
 21
1.1000003735360899
 31
0.0
  0
LINE
  5
1B31
  8
SAPA_ISOLATOR
 10
-53.699999999011823
 20
3.500000373537318
 30
0.0
 11
-53.699999999011823
 21
2.602944472227477
 31
0.0
  0
POLYLINE
  5
1B47
  8
SAPA_FOGBAND
 10
-40.499999966998303
 20
-21.699999252916893
 30
0.0
 66
     1
 70
     8
  0
VERTEX
  8
SAPA_FOGBAND
  5
20F2
 10
-40.5000
 20
-21.7000
 30
0.000000
  70
    32
  0
VERTEX
  8
SAPA_FOGBAND
  5
20F3
 10
-40.4964
 20
-21.6117
 30
0.000000
  70
    32
  0
VERTEX
  8
SAPA_FOGBAND
  5
20F4
 10
-40.4858
 20
-21.5236
 30
0.000000
  70
    32
  0
VERTEX
  8
SAPA_FOGBAND
  5
20F5
 10
-40.4680
 20
-21.4359
 30
0.000000
  70
    32
  0
VERTEX
  8
SAPA_FOGBAND
  5
20F6
 10
-40.4432
 20
-21.3488
 30
0.000000
  70
    32
  0
VERTEX
  8
SAPA_FOGBAND
  5
20F7
 10
-40.4115
 20
-21.2626
 30
0.000000
  70
    32
  0
VERTEX
  8
SAPA_FOGBAND
  5
20F8
 10
-40.3728
 20
-21.1775
 30
0.000000
  70
    32
  0
VERTEX
  8
SAPA_FOGBAND
  5
20F9
 10
-40.3273
 20
-21.0936
 30
0.000000
  70
    32
  0
VERTEX
  8
SAPA_FOGBAND
  5
20FA
 10
-40.2751
 20
-21.0112
 30
0.000000
  70
    32
  0
VERTEX
  8
SAPA_FOGBAND
  5
20FB
 10
-40.2163
 20
-20.9304
 30
0.000000
  70
    32
  0
VERTEX
  8
SAPA_FOGBAND
  5
20FC
 10
-40.1512
 20
-20.8515
 30
0.000000
  70
    32
  0
VERTEX
  8
SAPA_FOGBAND
  5
20FD
 10
-40.0797
 20
-20.7746
 30
0.000000
  70
    32
  0
VERTEX
  8
SAPA_FOGBAND
  5
20FE
 10
-40.0021
 20
-20.7000
 30
0.000000
  70
    32
  0
VERTEX
  8
SAPA_FOGBAND
  5
20FF
 10
-39.9186
 20
-20.6277
 30
0.000000
  70
    32
  0
VERTEX
  8
SAPA_FOGBAND
  5
2100
 10
-39.8294
 20
-20.5581
 30
0.000000
  70
    32
  0
VERTEX
  8
SAPA_FOGBAND
  5
2101
 10
-39.7347
 20
-20.4912
 30
0.000000
  70
    32
  0
VERTEX
  8
SAPA_FOGBAND
  5
2102
 10
-39.6347
 20
-20.4272
 30
0.000000
  70
    32
  0
VERTEX
  8
SAPA_FOGBAND
  5
2103
 10
-39.5297
 20
-20.3663
 30
0.000000
  70
    32
  0
VERTEX
  8
SAPA_FOGBAND
  5
2104
 10
-39.4199
 20
-20.3086
 30
0.000000
  70
    32
  0
VERTEX
  8
SAPA_FOGBAND
  5
2105
 10
-39.3055
 20
-20.2542
 30
0.000000
  70
    32
  0
VERTEX
  8
SAPA_FOGBAND
  5
2106
 10
-39.1870
 20
-20.2034
 30
0.000000
  70
    32
  0
VERTEX
  8
SAPA_FOGBAND
  5
2107
 10
-39.0645
 20
-20.1561
 30
0.000000
  70
    32
  0
VERTEX
  8
SAPA_FOGBAND
  5
2108
 10
-38.9383
 20
-20.1125
 30
0.000000
  70
    32
  0
VERTEX
  8
SAPA_FOGBAND
  5
2109
 10
-38.8088
 20
-20.0728
 30
0.000000
  70
    32
  0
VERTEX
  8
SAPA_FOGBAND
  5
210A
 10
-38.6762
 20
-20.0370
 30
0.000000
  70
    32
  0
VERTEX
  8
SAPA_FOGBAND
  5
210B
 10
-38.5409
 20
-20.0052
 30
0.000000
  70
    32
  0
VERTEX
  8
SAPA_FOGBAND
  5
210C
 10
-38.4032
 20
-19.9775
 30
0.000000
  70
    32
  0
VERTEX
  8
SAPA_FOGBAND
  5
210D
 10
-38.2635
 20
-19.9539
 30
0.000000
  70
    32
  0
VERTEX
  8
SAPA_FOGBAND
  5
210E
 10
-38.1220
 20
-19.9346
 30
0.000000
  70
    32
  0
VERTEX
  8
SAPA_FOGBAND
  5
210F
 10
-37.9791
 20
-19.9195
 30
0.000000
  70
    32
  0
VERTEX
  8
SAPA_FOGBAND
  5
2110
 10
-37.8352
 20
-19.9087
 30
0.000000
  70
    32
  0
VERTEX
  8
SAPA_FOGBAND
  5
2111
 10
-37.6906
 20
-19.9022
 30
0.000000
  70
    32
  0
VERTEX
  8
SAPA_FOGBAND
  5
2112
 10
-37.5456
 20
-19.9000
 30
0.000000
  70
    32
  0
VERTEX
  8
SAPA_FOGBAND
  5
2113
 10
-37.4007
 20
-19.9022
 30
0.000000
  70
    32
  0
VERTEX
  8
SAPA_FOGBAND
  5
2114
 10
-37.2561
 20
-19.9087
 30
0.000000
  70
    32
  0
VERTEX
  8
SAPA_FOGBAND
  5
2115
 10
-37.1121
 20
-19.9195
 30
0.000000
  70
    32
  0
VERTEX
  8
SAPA_FOGBAND
  5
2116
 10
-36.9693
 20
-19.9346
 30
0.000000
  70
    32
  0
VERTEX
  8
SAPA_FOGBAND
  5
2117
 10
-36.8278
 20
-19.9539
 30
0.000000
  70
    32
  0
VERTEX
  8
SAPA_FOGBAND
  5
2118
 10
-36.6880
 20
-19.9775
 30
0.000000
  70
    32
  0
VERTEX
  8
SAPA_FOGBAND
  5
2119
 10
-36.5503
 20
-20.0052
 30
0.000000
  70
    32
  0
VERTEX
  8
SAPA_FOGBAND
  5
211A
 10
-36.4151
 20
-20.0370
 30
0.000000
  70
    32
  0
VERTEX
  8
SAPA_FOGBAND
  5
211B
 10
-36.2825
 20
-20.0728
 30
0.000000
  70
    32
  0
VERTEX
  8
SAPA_FOGBAND
  5
211C
 10
-36.1530
 20
-20.1125
 30
0.000000
  70
    32
  0
VERTEX
  8
SAPA_FOGBAND
  5
211D
 10
-36.0268
 20
-20.1561
 30
0.000000
  70
    32
  0
VERTEX
  8
SAPA_FOGBAND
  5
211E
 10
-35.9043
 20
-20.2034
 30
0.000000
  70
    32
  0
VERTEX
  8
SAPA_FOGBAND
  5
211F
 10
-35.7857
 20
-20.2542
 30
0.000000
  70
    32
  0
VERTEX
  8
SAPA_FOGBAND
  5
2120
 10
-35.6714
 20
-20.3086
 30
0.000000
  70
    32
  0
VERTEX
  8
SAPA_FOGBAND
  5
2121
 10
-35.5616
 20
-20.3663
 30
0.000000
  70
    32
  0
VERTEX
  8
SAPA_FOGBAND
  5
2122
 10
-35.4566
 20
-20.4272
 30
0.000000
  70
    32
  0
VERTEX
  8
SAPA_FOGBAND
  5
2123
 10
-35.3566
 20
-20.4912
 30
0.000000
  70
    32
  0
VERTEX
  8
SAPA_FOGBAND
  5
2124
 10
-35.2619
 20
-20.5581
 30
0.000000
  70
    32
  0
VERTEX
  8
SAPA_FOGBAND
  5
2125
 10
-35.1727
 20
-20.6277
 30
0.000000
  70
    32
  0
VERTEX
  8
SAPA_FOGBAND
  5
2126
 10
-35.0892
 20
-20.7000
 30
0.000000
  70
    32
  0
VERTEX
  8
SAPA_FOGBAND
  5
2127
 10
-35.0116
 20
-20.7746
 30
0.000000
  70
    32
  0
VERTEX
  8
SAPA_FOGBAND
  5
2128
 10
-34.9401
 20
-20.8515
 30
0.000000
  70
    32
  0
VERTEX
  8
SAPA_FOGBAND
  5
2129
 10
-34.8749
 20
-20.9304
 30
0.000000
  70
    32
  0
VERTEX
  8
SAPA_FOGBAND
  5
212A
 10
-34.8162
 20
-21.0112
 30
0.000000
  70
    32
  0
VERTEX
  8
SAPA_FOGBAND
  5
212B
 10
-34.7640
 20
-21.0936
 30
0.000000
  70
    32
  0
VERTEX
  8
SAPA_FOGBAND
  5
212C
 10
-34.7185
 20
-21.1775
 30
0.000000
  70
    32
  0
VERTEX
  8
SAPA_FOGBAND
  5
212D
 10
-34.6798
 20
-21.2626
 30
0.000000
  70
    32
  0
VERTEX
  8
SAPA_FOGBAND
  5
212E
 10
-34.6480
 20
-21.3488
 30
0.000000
  70
    32
  0
VERTEX
  8
SAPA_FOGBAND
  5
212F
 10
-34.6233
 20
-21.4359
 30
0.000000
  70
    32
  0
VERTEX
  8
SAPA_FOGBAND
  5
2130
 10
-34.6055
 20
-21.5236
 30
0.000000
  70
    32
  0
VERTEX
  8
SAPA_FOGBAND
  5
2131
 10
-34.5948
 20
-21.6117
 30
0.000000
  70
    32
  0
VERTEX
  8
SAPA_FOGBAND
  5
2132
 10
-34.5913
 20
-21.7000
 30
0.000000
  70
    32
  0
VERTEX
  8
SAPA_FOGBAND
  5
2133
 10
-34.5948
 20
-21.7883
 30
0.000000
  70
    32
  0
VERTEX
  8
SAPA_FOGBAND
  5
2134
 10
-34.6055
 20
-21.8764
 30
0.000000
  70
    32
  0
VERTEX
  8
SAPA_FOGBAND
  5
2135
 10
-34.6233
 20
-21.9641
 30
0.000000
  70
    32
  0
VERTEX
  8
SAPA_FOGBAND
  5
2136
 10
-34.6480
 20
-22.0512
 30
0.000000
  70
    32
  0
VERTEX
  8
SAPA_FOGBAND
  5
2137
 10
-34.6798
 20
-22.1374
 30
0.000000
  70
    32
  0
VERTEX
  8
SAPA_FOGBAND
  5
2138
 10
-34.7185
 20
-22.2225
 30
0.000000
  70
    32
  0
VERTEX
  8
SAPA_FOGBAND
  5
2139
 10
-34.7640
 20
-22.3064
 30
0.000000
  70
    32
  0
VERTEX
  8
SAPA_FOGBAND
  5
213A
 10
-34.8162
 20
-22.3888
 30
0.000000
  70
    32
  0
VERTEX
  8
SAPA_FOGBAND
  5
213B
 10
-34.8749
 20
-22.4696
 30
0.000000
  70
    32
  0
VERTEX
  8
SAPA_FOGBAND
  5
213C
 10
-34.9401
 20
-22.5485
 30
0.000000
  70
    32
  0
VERTEX
  8
SAPA_FOGBAND
  5
213D
 10
-35.0116
 20
-22.6254
 30
0.000000
  70
    32
  0
VERTEX
  8
SAPA_FOGBAND
  5
213E
 10
-35.0892
 20
-22.7000
 30
0.000000
  70
    32
  0
VERTEX
  8
SAPA_FOGBAND
  5
213F
 10
-35.1727
 20
-22.7723
 30
0.000000
  70
    32
  0
VERTEX
  8
SAPA_FOGBAND
  5
2140
 10
-35.2619
 20
-22.8419
 30
0.000000
  70
    32
  0
VERTEX
  8
SAPA_FOGBAND
  5
2141
 10
-35.3566
 20
-22.9088
 30
0.000000
  70
    32
  0
VERTEX
  8
SAPA_FOGBAND
  5
2142
 10
-35.4566
 20
-22.9728
 30
0.000000
  70
    32
  0
VERTEX
  8
SAPA_FOGBAND
  5
2143
 10
-35.5616
 20
-23.0337
 30
0.000000
  70
    32
  0
VERTEX
  8
SAPA_FOGBAND
  5
2144
 10
-35.6714
 20
-23.0914
 30
0.000000
  70
    32
  0
VERTEX
  8
SAPA_FOGBAND
  5
2145
 10
-35.7857
 20
-23.1458
 30
0.000000
  70
    32
  0
VERTEX
  8
SAPA_FOGBAND
  5
2146
 10
-35.9043
 20
-23.1966
 30
0.000000
  70
    32
  0
VERTEX
  8
SAPA_FOGBAND
  5
2147
 10
-36.0268
 20
-23.2439
 30
0.000000
  70
    32
  0
VERTEX
  8
SAPA_FOGBAND
  5
2148
 10
-36.1530
 20
-23.2875
 30
0.000000
  70
    32
  0
VERTEX
  8
SAPA_FOGBAND
  5
2149
 10
-36.2825
 20
-23.3272
 30
0.000000
  70
    32
  0
VERTEX
  8
SAPA_FOGBAND
  5
214A
 10
-36.4151
 20
-23.3630
 30
0.000000
  70
    32
  0
VERTEX
  8
SAPA_FOGBAND
  5
214B
 10
-36.5503
 20
-23.3948
 30
0.000000
  70
    32
  0
VERTEX
  8
SAPA_FOGBAND
  5
214C
 10
-36.6880
 20
-23.4225
 30
0.000000
  70
    32
  0
VERTEX
  8
SAPA_FOGBAND
  5
214D
 10
-36.8278
 20
-23.4461
 30
0.000000
  70
    32
  0
VERTEX
  8
SAPA_FOGBAND
  5
214E
 10
-36.9693
 20
-23.4654
 30
0.000000
  70
    32
  0
VERTEX
  8
SAPA_FOGBAND
  5
214F
 10
-37.1121
 20
-23.4805
 30
0.000000
  70
    32
  0
VERTEX
  8
SAPA_FOGBAND
  5
2150
 10
-37.2561
 20
-23.4913
 30
0.000000
  70
    32
  0
VERTEX
  8
SAPA_FOGBAND
  5
2151
 10
-37.4007
 20
-23.4978
 30
0.000000
  70
    32
  0
VERTEX
  8
SAPA_FOGBAND
  5
2152
 10
-37.5456
 20
-23.5000
 30
0.000000
  70
    32
  0
VERTEX
  8
SAPA_FOGBAND
  5
2153
 10
-37.6906
 20
-23.4978
 30
0.000000
  70
    32
  0
VERTEX
  8
SAPA_FOGBAND
  5
2154
 10
-37.8352
 20
-23.4913
 30
0.000000
  70
    32
  0
VERTEX
  8
SAPA_FOGBAND
  5
2155
 10
-37.9791
 20
-23.4805
 30
0.000000
  70
    32
  0
VERTEX
  8
SAPA_FOGBAND
  5
2156
 10
-38.1220
 20
-23.4654
 30
0.000000
  70
    32
  0
VERTEX
  8
SAPA_FOGBAND
  5
2157
 10
-38.2635
 20
-23.4461
 30
0.000000
  70
    32
  0
VERTEX
  8
SAPA_FOGBAND
  5
2158
 10
-38.4032
 20
-23.4225
 30
0.000000
  70
    32
  0
VERTEX
  8
SAPA_FOGBAND
  5
2159
 10
-38.5409
 20
-23.3948
 30
0.000000
  70
    32
  0
VERTEX
  8
SAPA_FOGBAND
  5
215A
 10
-38.6762
 20
-23.3630
 30
0.000000
  70
    32
  0
VERTEX
  8
SAPA_FOGBAND
  5
215B
 10
-38.8088
 20
-23.3272
 30
0.000000
  70
    32
  0
VERTEX
  8
SAPA_FOGBAND
  5
215C
 10
-38.9383
 20
-23.2875
 30
0.000000
  70
    32
  0
VERTEX
  8
SAPA_FOGBAND
  5
215D
 10
-39.0645
 20
-23.2439
 30
0.000000
  70
    32
  0
VERTEX
  8
SAPA_FOGBAND
  5
215E
 10
-39.1870
 20
-23.1966
 30
0.000000
  70
    32
  0
VERTEX
  8
SAPA_FOGBAND
  5
215F
 10
-39.3055
 20
-23.1458
 30
0.000000
  70
    32
  0
VERTEX
  8
SAPA_FOGBAND
  5
2160
 10
-39.4199
 20
-23.0914
 30
0.000000
  70
    32
  0
VERTEX
  8
SAPA_FOGBAND
  5
2161
 10
-39.5297
 20
-23.0337
 30
0.000000
  70
    32
  0
VERTEX
  8
SAPA_FOGBAND
  5
2162
 10
-39.6347
 20
-22.9728
 30
0.000000
  70
    32
  0
VERTEX
  8
SAPA_FOGBAND
  5
2163
 10
-39.7347
 20
-22.9088
 30
0.000000
  70
    32
  0
VERTEX
  8
SAPA_FOGBAND
  5
2164
 10
-39.8294
 20
-22.8419
 30
0.000000
  70
    32
  0
VERTEX
  8
SAPA_FOGBAND
  5
2165
 10
-39.9186
 20
-22.7723
 30
0.000000
  70
    32
  0
VERTEX
  8
SAPA_FOGBAND
  5
2166
 10
-40.0021
 20
-22.7000
 30
0.000000
  70
    32
  0
VERTEX
  8
SAPA_FOGBAND
  5
2167
 10
-40.0797
 20
-22.6254
 30
0.000000
  70
    32
  0
VERTEX
  8
SAPA_FOGBAND
  5
2168
 10
-40.1512
 20
-22.5485
 30
0.000000
  70
    32
  0
VERTEX
  8
SAPA_FOGBAND
  5
2169
 10
-40.2163
 20
-22.4696
 30
0.000000
  70
    32
  0
VERTEX
  8
SAPA_FOGBAND
  5
216A
 10
-40.2751
 20
-22.3888
 30
0.000000
  70
    32
  0
VERTEX
  8
SAPA_FOGBAND
  5
216B
 10
-40.3273
 20
-22.3064
 30
0.000000
  70
    32
  0
VERTEX
  8
SAPA_FOGBAND
  5
216C
 10
-40.3728
 20
-22.2225
 30
0.000000
  70
    32
  0
VERTEX
  8
SAPA_FOGBAND
  5
216D
 10
-40.4115
 20
-22.1374
 30
0.000000
  70
    32
  0
VERTEX
  8
SAPA_FOGBAND
  5
216E
 10
-40.4432
 20
-22.0512
 30
0.000000
  70
    32
  0
VERTEX
  8
SAPA_FOGBAND
  5
216F
 10
-40.4680
 20
-21.9641
 30
0.000000
  70
    32
  0
VERTEX
  8
SAPA_FOGBAND
  5
2170
 10
-40.4858
 20
-21.8764
 30
0.000000
  70
    32
  0
VERTEX
  8
SAPA_FOGBAND
  5
2171
 10
-40.4964
 20
-21.7883
 30
0.000000
  70
    32
  0
VERTEX
  8
SAPA_FOGBAND
  5
2172
 10
-40.5000
 20
-21.7000
 30
0.000000
  70
    32
  0
SEQEND
  8
SAPA_FOGBAND
  5
2173
  0
INSERT
  5
1B48
  8
SAPA_FOGBAND
  6
CONTINUOUS
  2
*X74
 10
0.0
 20
0.0
 30
0.0
1001
ACAD
1000
HATCH
1002
{
1070
    19
1000
ANSI37
1040
0.25
1040
-0.0000000000000002
1000
R14_HATCH_DATA
1000
1B48
1011
1.0
1021
0.0
1031
0.0
1021
0.0
1031
0.0
1011
0.0
1021
0.0
1031
0.0
1021
1.0
1031
0.0
1011
0.0
1021
0.0
1031
0.0
1021
0.0
1031
1.0
1040
0.0
1010
0.0
1020
0.0
1030
1.0
1000
ANSI37
1070
     0
1070
     0
1071
        1
1071
        1
1071
        3
1070
     3
1040
-37.545638078316301
1040
-21.699999252915958
1040
-2.9543618886820009
1040
-0.0000000000009329
1040
0.6092686230810487
1040
3.0288543565674959
1040
8.8961375621551824
1070
     1
1070
     2
1040
-36.097247745463861
1040
-21.528105567740479
1040
1.5432917594600579
1040
5.5082984255660516
1040
5.8549249879456822
1070
     1
1070
     1
1040
-34.693331288384883
1040
-22.16901744651955
1040
-34.610031169442713
1040
-21.902498592109382
1071
        0
1070
     0
1070
     1
1040
-0.0000000000000002
1040
0.25
1070
     0
1070
     2
1040
2.3561944901923439
1040
444.38140031398763
1040
-362.90915699464682
1040
0.5612660075668219
1040
0.5612660075668222
1070
     0
1040
0.785398163397449
1040
444.38140031398763
1040
-362.90915699464682
1040
0.5612660075668222
1040
-0.5612660075668219
1070
     0
1071
        1
1040
-37.788408381380343
1040
-21.851616392169699
1040
0.0
1002
}
  0
POLYLINE
  5
1B49
  8
SAPA_FOGBAND
 66
     1
 10
0.0
 20
0.0
 30
0.0
 70
     1
  0
VERTEX
  5
2046
  8
SAPA_FOGBAND
 10
-80.740583234060807
 20
-4.1895206841767978
 30
0.0
  0
VERTEX
  5
2047
  8
SAPA_FOGBAND
 10
-80.517286458802715
 20
-4.1895206841767836
 30
0.0
 42
-0.3500011104185251
  0
VERTEX
  5
2048
  8
SAPA_FOGBAND
 10
-79.737289624367861
 20
-4.8117429063990178
 30
0.0
 42
0.3500011104185275
  0
VERTEX
  5
2049
  8
SAPA_FOGBAND
 10
-78.762293581324286
 20
-5.5895206841767902
 30
0.0
  0
VERTEX
  5
204A
  8
SAPA_FOGBAND
 10
-78.437289624367835
 20
-5.589520684176791
 30
0.0
 42
0.4142135623730992
  0
VERTEX
  5
204B
  8
SAPA_FOGBAND
 10
-77.43728962436785
 20
-4.589520684176791
 30
0.0
  0
VERTEX
  5
204C
  8
SAPA_FOGBAND
 10
-77.43728962436785
 20
4.6104793158232269
 30
0.0
 42
0.4142135623730909
  0
VERTEX
  5
204D
  8
SAPA_FOGBAND
 10
-78.437289624367835
 20
5.6104793158232127
 30
0.0
  0
VERTEX
  5
204E
  8
SAPA_FOGBAND
 10
-78.762293581324286
 20
5.6104793158232269
 30
0.0
 42
0.3500011104185275
  0
VERTEX
  5
204F
  8
SAPA_FOGBAND
 10
-79.737289624367833
 20
4.8327015380454563
 30
0.0
 42
-0.3500011104185328
  0
VERTEX
  5
2050
  8
SAPA_FOGBAND
 10
-80.517286458802715
 20
4.210479315823207
 30
0.0
  0
VERTEX
  5
2051
  8
SAPA_FOGBAND
 10
-80.740583234060807
 20
4.210479315823207
 30
0.0
 42
-0.380963100045198
  0
VERTEX
  5
2052
  8
SAPA_FOGBAND
 10
-81.237289624367861
 20
4.6531839248380624
 30
0.0
 42
-0.0458039546811979
  0
VERTEX
  5
2053
  8
SAPA_FOGBAND
 10
-81.313936755455245
 20
7.9422874844726286
 30
0.0
 42
0.9570085662280619
  0
VERTEX
  5
2054
  8
SAPA_FOGBAND
 10
-83.299449725939098
 20
8.1659484996099962
 30
0.0
 42
0.0782100801382191
  0
VERTEX
  5
2055
  8
SAPA_FOGBAND
 10
-83.299449725939127
 20
-8.1449898679635595
 30
0.0
 42
0.9570085662280891
  0
VERTEX
  5
2056
  8
SAPA_FOGBAND
 10
-81.313936755455245
 20
-7.9213288528261643
 30
0.0
 42
-0.0458039546811975
  0
VERTEX
  5
2057
  8
SAPA_FOGBAND
 10
-81.237289624367861
 20
-4.6322252931916497
 30
0.0
 42
-0.380963100045198
  0
SEQEND
  5
2058
  8
SAPA_FOGBAND
  0
CIRCLE
  5
1B4A
  8
SAPA_FOGBAND
 10
-36.800000000001774
 20
23.106097556107599
 30
0.0
 40
0.2549509756796394
  0
POLYLINE
  5
1B4B
  8
SAPA_FOGBAND
 66
     1
 10
0.0
 20
0.0
 30
0.0
 70
     1
  0
VERTEX
  5
2059
  8
SAPA_FOGBAND
 10
-35.500000000001769
 20
20.75609755610763
 30
0.0
 42
-0.4142135623730951
  0
VERTEX
  5
205A
  8
SAPA_FOGBAND
 10
-35.300000000001774
 20
20.956097556107618
 30
0.0
  0
VERTEX
  5
205B
  8
SAPA_FOGBAND
 10
-33.500000000001762
 20
20.956097556107618
 30
0.0
 42
-0.9999999999999998
  0
VERTEX
  5
205C
  8
SAPA_FOGBAND
 10
-33.500000000001762
 20
19.656097556107611
 30
0.0
  0
VERTEX
  5
205D
  8
SAPA_FOGBAND
 10
-35.300000000001774
 20
19.656097556107611
 30
0.0
 42
-0.4142135623730951
  0
VERTEX
  5
205E
  8
SAPA_FOGBAND
 10
-35.500000000001769
 20
19.856097556107599
 30
0.0
  0
VERTEX
  5
205F
  8
SAPA_FOGBAND
 10
-35.500000000001769
 20
20.606097556107599
 30
0.0
  0
SEQEND
  5
2060
  8
SAPA_FOGBAND
  0
POLYLINE
  5
1B4C
  8
SAPA_FOGBAND
 66
     1
 10
0.0
 20
0.0
 30
0.0
 70
     1
  0
VERTEX
  5
2061
  8
SAPA_FOGBAND
 10
-35.500000000001769
 20
16.352507717621378
 30
0.0
 42
0.267949192431121
  0
VERTEX
  5
2062
  8
SAPA_FOGBAND
 10
-35.400000000001739
 20
16.179302636864499
 30
0.0
 42
-0.7673269879789569
  0
VERTEX
  5
2063
  8
SAPA_FOGBAND
 10
-35.500000000001769
 20
15.806097556107639
 30
0.0
  0
VERTEX
  5
2064
  8
SAPA_FOGBAND
 10
-42.782887030406009
 20
15.80609755610765
 30
0.0
 42
-0.4602937089574736
  0
VERTEX
  5
2065
  8
SAPA_FOGBAND
 10
-42.980497721843051
 20
16.036919863448009
 30
0.0
  0
VERTEX
  5
2066
  8
SAPA_FOGBAND
 10
-42.387406737847577
 20
18.49625599497471
 30
0.0
 42
0.6910703998708235
  0
VERTEX
  5
2067
  8
SAPA_FOGBAND
 10
-42.712834204139313
 20
18.680905712309979
 30
0.0
  0
VERTEX
  5
2068
  8
SAPA_FOGBAND
 10
-43.008274837719739
 20
15.982704989567241
 30
0.0
 42
-0.928378177954751
  0
VERTEX
  5
2069
  8
SAPA_FOGBAND
 10
-43.423753435875142
 20
16.413282037101439
 30
0.0
  0
VERTEX
  5
206A
  8
SAPA_FOGBAND
 10
-43.228542559027183
 20
19.558521306388961
 30
0.0
 42
0.6076316918600427
  0
VERTEX
  5
206B
  8
SAPA_FOGBAND
 10
-43.323096729694377
 20
19.807435679851771
 30
0.0
 42
-0.38070580105552
  0
VERTEX
  5
206C
  8
SAPA_FOGBAND
 10
-43.500000000001712
 20
20.00609755610764
 30
0.0
  0
VERTEX
  5
206D
  8
SAPA_FOGBAND
 10
-43.500000000001712
 20
20.306097556107652
 30
0.0
  0
VERTEX
  5
206E
  8
SAPA_FOGBAND
 10
-43.500000000001712
 20
20.606097556107599
 30
0.0
 42
-0.3807058010555201
  0
VERTEX
  5
206F
  8
SAPA_FOGBAND
 10
-43.323096729694321
 20
20.804759432363419
 30
0.0
 42
0.6076316918600374
  0
VERTEX
  5
2070
  8
SAPA_FOGBAND
 10
-43.228542559027183
 20
21.053673805826278
 30
0.0
  0
VERTEX
  5
2071
  8
SAPA_FOGBAND
 10
-43.423753435875021
 20
24.307288722534949
 30
0.0
 42
-0.9283781779547513
  0
VERTEX
  5
2072
  8
SAPA_FOGBAND
 10
-43.008274837719561
 20
24.73786577006916
 30
0.0
  0
VERTEX
  5
2073
  8
SAPA_FOGBAND
 10
-42.709922924871421
 20
21.90135154659264
 30
0.0
 42
0.6910703998708235
  0
VERTEX
  5
2074
  8
SAPA_FOGBAND
 10
-42.384495458579693
 20
22.086001263927908
 30
0.0
  0
VERTEX
  5
2075
  8
SAPA_FOGBAND
 10
-42.980497721843051
 20
24.57527524876723
 30
0.0
 42
-0.4602937089574736
  0
VERTEX
  5
2076
  8
SAPA_FOGBAND
 10
-42.782887030406009
 20
24.806097556107652
 30
0.0
  0
VERTEX
  5
2077
  8
SAPA_FOGBAND
 10
-35.500000000001769
 20
24.806097556107641
 30
0.0
 42
-0.7673269879789572
  0
VERTEX
  5
2078
  8
SAPA_FOGBAND
 10
-35.400000000001739
 20
24.43289247535073
 30
0.0
 42
0.267949192431121
  0
VERTEX
  5
2079
  8
SAPA_FOGBAND
 10
-35.500000000001769
 20
24.25968739459385
 30
0.0
  0
VERTEX
  5
207A
  8
SAPA_FOGBAND
 10
-35.500000000001769
 20
22.056097556107641
 30
0.0
 42
0.4142135623730946
  0
VERTEX
  5
207B
  8
SAPA_FOGBAND
 10
-35.400000000001739
 20
21.956097556107618
 30
0.0
  0
VERTEX
  5
207C
  8
SAPA_FOGBAND
 10
-34.400000000001739
 20
21.956097556107618
 30
0.0
  0
VERTEX
  5
207D
  8
SAPA_FOGBAND
 10
-34.291388579560873
 20
22.31415280233346
 30
0.0
 42
-0.4364998583843341
  0
VERTEX
  5
207E
  8
SAPA_FOGBAND
 10
-34.027676570640949
 20
22.442562892203888
 30
0.0
  0
VERTEX
  5
207F
  8
SAPA_FOGBAND
 10
-32.638382853197591
 20
21.90370409872229
 30
0.0
 42
-0.3095538907669666
  0
VERTEX
  5
2080
  8
SAPA_FOGBAND
 10
-32.000000000001762
 20
20.97137741824103
 30
0.0
  0
VERTEX
  5
2081
  8
SAPA_FOGBAND
 10
-32.000000000001762
 20
19.640817693974199
 30
0.0
 42
-0.3095538907669666
  0
VERTEX
  5
2082
  8
SAPA_FOGBAND
 10
-32.638382853197591
 20
18.708491013492939
 30
0.0
  0
VERTEX
  5
2083
  8
SAPA_FOGBAND
 10
-34.027676570640949
 20
18.16963222001139
 30
0.0
 42
-0.4364998583843343
  0
VERTEX
  5
2084
  8
SAPA_FOGBAND
 10
-34.291388579560873
 20
18.298042309881829
 30
0.0
  0
VERTEX
  5
2085
  8
SAPA_FOGBAND
 10
-34.400000000001739
 20
18.656097556107611
 30
0.0
  0
VERTEX
  5
2086
  8
SAPA_FOGBAND
 10
-35.400000000001739
 20
18.656097556107611
 30
0.0
 42
0.4142135623730946
  0
VERTEX
  5
2087
  8
SAPA_FOGBAND
 10
-35.500000000001769
 20
18.556097556107641
 30
0.0
  0
SEQEND
  5
2088
  8
SAPA_FOGBAND
  0
POLYLINE
  5
1B4D
  8
SAPA_FOGBAND
 66
     1
 10
0.0
 20
0.0
 30
0.0
 70
     1
  0
VERTEX
  5
2089
  8
SAPA_FOGBAND
 10
-37.800000000001774
 20
18.482229998629389
 30
0.0
 42
-0.3042268896177264
  0
VERTEX
  5
208A
  8
SAPA_FOGBAND
 10
-37.986088961918078
 20
18.204697522326718
 30
0.0
 42
-0.2901372376591382
  0
VERTEX
  5
208B
  8
SAPA_FOGBAND
 10
-40.213945402555062
 20
18.254982816544938
 30
0.0
 42
-0.1927175523564936
  0
VERTEX
  5
208C
  8
SAPA_FOGBAND
 10
-40.368941574663609
 20
18.415282796532018
 30
0.0
 42
-0.1963728951991371
  0
VERTEX
  5
208D
  8
SAPA_FOGBAND
 10
-40.368941574663609
 20
22.19691231568321
 30
0.0
 42
-0.1927175523564951
  0
VERTEX
  5
208E
  8
SAPA_FOGBAND
 10
-40.213945402555062
 20
22.357212295670301
 30
0.0
 42
-0.2901372376591384
  0
VERTEX
  5
208F
  8
SAPA_FOGBAND
 10
-37.986088961918078
 20
22.40749758988856
 30
0.0
 42
-0.3042268896177278
  0
VERTEX
  5
2090
  8
SAPA_FOGBAND
 10
-37.800000000001774
 20
22.12996511358584
 30
0.0
  0
SEQEND
  5
2091
  8
SAPA_FOGBAND
  0
POLYLINE
  5
1B4E
  8
SAPA_FOGBAND
 66
     1
 10
0.0
 20
0.0
 30
0.0
 70
     1
  0
VERTEX
  5
2092
  8
SAPA_FOGBAND
 10
-64.360800493659568
 20
8.6651519732758828
 30
0.0
  0
VERTEX
  5
2093
  8
SAPA_FOGBAND
 10
-64.852752833549417
 20
11.666479135844369
 30
0.0
 42
-0.4464785874932524
  0
VERTEX
  5
2094
  8
SAPA_FOGBAND
 10
-63.858675528443662
 20
12.77515439279612
 30
0.0
  0
VERTEX
  5
2095
  8
SAPA_FOGBAND
 10
-62.313435434750787
 20
12.77515439279612
 30
0.0
 42
-0.622676997742357
  0
VERTEX
  5
2096
  8
SAPA_FOGBAND
 10
-61.52155370658739
 20
11.164479906182329
 30
0.0
  0
VERTEX
  5
2097
  8
SAPA_FOGBAND
 10
-62.44077696863998
 20
8.1631527436129403
 30
0.0
 42
-0.232531183213058
  0
VERTEX
  5
2098
  8
SAPA_FOGBAND
 10
-63.232658696803817
 20
7.7738272302258187
 30
0.0
  0
VERTEX
  5
2099
  8
SAPA_FOGBAND
 10
-63.36672318855382
 20
7.7738272302267291
 30
0.0
 42
-0.3826682380870913
  0
SEQEND
  5
209A
  8
SAPA_FOGBAND
  0
POLYLINE
  5
1B4F
  8
SAPA_FOGBAND
 66
     1
 10
0.0
 20
0.0
 30
0.0
 70
     1
  0
VERTEX
  5
209B
  8
SAPA_FOGBAND
 10
-57.296201445460618
 20
21.762137629568301
 30
0.0
 42
-0.4740571810231764
  0
VERTEX
  5
209C
  8
SAPA_FOGBAND
 10
-57.013918859822311
 20
21.889431491931632
 30
0.0
  0
VERTEX
  5
209D
  8
SAPA_FOGBAND
 10
-55.567712723061973
 20
21.269330989173781
 30
0.0
 42
-0.2846003776496257
  0
VERTEX
  5
209E
  8
SAPA_FOGBAND
 10
-55.290456274014119
 20
20.82168681071288
 30
0.0
  0
VERTEX
  5
209F
  8
SAPA_FOGBAND
 10
-55.290456274014119
 20
19.199060830383122
 30
0.0
 42
-0.2846003776496159
  0
VERTEX
  5
20A0
  8
SAPA_FOGBAND
 10
-55.567712723062421
 20
18.751416651922209
 30
0.0
  0
VERTEX
  5
20A1
  8
SAPA_FOGBAND
 10
-57.013918859822311
 20
18.131316149164359
 30
0.0
 42
-0.4740571810232354
  0
VERTEX
  5
20A2
  8
SAPA_FOGBAND
 10
-57.296201445460618
 20
18.25861001152678
 30
0.0
  0
VERTEX
  5
20A3
  8
SAPA_FOGBAND
 10
-57.363661354771018
 20
18.510373820548001
 30
0.0
  0
VERTEX
  5
20A4
  8
SAPA_FOGBAND
 10
-58.305086771653372
 20
18.510373820548001
 30
0.0
 42
0.4142135623730951
  0
VERTEX
  5
20A5
  8
SAPA_FOGBAND
 10
-58.805086771653357
 20
18.010373820548001
 30
0.0
  0
VERTEX
  5
20A6
  8
SAPA_FOGBAND
 10
-58.80508677165291
 20
14.98227426981337
 30
0.0
 42
-0.1657205760184635
  0
VERTEX
  5
20A7
  8
SAPA_FOGBAND
 10
-59.013205043489521
 20
14.37159978319958
 30
0.0
  0
VERTEX
  5
20A8
  8
SAPA_FOGBAND
 10
-62.407790128345383
 20
5.003709392723052
 30
0.0
 42
-0.2325311832130358
  0
VERTEX
  5
20A9
  8
SAPA_FOGBAND
 10
-62.803730992427532
 20
4.8090466360290369
 30
0.0
  0
VERTEX
  5
20AA
  8
SAPA_FOGBAND
 10
-64.034474548865106
 20
4.8090466360290369
 30
0.0
 42
-0.3826682380870913
  0
VERTEX
  5
20AB
  8
SAPA_FOGBAND
 10
-65.028551853970853
 20
5.7003713790791011
 30
0.0
  0
VERTEX
  5
20AC
  8
SAPA_FOGBAND
 10
-65.805086771653365
 20
11.30484013937528
 30
0.0
  0
VERTEX
  5
20AD
  8
SAPA_FOGBAND
 10
-65.805086771653365
 20
25.010373798598248
 30
0.0
 42
-0.4257917699693507
  0
VERTEX
  5
20AE
  8
SAPA_FOGBAND
 10
-65.49327940912282
 20
25.310141352197189
 30
0.0
  0
VERTEX
  5
20AF
  8
SAPA_FOGBAND
 10
-59.093279409122268
 20
24.822301537526972
 30
0.0
 42
-0.4027293761437475
  0
VERTEX
  5
20B0
  8
SAPA_FOGBAND
 10
-58.80508677165291
 20
24.522533983929851
 30
0.0
  0
VERTEX
  5
20B1
  8
SAPA_FOGBAND
 10
-58.805086771653357
 20
22.010373820548001
 30
0.0
 42
0.4142135623730951
  0
VERTEX
  5
20B2
  8
SAPA_FOGBAND
 10
-58.305086771653372
 20
21.510373820548001
 30
0.0
  0
VERTEX
  5
20B3
  8
SAPA_FOGBAND
 10
-57.363661354771018
 20
21.510373820548001
 30
0.0
  0
SEQEND
  5
20B4
  8
SAPA_FOGBAND
  0
POLYLINE
  5
1B50
  8
SAPA_FOGBAND
 66
     1
 10
0.0
 20
0.0
 30
0.0
 70
     1
  0
VERTEX
  5
20B5
  8
SAPA_FOGBAND
 10
-56.890456274014483
 20
19.110373820548361
 30
0.0
  0
VERTEX
  5
20B6
  8
SAPA_FOGBAND
 10
-57.490456274014392
 20
19.110373820548361
 30
0.0
 42
-0.9999999999999998
  0
VERTEX
  5
20B7
  8
SAPA_FOGBAND
 10
-57.490456274014392
 20
20.91037382054763
 30
0.0
  0
VERTEX
  5
20B8
  8
SAPA_FOGBAND
 10
-56.890456274014483
 20
20.91037382054763
 30
0.0
 42
-0.9999999999999998
  0
SEQEND
  5
20B9
  8
SAPA_FOGBAND
  0
POLYLINE
  5
1B51
  8
SAPA_FOGBAND
 66
     1
 10
0.0
 20
0.0
 30
0.0
  0
VERTEX
  5
20BA
  8
SAPA_FOGBAND
 10
-58.80508677165291
 20
23.610373820548361
 30
0.0
  0
VERTEX
  5
20BB
  8
SAPA_FOGBAND
 10
-59.105086771653092
 20
23.610373820548361
 30
0.0
 42
0.4142135623730951
  0
VERTEX
  5
20BC
  8
SAPA_FOGBAND
 10
-59.605086771653092
 20
23.110373820548361
 30
0.0
  0
VERTEX
  5
20BD
  8
SAPA_FOGBAND
 10
-59.605086771653092
 20
15.810373820547261
 30
0.0
 42
0.4142135623730951
  0
VERTEX
  5
20BE
  8
SAPA_FOGBAND
 10
-59.105086771653092
 20
15.310373820547269
 30
0.0
  0
VERTEX
  5
20BF
  8
SAPA_FOGBAND
 10
-58.80508677165291
 20
15.31037382054817
 30
0.0
  0
SEQEND
  5
20C0
  8
SAPA_FOGBAND
  0
POLYLINE
  5
1B52
  8
SAPA_FOGBAND
 10
-62.826656685502826
 20
22.073620954385213
 30
0.0
 66
     1
 70
     8
  0
VERTEX
  8
SAPA_FOGBAND
  5
2174
 10
-62.8267
 20
22.0736
 30
0.000000
  70
    32
  0
VERTEX
  8
SAPA_FOGBAND
  5
2175
 10
-62.7660
 20
22.0703
 30
0.000000
  70
    32
  0
VERTEX
  8
SAPA_FOGBAND
  5
2176
 10
-62.7055
 20
22.0589
 30
0.000000
  70
    32
  0
VERTEX
  8
SAPA_FOGBAND
  5
2177
 10
-62.6451
 20
22.0397
 30
0.000000
  70
    32
  0
VERTEX
  8
SAPA_FOGBAND
  5
2178
 10
-62.5851
 20
22.0126
 30
0.000000
  70
    32
  0
VERTEX
  8
SAPA_FOGBAND
  5
2179
 10
-62.5256
 20
21.9778
 30
0.000000
  70
    32
  0
VERTEX
  8
SAPA_FOGBAND
  5
217A
 10
-62.4668
 20
21.9352
 30
0.000000
  70
    32
  0
VERTEX
  8
SAPA_FOGBAND
  5
217B
 10
-62.4087
 20
21.8850
 30
0.000000
  70
    32
  0
VERTEX
  8
SAPA_FOGBAND
  5
217C
 10
-62.3516
 20
21.8273
 30
0.000000
  70
    32
  0
VERTEX
  8
SAPA_FOGBAND
  5
217D
 10
-62.2955
 20
21.7622
 30
0.000000
  70
    32
  0
VERTEX
  8
SAPA_FOGBAND
  5
217E
 10
-62.2406
 20
21.6900
 30
0.000000
  70
    32
  0
VERTEX
  8
SAPA_FOGBAND
  5
217F
 10
-62.1871
 20
21.6107
 30
0.000000
  70
    32
  0
VERTEX
  8
SAPA_FOGBAND
  5
2180
 10
-62.1350
 20
21.5246
 30
0.000000
  70
    32
  0
VERTEX
  8
SAPA_FOGBAND
  5
2181
 10
-62.0846
 20
21.4319
 30
0.000000
  70
    32
  0
VERTEX
  8
SAPA_FOGBAND
  5
2182
 10
-62.0358
 20
21.3327
 30
0.000000
  70
    32
  0
VERTEX
  8
SAPA_FOGBAND
  5
2183
 10
-61.9888
 20
21.2275
 30
0.000000
  70
    32
  0
VERTEX
  8
SAPA_FOGBAND
  5
2184
 10
-61.9438
 20
21.1163
 30
0.000000
  70
    32
  0
VERTEX
  8
SAPA_FOGBAND
  5
2185
 10
-61.9009
 20
20.9994
 30
0.000000
  70
    32
  0
VERTEX
  8
SAPA_FOGBAND
  5
2186
 10
-61.8601
 20
20.8773
 30
0.000000
  70
    32
  0
VERTEX
  8
SAPA_FOGBAND
  5
2187
 10
-61.8215
 20
20.7500
 30
0.000000
  70
    32
  0
VERTEX
  8
SAPA_FOGBAND
  5
2188
 10
-61.7853
 20
20.6180
 30
0.000000
  70
    32
  0
VERTEX
  8
SAPA_FOGBAND
  5
2189
 10
-61.7515
 20
20.4815
 30
0.000000
  70
    32
  0
VERTEX
  8
SAPA_FOGBAND
  5
218A
 10
-61.7202
 20
20.3410
 30
0.000000
  70
    32
  0
VERTEX
  8
SAPA_FOGBAND
  5
218B
 10
-61.6915
 20
20.1967
 30
0.000000
  70
    32
  0
VERTEX
  8
SAPA_FOGBAND
  5
218C
 10
-61.6655
 20
20.0489
 30
0.000000
  70
    32
  0
VERTEX
  8
SAPA_FOGBAND
  5
218D
 10
-61.6422
 20
19.8981
 30
0.000000
  70
    32
  0
VERTEX
  8
SAPA_FOGBAND
  5
218E
 10
-61.6216
 20
19.7446
 30
0.000000
  70
    32
  0
VERTEX
  8
SAPA_FOGBAND
  5
218F
 10
-61.6039
 20
19.5887
 30
0.000000
  70
    32
  0
VERTEX
  8
SAPA_FOGBAND
  5
2190
 10
-61.5891
 20
19.4309
 30
0.000000
  70
    32
  0
VERTEX
  8
SAPA_FOGBAND
  5
2191
 10
-61.5771
 20
19.2715
 30
0.000000
  70
    32
  0
VERTEX
  8
SAPA_FOGBAND
  5
2192
 10
-61.5681
 20
19.1109
 30
0.000000
  70
    32
  0
VERTEX
  8
SAPA_FOGBAND
  5
2193
 10
-61.5620
 20
18.9495
 30
0.000000
  70
    32
  0
VERTEX
  8
SAPA_FOGBAND
  5
2194
 10
-61.5589
 20
18.7876
 30
0.000000
  70
    32
  0
VERTEX
  8
SAPA_FOGBAND
  5
2195
 10
-61.5588
 20
18.6258
 30
0.000000
  70
    32
  0
VERTEX
  8
SAPA_FOGBAND
  5
2196
 10
-61.5616
 20
18.4643
 30
0.000000
  70
    32
  0
VERTEX
  8
SAPA_FOGBAND
  5
2197
 10
-61.5675
 20
18.3036
 30
0.000000
  70
    32
  0
VERTEX
  8
SAPA_FOGBAND
  5
2198
 10
-61.5762
 20
18.1439
 30
0.000000
  70
    32
  0
VERTEX
  8
SAPA_FOGBAND
  5
2199
 10
-61.5879
 20
17.9859
 30
0.000000
  70
    32
  0
VERTEX
  8
SAPA_FOGBAND
  5
219A
 10
-61.6026
 20
17.8297
 30
0.000000
  70
    32
  0
VERTEX
  8
SAPA_FOGBAND
  5
219B
 10
-61.6200
 20
17.6758
 30
0.000000
  70
    32
  0
VERTEX
  8
SAPA_FOGBAND
  5
219C
 10
-61.6404
 20
17.5245
 30
0.000000
  70
    32
  0
VERTEX
  8
SAPA_FOGBAND
  5
219D
 10
-61.6634
 20
17.3763
 30
0.000000
  70
    32
  0
VERTEX
  8
SAPA_FOGBAND
  5
219E
 10
-61.6893
 20
17.2314
 30
0.000000
  70
    32
  0
VERTEX
  8
SAPA_FOGBAND
  5
219F
 10
-61.7177
 20
17.0902
 30
0.000000
  70
    32
  0
VERTEX
  8
SAPA_FOGBAND
  5
21A0
 10
-61.7488
 20
16.9532
 30
0.000000
  70
    32
  0
VERTEX
  8
SAPA_FOGBAND
  5
21A1
 10
-61.7824
 20
16.8204
 30
0.000000
  70
    32
  0
VERTEX
  8
SAPA_FOGBAND
  5
21A2
 10
-61.8184
 20
16.6925
 30
0.000000
  70
    32
  0
VERTEX
  8
SAPA_FOGBAND
  5
21A3
 10
-61.8568
 20
16.5695
 30
0.000000
  70
    32
  0
VERTEX
  8
SAPA_FOGBAND
  5
21A4
 10
-61.8974
 20
16.4518
 30
0.000000
  70
    32
  0
VERTEX
  8
SAPA_FOGBAND
  5
21A5
 10
-61.9402
 20
16.3398
 30
0.000000
  70
    32
  0
VERTEX
  8
SAPA_FOGBAND
  5
21A6
 10
-61.9850
 20
16.2336
 30
0.000000
  70
    32
  0
VERTEX
  8
SAPA_FOGBAND
  5
21A7
 10
-62.0318
 20
16.1335
 30
0.000000
  70
    32
  0
VERTEX
  8
SAPA_FOGBAND
  5
21A8
 10
-62.0805
 20
16.0398
 30
0.000000
  70
    32
  0
VERTEX
  8
SAPA_FOGBAND
  5
21A9
 10
-62.1308
 20
15.9527
 30
0.000000
  70
    32
  0
VERTEX
  8
SAPA_FOGBAND
  5
21AA
 10
-62.1827
 20
15.8723
 30
0.000000
  70
    32
  0
VERTEX
  8
SAPA_FOGBAND
  5
21AB
 10
-62.2362
 20
15.7990
 30
0.000000
  70
    32
  0
VERTEX
  8
SAPA_FOGBAND
  5
21AC
 10
-62.2909
 20
15.7329
 30
0.000000
  70
    32
  0
VERTEX
  8
SAPA_FOGBAND
  5
21AD
 10
-62.3469
 20
15.6740
 30
0.000000
  70
    32
  0
VERTEX
  8
SAPA_FOGBAND
  5
21AE
 10
-62.4039
 20
15.6227
 30
0.000000
  70
    32
  0
VERTEX
  8
SAPA_FOGBAND
  5
21AF
 10
-62.4619
 20
15.5789
 30
0.000000
  70
    32
  0
VERTEX
  8
SAPA_FOGBAND
  5
21B0
 10
-62.5207
 20
15.5429
 30
0.000000
  70
    32
  0
VERTEX
  8
SAPA_FOGBAND
  5
21B1
 10
-62.5802
 20
15.5146
 30
0.000000
  70
    32
  0
VERTEX
  8
SAPA_FOGBAND
  5
21B2
 10
-62.6401
 20
15.4942
 30
0.000000
  70
    32
  0
VERTEX
  8
SAPA_FOGBAND
  5
21B3
 10
-62.7004
 20
15.4817
 30
0.000000
  70
    32
  0
VERTEX
  8
SAPA_FOGBAND
  5
21B4
 10
-62.7610
 20
15.4771
 30
0.000000
  70
    32
  0
VERTEX
  8
SAPA_FOGBAND
  5
21B5
 10
-62.8216
 20
15.4805
 30
0.000000
  70
    32
  0
VERTEX
  8
SAPA_FOGBAND
  5
21B6
 10
-62.8822
 20
15.4918
 30
0.000000
  70
    32
  0
VERTEX
  8
SAPA_FOGBAND
  5
21B7
 10
-62.9426
 20
15.5110
 30
0.000000
  70
    32
  0
VERTEX
  8
SAPA_FOGBAND
  5
21B8
 10
-63.0025
 20
15.5381
 30
0.000000
  70
    32
  0
VERTEX
  8
SAPA_FOGBAND
  5
21B9
 10
-63.0620
 20
15.5729
 30
0.000000
  70
    32
  0
VERTEX
  8
SAPA_FOGBAND
  5
21BA
 10
-63.1209
 20
15.6155
 30
0.000000
  70
    32
  0
VERTEX
  8
SAPA_FOGBAND
  5
21BB
 10
-63.1789
 20
15.6657
 30
0.000000
  70
    32
  0
VERTEX
  8
SAPA_FOGBAND
  5
21BC
 10
-63.2361
 20
15.7234
 30
0.000000
  70
    32
  0
VERTEX
  8
SAPA_FOGBAND
  5
21BD
 10
-63.2921
 20
15.7885
 30
0.000000
  70
    32
  0
VERTEX
  8
SAPA_FOGBAND
  5
21BE
 10
-63.3470
 20
15.8607
 30
0.000000
  70
    32
  0
VERTEX
  8
SAPA_FOGBAND
  5
21BF
 10
-63.4005
 20
15.9400
 30
0.000000
  70
    32
  0
VERTEX
  8
SAPA_FOGBAND
  5
21C0
 10
-63.4526
 20
16.0261
 30
0.000000
  70
    32
  0
VERTEX
  8
SAPA_FOGBAND
  5
21C1
 10
-63.5031
 20
16.1188
 30
0.000000
  70
    32
  0
VERTEX
  8
SAPA_FOGBAND
  5
21C2
 10
-63.5519
 20
16.2180
 30
0.000000
  70
    32
  0
VERTEX
  8
SAPA_FOGBAND
  5
21C3
 10
-63.5988
 20
16.3232
 30
0.000000
  70
    32
  0
VERTEX
  8
SAPA_FOGBAND
  5
21C4
 10
-63.6438
 20
16.4344
 30
0.000000
  70
    32
  0
VERTEX
  8
SAPA_FOGBAND
  5
21C5
 10
-63.6868
 20
16.5513
 30
0.000000
  70
    32
  0
VERTEX
  8
SAPA_FOGBAND
  5
21C6
 10
-63.7276
 20
16.6735
 30
0.000000
  70
    32
  0
VERTEX
  8
SAPA_FOGBAND
  5
21C7
 10
-63.7662
 20
16.8007
 30
0.000000
  70
    32
  0
VERTEX
  8
SAPA_FOGBAND
  5
21C8
 10
-63.8024
 20
16.9327
 30
0.000000
  70
    32
  0
VERTEX
  8
SAPA_FOGBAND
  5
21C9
 10
-63.8362
 20
17.0692
 30
0.000000
  70
    32
  0
VERTEX
  8
SAPA_FOGBAND
  5
21CA
 10
-63.8674
 20
17.2097
 30
0.000000
  70
    32
  0
VERTEX
  8
SAPA_FOGBAND
  5
21CB
 10
-63.8961
 20
17.3540
 30
0.000000
  70
    32
  0
VERTEX
  8
SAPA_FOGBAND
  5
21CC
 10
-63.9222
 20
17.5018
 30
0.000000
  70
    32
  0
VERTEX
  8
SAPA_FOGBAND
  5
21CD
 10
-63.9455
 20
17.6526
 30
0.000000
  70
    32
  0
VERTEX
  8
SAPA_FOGBAND
  5
21CE
 10
-63.9660
 20
17.8062
 30
0.000000
  70
    32
  0
VERTEX
  8
SAPA_FOGBAND
  5
21CF
 10
-63.9838
 20
17.9620
 30
0.000000
  70
    32
  0
VERTEX
  8
SAPA_FOGBAND
  5
21D0
 10
-63.9986
 20
18.1198
 30
0.000000
  70
    32
  0
VERTEX
  8
SAPA_FOGBAND
  5
21D1
 10
-64.0106
 20
18.2792
 30
0.000000
  70
    32
  0
VERTEX
  8
SAPA_FOGBAND
  5
21D2
 10
-64.0196
 20
18.4398
 30
0.000000
  70
    32
  0
VERTEX
  8
SAPA_FOGBAND
  5
21D3
 10
-64.0256
 20
18.6012
 30
0.000000
  70
    32
  0
VERTEX
  8
SAPA_FOGBAND
  5
21D4
 10
-64.0287
 20
18.7631
 30
0.000000
  70
    32
  0
VERTEX
  8
SAPA_FOGBAND
  5
21D5
 10
-64.0289
 20
18.9249
 30
0.000000
  70
    32
  0
VERTEX
  8
SAPA_FOGBAND
  5
21D6
 10
-64.0260
 20
19.0864
 30
0.000000
  70
    32
  0
VERTEX
  8
SAPA_FOGBAND
  5
21D7
 10
-64.0202
 20
19.2472
 30
0.000000
  70
    32
  0
VERTEX
  8
SAPA_FOGBAND
  5
21D8
 10
-64.0114
 20
19.4068
 30
0.000000
  70
    32
  0
VERTEX
  8
SAPA_FOGBAND
  5
21D9
 10
-63.9997
 20
19.5648
 30
0.000000
  70
    32
  0
VERTEX
  8
SAPA_FOGBAND
  5
21DA
 10
-63.9851
 20
19.7210
 30
0.000000
  70
    32
  0
VERTEX
  8
SAPA_FOGBAND
  5
21DB
 10
-63.9676
 20
19.8749
 30
0.000000
  70
    32
  0
VERTEX
  8
SAPA_FOGBAND
  5
21DC
 10
-63.9473
 20
20.0262
 30
0.000000
  70
    32
  0
VERTEX
  8
SAPA_FOGBAND
  5
21DD
 10
-63.9242
 20
20.1744
 30
0.000000
  70
    32
  0
VERTEX
  8
SAPA_FOGBAND
  5
21DE
 10
-63.8984
 20
20.3193
 30
0.000000
  70
    32
  0
VERTEX
  8
SAPA_FOGBAND
  5
21DF
 10
-63.8699
 20
20.4605
 30
0.000000
  70
    32
  0
VERTEX
  8
SAPA_FOGBAND
  5
21E0
 10
-63.8389
 20
20.5976
 30
0.000000
  70
    32
  0
VERTEX
  8
SAPA_FOGBAND
  5
21E1
 10
-63.8053
 20
20.7303
 30
0.000000
  70
    32
  0
VERTEX
  8
SAPA_FOGBAND
  5
21E2
 10
-63.7693
 20
20.8583
 30
0.000000
  70
    32
  0
VERTEX
  8
SAPA_FOGBAND
  5
21E3
 10
-63.7309
 20
20.9812
 30
0.000000
  70
    32
  0
VERTEX
  8
SAPA_FOGBAND
  5
21E4
 10
-63.6903
 20
21.0989
 30
0.000000
  70
    32
  0
VERTEX
  8
SAPA_FOGBAND
  5
21E5
 10
-63.6475
 20
21.2110
 30
0.000000
  70
    32
  0
VERTEX
  8
SAPA_FOGBAND
  5
21E6
 10
-63.6026
 20
21.3172
 30
0.000000
  70
    32
  0
VERTEX
  8
SAPA_FOGBAND
  5
21E7
 10
-63.5558
 20
21.4172
 30
0.000000
  70
    32
  0
VERTEX
  8
SAPA_FOGBAND
  5
21E8
 10
-63.5072
 20
21.5109
 30
0.000000
  70
    32
  0
VERTEX
  8
SAPA_FOGBAND
  5
21E9
 10
-63.4569
 20
21.5981
 30
0.000000
  70
    32
  0
VERTEX
  8
SAPA_FOGBAND
  5
21EA
 10
-63.4049
 20
21.6784
 30
0.000000
  70
    32
  0
VERTEX
  8
SAPA_FOGBAND
  5
21EB
 10
-63.3515
 20
21.7517
 30
0.000000
  70
    32
  0
VERTEX
  8
SAPA_FOGBAND
  5
21EC
 10
-63.2967
 20
21.8179
 30
0.000000
  70
    32
  0
VERTEX
  8
SAPA_FOGBAND
  5
21ED
 10
-63.2408
 20
21.8767
 30
0.000000
  70
    32
  0
VERTEX
  8
SAPA_FOGBAND
  5
21EE
 10
-63.1837
 20
21.9280
 30
0.000000
  70
    32
  0
VERTEX
  8
SAPA_FOGBAND
  5
21EF
 10
-63.1257
 20
21.9718
 30
0.000000
  70
    32
  0
VERTEX
  8
SAPA_FOGBAND
  5
21F0
 10
-63.0669
 20
22.0078
 30
0.000000
  70
    32
  0
VERTEX
  8
SAPA_FOGBAND
  5
21F1
 10
-63.0075
 20
22.0361
 30
0.000000
  70
    32
  0
VERTEX
  8
SAPA_FOGBAND
  5
21F2
 10
-62.9475
 20
22.0565
 30
0.000000
  70
    32
  0
VERTEX
  8
SAPA_FOGBAND
  5
21F3
 10
-62.8872
 20
22.0690
 30
0.000000
  70
    32
  0
VERTEX
  8
SAPA_FOGBAND
  5
21F4
 10
-62.8267
 20
22.0736
 30
0.000000
  70
    32
  0
SEQEND
  8
SAPA_FOGBAND
  5
21F5
  0
POLYLINE
  5
1B53
  8
SAPA_FOGBAND
 10
-58.646125407834965
 20
-15.182154654596692
 30
0.0
 66
     1
 70
     8
  0
VERTEX
  8
SAPA_FOGBAND
  5
21F6
 10
-58.6461
 20
-15.1822
 30
0.000000
  70
    32
  0
VERTEX
  8
SAPA_FOGBAND
  5
21F7
 10
-58.7402
 20
-15.1866
 30
0.000000
  70
    32
  0
VERTEX
  8
SAPA_FOGBAND
  5
21F8
 10
-58.8340
 20
-15.2001
 30
0.000000
  70
    32
  0
VERTEX
  8
SAPA_FOGBAND
  5
21F9
 10
-58.9274
 20
-15.2225
 30
0.000000
  70
    32
  0
VERTEX
  8
SAPA_FOGBAND
  5
21FA
 10
-59.0201
 20
-15.2539
 30
0.000000
  70
    32
  0
VERTEX
  8
SAPA_FOGBAND
  5
21FB
 10
-59.1118
 20
-15.2940
 30
0.000000
  70
    32
  0
VERTEX
  8
SAPA_FOGBAND
  5
21FC
 10
-59.2025
 20
-15.3428
 30
0.000000
  70
    32
  0
VERTEX
  8
SAPA_FOGBAND
  5
21FD
 10
-59.2918
 20
-15.4003
 30
0.000000
  70
    32
  0
VERTEX
  8
SAPA_FOGBAND
  5
21FE
 10
-59.3796
 20
-15.4662
 30
0.000000
  70
    32
  0
VERTEX
  8
SAPA_FOGBAND
  5
21FF
 10
-59.4656
 20
-15.5404
 30
0.000000
  70
    32
  0
VERTEX
  8
SAPA_FOGBAND
  5
2200
 10
-59.5496
 20
-15.6227
 30
0.000000
  70
    32
  0
VERTEX
  8
SAPA_FOGBAND
  5
2201
 10
-59.6315
 20
-15.7130
 30
0.000000
  70
    32
  0
VERTEX
  8
SAPA_FOGBAND
  5
2202
 10
-59.7110
 20
-15.8110
 30
0.000000
  70
    32
  0
VERTEX
  8
SAPA_FOGBAND
  5
2203
 10
-59.7879
 20
-15.9164
 30
0.000000
  70
    32
  0
VERTEX
  8
SAPA_FOGBAND
  5
2204
 10
-59.8621
 20
-16.0291
 30
0.000000
  70
    32
  0
VERTEX
  8
SAPA_FOGBAND
  5
2205
 10
-59.9333
 20
-16.1487
 30
0.000000
  70
    32
  0
VERTEX
  8
SAPA_FOGBAND
  5
2206
 10
-60.0014
 20
-16.2750
 30
0.000000
  70
    32
  0
VERTEX
  8
SAPA_FOGBAND
  5
2207
 10
-60.0663
 20
-16.4077
 30
0.000000
  70
    32
  0
VERTEX
  8
SAPA_FOGBAND
  5
2208
 10
-60.1277
 20
-16.5463
 30
0.000000
  70
    32
  0
VERTEX
  8
SAPA_FOGBAND
  5
2209
 10
-60.1856
 20
-16.6907
 30
0.000000
  70
    32
  0
VERTEX
  8
SAPA_FOGBAND
  5
220A
 10
-60.2398
 20
-16.8405
 30
0.000000
  70
    32
  0
VERTEX
  8
SAPA_FOGBAND
  5
220B
 10
-60.2901
 20
-16.9952
 30
0.000000
  70
    32
  0
VERTEX
  8
SAPA_FOGBAND
  5
220C
 10
-60.3365
 20
-17.1545
 30
0.000000
  70
    32
  0
VERTEX
  8
SAPA_FOGBAND
  5
220D
 10
-60.3788
 20
-17.3181
 30
0.000000
  70
    32
  0
VERTEX
  8
SAPA_FOGBAND
  5
220E
 10
-60.4169
 20
-17.4856
 30
0.000000
  70
    32
  0
VERTEX
  8
SAPA_FOGBAND
  5
220F
 10
-60.4508
 20
-17.6564
 30
0.000000
  70
    32
  0
VERTEX
  8
SAPA_FOGBAND
  5
2210
 10
-60.4803
 20
-17.8303
 30
0.000000
  70
    32
  0
VERTEX
  8
SAPA_FOGBAND
  5
2211
 10
-60.5054
 20
-18.0068
 30
0.000000
  70
    32
  0
VERTEX
  8
SAPA_FOGBAND
  5
2212
 10
-60.5260
 20
-18.1855
 30
0.000000
  70
    32
  0
VERTEX
  8
SAPA_FOGBAND
  5
2213
 10
-60.5421
 20
-18.3660
 30
0.000000
  70
    32
  0
VERTEX
  8
SAPA_FOGBAND
  5
2214
 10
-60.5536
 20
-18.5477
 30
0.000000
  70
    32
  0
VERTEX
  8
SAPA_FOGBAND
  5
2215
 10
-60.5605
 20
-18.7304
 30
0.000000
  70
    32
  0
VERTEX
  8
SAPA_FOGBAND
  5
2216
 10
-60.5628
 20
-18.9135
 30
0.000000
  70
    32
  0
VERTEX
  8
SAPA_FOGBAND
  5
2217
 10
-60.5605
 20
-19.0966
 30
0.000000
  70
    32
  0
VERTEX
  8
SAPA_FOGBAND
  5
2218
 10
-60.5536
 20
-19.2792
 30
0.000000
  70
    32
  0
VERTEX
  8
SAPA_FOGBAND
  5
2219
 10
-60.5421
 20
-19.4610
 30
0.000000
  70
    32
  0
VERTEX
  8
SAPA_FOGBAND
  5
221A
 10
-60.5260
 20
-19.6414
 30
0.000000
  70
    32
  0
VERTEX
  8
SAPA_FOGBAND
  5
221B
 10
-60.5054
 20
-19.8201
 30
0.000000
  70
    32
  0
VERTEX
  8
SAPA_FOGBAND
  5
221C
 10
-60.4803
 20
-19.9966
 30
0.000000
  70
    32
  0
VERTEX
  8
SAPA_FOGBAND
  5
221D
 10
-60.4508
 20
-20.1705
 30
0.000000
  70
    32
  0
VERTEX
  8
SAPA_FOGBAND
  5
221E
 10
-60.4169
 20
-20.3414
 30
0.000000
  70
    32
  0
VERTEX
  8
SAPA_FOGBAND
  5
221F
 10
-60.3788
 20
-20.5088
 30
0.000000
  70
    32
  0
VERTEX
  8
SAPA_FOGBAND
  5
2220
 10
-60.3365
 20
-20.6724
 30
0.000000
  70
    32
  0
VERTEX
  8
SAPA_FOGBAND
  5
2221
 10
-60.2901
 20
-20.8318
 30
0.000000
  70
    32
  0
VERTEX
  8
SAPA_FOGBAND
  5
2222
 10
-60.2398
 20
-20.9865
 30
0.000000
  70
    32
  0
VERTEX
  8
SAPA_FOGBAND
  5
2223
 10
-60.1856
 20
-21.1362
 30
0.000000
  70
    32
  0
VERTEX
  8
SAPA_FOGBAND
  5
2224
 10
-60.1277
 20
-21.2806
 30
0.000000
  70
    32
  0
VERTEX
  8
SAPA_FOGBAND
  5
2225
 10
-60.0663
 20
-21.4193
 30
0.000000
  70
    32
  0
VERTEX
  8
SAPA_FOGBAND
  5
2226
 10
-60.0014
 20
-21.5519
 30
0.000000
  70
    32
  0
VERTEX
  8
SAPA_FOGBAND
  5
2227
 10
-59.9333
 20
-21.6782
 30
0.000000
  70
    32
  0
VERTEX
  8
SAPA_FOGBAND
  5
2228
 10
-59.8621
 20
-21.7978
 30
0.000000
  70
    32
  0
VERTEX
  8
SAPA_FOGBAND
  5
2229
 10
-59.7879
 20
-21.9105
 30
0.000000
  70
    32
  0
VERTEX
  8
SAPA_FOGBAND
  5
222A
 10
-59.7110
 20
-22.0159
 30
0.000000
  70
    32
  0
VERTEX
  8
SAPA_FOGBAND
  5
222B
 10
-59.6315
 20
-22.1139
 30
0.000000
  70
    32
  0
VERTEX
  8
SAPA_FOGBAND
  5
222C
 10
-59.5496
 20
-22.2042
 30
0.000000
  70
    32
  0
VERTEX
  8
SAPA_FOGBAND
  5
222D
 10
-59.4656
 20
-22.2865
 30
0.000000
  70
    32
  0
VERTEX
  8
SAPA_FOGBAND
  5
222E
 10
-59.3796
 20
-22.3608
 30
0.000000
  70
    32
  0
VERTEX
  8
SAPA_FOGBAND
  5
222F
 10
-59.2918
 20
-22.4267
 30
0.000000
  70
    32
  0
VERTEX
  8
SAPA_FOGBAND
  5
2230
 10
-59.2025
 20
-22.4841
 30
0.000000
  70
    32
  0
VERTEX
  8
SAPA_FOGBAND
  5
2231
 10
-59.1118
 20
-22.5330
 30
0.000000
  70
    32
  0
VERTEX
  8
SAPA_FOGBAND
  5
2232
 10
-59.0201
 20
-22.5731
 30
0.000000
  70
    32
  0
VERTEX
  8
SAPA_FOGBAND
  5
2233
 10
-58.9274
 20
-22.6044
 30
0.000000
  70
    32
  0
VERTEX
  8
SAPA_FOGBAND
  5
2234
 10
-58.8340
 20
-22.6268
 30
0.000000
  70
    32
  0
VERTEX
  8
SAPA_FOGBAND
  5
2235
 10
-58.7402
 20
-22.6403
 30
0.000000
  70
    32
  0
VERTEX
  8
SAPA_FOGBAND
  5
2236
 10
-58.6461
 20
-22.6448
 30
0.000000
  70
    32
  0
VERTEX
  8
SAPA_FOGBAND
  5
2237
 10
-58.5521
 20
-22.6403
 30
0.000000
  70
    32
  0
VERTEX
  8
SAPA_FOGBAND
  5
2238
 10
-58.4583
 20
-22.6268
 30
0.000000
  70
    32
  0
VERTEX
  8
SAPA_FOGBAND
  5
2239
 10
-58.3649
 20
-22.6044
 30
0.000000
  70
    32
  0
VERTEX
  8
SAPA_FOGBAND
  5
223A
 10
-58.2722
 20
-22.5731
 30
0.000000
  70
    32
  0
VERTEX
  8
SAPA_FOGBAND
  5
223B
 10
-58.1804
 20
-22.5330
 30
0.000000
  70
    32
  0
VERTEX
  8
SAPA_FOGBAND
  5
223C
 10
-58.0897
 20
-22.4841
 30
0.000000
  70
    32
  0
VERTEX
  8
SAPA_FOGBAND
  5
223D
 10
-58.0004
 20
-22.4267
 30
0.000000
  70
    32
  0
VERTEX
  8
SAPA_FOGBAND
  5
223E
 10
-57.9126
 20
-22.3608
 30
0.000000
  70
    32
  0
VERTEX
  8
SAPA_FOGBAND
  5
223F
 10
-57.8266
 20
-22.2865
 30
0.000000
  70
    32
  0
VERTEX
  8
SAPA_FOGBAND
  5
2240
 10
-57.7426
 20
-22.2042
 30
0.000000
  70
    32
  0
VERTEX
  8
SAPA_FOGBAND
  5
2241
 10
-57.6607
 20
-22.1139
 30
0.000000
  70
    32
  0
VERTEX
  8
SAPA_FOGBAND
  5
2242
 10
-57.5813
 20
-22.0159
 30
0.000000
  70
    32
  0
VERTEX
  8
SAPA_FOGBAND
  5
2243
 10
-57.5044
 20
-21.9105
 30
0.000000
  70
    32
  0
VERTEX
  8
SAPA_FOGBAND
  5
2244
 10
-57.4302
 20
-21.7978
 30
0.000000
  70
    32
  0
VERTEX
  8
SAPA_FOGBAND
  5
2245
 10
-57.3590
 20
-21.6782
 30
0.000000
  70
    32
  0
VERTEX
  8
SAPA_FOGBAND
  5
2246
 10
-57.2908
 20
-21.5519
 30
0.000000
  70
    32
  0
VERTEX
  8
SAPA_FOGBAND
  5
2247
 10
-57.2260
 20
-21.4193
 30
0.000000
  70
    32
  0
VERTEX
  8
SAPA_FOGBAND
  5
2248
 10
-57.1645
 20
-21.2806
 30
0.000000
  70
    32
  0
VERTEX
  8
SAPA_FOGBAND
  5
2249
 10
-57.1066
 20
-21.1362
 30
0.000000
  70
    32
  0
VERTEX
  8
SAPA_FOGBAND
  5
224A
 10
-57.0525
 20
-20.9865
 30
0.000000
  70
    32
  0
VERTEX
  8
SAPA_FOGBAND
  5
224B
 10
-57.0021
 20
-20.8318
 30
0.000000
  70
    32
  0
VERTEX
  8
SAPA_FOGBAND
  5
224C
 10
-56.9558
 20
-20.6724
 30
0.000000
  70
    32
  0
VERTEX
  8
SAPA_FOGBAND
  5
224D
 10
-56.9135
 20
-20.5088
 30
0.000000
  70
    32
  0
VERTEX
  8
SAPA_FOGBAND
  5
224E
 10
-56.8753
 20
-20.3414
 30
0.000000
  70
    32
  0
VERTEX
  8
SAPA_FOGBAND
  5
224F
 10
-56.8415
 20
-20.1705
 30
0.000000
  70
    32
  0
VERTEX
  8
SAPA_FOGBAND
  5
2250
 10
-56.8120
 20
-19.9966
 30
0.000000
  70
    32
  0
VERTEX
  8
SAPA_FOGBAND
  5
2251
 10
-56.7869
 20
-19.8201
 30
0.000000
  70
    32
  0
VERTEX
  8
SAPA_FOGBAND
  5
2252
 10
-56.7663
 20
-19.6414
 30
0.000000
  70
    32
  0
VERTEX
  8
SAPA_FOGBAND
  5
2253
 10
-56.7502
 20
-19.4610
 30
0.000000
  70
    32
  0
VERTEX
  8
SAPA_FOGBAND
  5
2254
 10
-56.7387
 20
-19.2792
 30
0.000000
  70
    32
  0
VERTEX
  8
SAPA_FOGBAND
  5
2255
 10
-56.7317
 20
-19.0966
 30
0.000000
  70
    32
  0
VERTEX
  8
SAPA_FOGBAND
  5
2256
 10
-56.7294
 20
-18.9135
 30
0.000000
  70
    32
  0
VERTEX
  8
SAPA_FOGBAND
  5
2257
 10
-56.7317
 20
-18.7304
 30
0.000000
  70
    32
  0
VERTEX
  8
SAPA_FOGBAND
  5
2258
 10
-56.7387
 20
-18.5477
 30
0.000000
  70
    32
  0
VERTEX
  8
SAPA_FOGBAND
  5
2259
 10
-56.7502
 20
-18.3660
 30
0.000000
  70
    32
  0
VERTEX
  8
SAPA_FOGBAND
  5
225A
 10
-56.7663
 20
-18.1855
 30
0.000000
  70
    32
  0
VERTEX
  8
SAPA_FOGBAND
  5
225B
 10
-56.7869
 20
-18.0068
 30
0.000000
  70
    32
  0
VERTEX
  8
SAPA_FOGBAND
  5
225C
 10
-56.8120
 20
-17.8303
 30
0.000000
  70
    32
  0
VERTEX
  8
SAPA_FOGBAND
  5
225D
 10
-56.8415
 20
-17.6564
 30
0.000000
  70
    32
  0
VERTEX
  8
SAPA_FOGBAND
  5
225E
 10
-56.8753
 20
-17.4856
 30
0.000000
  70
    32
  0
VERTEX
  8
SAPA_FOGBAND
  5
225F
 10
-56.9135
 20
-17.3181
 30
0.000000
  70
    32
  0
VERTEX
  8
SAPA_FOGBAND
  5
2260
 10
-56.9558
 20
-17.1545
 30
0.000000
  70
    32
  0
VERTEX
  8
SAPA_FOGBAND
  5
2261
 10
-57.0021
 20
-16.9952
 30
0.000000
  70
    32
  0
VERTEX
  8
SAPA_FOGBAND
  5
2262
 10
-57.0525
 20
-16.8405
 30
0.000000
  70
    32
  0
VERTEX
  8
SAPA_FOGBAND
  5
2263
 10
-57.1066
 20
-16.6907
 30
0.000000
  70
    32
  0
VERTEX
  8
SAPA_FOGBAND
  5
2264
 10
-57.1645
 20
-16.5463
 30
0.000000
  70
    32
  0
VERTEX
  8
SAPA_FOGBAND
  5
2265
 10
-57.2260
 20
-16.4077
 30
0.000000
  70
    32
  0
VERTEX
  8
SAPA_FOGBAND
  5
2266
 10
-57.2908
 20
-16.2750
 30
0.000000
  70
    32
  0
VERTEX
  8
SAPA_FOGBAND
  5
2267
 10
-57.3590
 20
-16.1487
 30
0.000000
  70
    32
  0
VERTEX
  8
SAPA_FOGBAND
  5
2268
 10
-57.4302
 20
-16.0291
 30
0.000000
  70
    32
  0
VERTEX
  8
SAPA_FOGBAND
  5
2269
 10
-57.5044
 20
-15.9164
 30
0.000000
  70
    32
  0
VERTEX
  8
SAPA_FOGBAND
  5
226A
 10
-57.5813
 20
-15.8110
 30
0.000000
  70
    32
  0
VERTEX
  8
SAPA_FOGBAND
  5
226B
 10
-57.6607
 20
-15.7130
 30
0.000000
  70
    32
  0
VERTEX
  8
SAPA_FOGBAND
  5
226C
 10
-57.7426
 20
-15.6227
 30
0.000000
  70
    32
  0
VERTEX
  8
SAPA_FOGBAND
  5
226D
 10
-57.8266
 20
-15.5404
 30
0.000000
  70
    32
  0
VERTEX
  8
SAPA_FOGBAND
  5
226E
 10
-57.9126
 20
-15.4662
 30
0.000000
  70
    32
  0
VERTEX
  8
SAPA_FOGBAND
  5
226F
 10
-58.0004
 20
-15.4003
 30
0.000000
  70
    32
  0
VERTEX
  8
SAPA_FOGBAND
  5
2270
 10
-58.0897
 20
-15.3428
 30
0.000000
  70
    32
  0
VERTEX
  8
SAPA_FOGBAND
  5
2271
 10
-58.1804
 20
-15.2940
 30
0.000000
  70
    32
  0
VERTEX
  8
SAPA_FOGBAND
  5
2272
 10
-58.2722
 20
-15.2539
 30
0.000000
  70
    32
  0
VERTEX
  8
SAPA_FOGBAND
  5
2273
 10
-58.3649
 20
-15.2225
 30
0.000000
  70
    32
  0
VERTEX
  8
SAPA_FOGBAND
  5
2274
 10
-58.4583
 20
-15.2001
 30
0.000000
  70
    32
  0
VERTEX
  8
SAPA_FOGBAND
  5
2275
 10
-58.5521
 20
-15.1866
 30
0.000000
  70
    32
  0
VERTEX
  8
SAPA_FOGBAND
  5
2276
 10
-58.6461
 20
-15.1822
 30
0.000000
  70
    32
  0
SEQEND
  8
SAPA_FOGBAND
  5
2277
  0
POLYLINE
  5
1B54
  8
SAPA_FOGBAND
 66
     1
 10
0.0
 20
0.0
 30
0.0
  0
VERTEX
  5
20C1
  8
SAPA_FOGBAND
 10
-51.800000000001809
 20
-23.787839089535879
 30
0.0
  0
VERTEX
  5
20C2
  8
SAPA_FOGBAND
 10
-51.500000000001862
 20
-23.787839089535879
 30
0.0
  0
VERTEX
  5
20C3
  8
SAPA_FOGBAND
 10
-51.800000000001809
 20
-23.787839089535879
 30
0.0
 42
-0.4142135623730951
  0
VERTEX
  5
20C4
  8
SAPA_FOGBAND
 10
-52.300000000001809
 20
-23.287839089535879
 30
0.0
  0
VERTEX
  5
20C5
  8
SAPA_FOGBAND
 10
-52.300000000001859
 20
-15.987839089535919
 30
0.0
 42
-0.4142135623730951
  0
VERTEX
  5
20C6
  8
SAPA_FOGBAND
 10
-51.800000000001873
 20
-15.48783908953593
 30
0.0
  0
VERTEX
  5
20C7
  8
SAPA_FOGBAND
 10
-51.500000000001847
 20
-15.48783908953593
 30
0.0
  0
SEQEND
  5
20C8
  8
SAPA_FOGBAND
  0
POLYLINE
  5
1B55
  8
SAPA_FOGBAND
 66
     1
 10
0.0
 20
0.0
 30
0.0
 70
     1
  0
VERTEX
  5
20C9
  8
SAPA_FOGBAND
 10
-49.585369502363093
 20
-21.087839089535901
 30
0.0
  0
VERTEX
  5
20CA
  8
SAPA_FOGBAND
 10
-50.185369502363059
 20
-21.087839089535901
 30
0.0
 42
-0.9999999999999998
  0
VERTEX
  5
20CB
  8
SAPA_FOGBAND
 10
-50.185369502363059
 20
-19.28783908953594
 30
0.0
  0
VERTEX
  5
20CC
  8
SAPA_FOGBAND
 10
-49.585369502363093
 20
-19.287839089535879
 30
0.0
 42
-0.9999999999999998
  0
SEQEND
  5
20CD
  8
SAPA_FOGBAND
  0
POLYLINE
  5
1B56
  8
SAPA_FOGBAND
 66
     1
 10
0.0
 20
0.0
 30
0.0
 70
     1
  0
VERTEX
  5
20CE
  8
SAPA_FOGBAND
 10
-56.418068725706668
 20
-11.49897449569815
 30
0.0
 42
-0.646356061736289
  0
VERTEX
  5
20CF
  8
SAPA_FOGBAND
 10
-57.166938780872357
 20
-13.161691358676681
 30
0.0
  0
VERTEX
  5
20D0
  8
SAPA_FOGBAND
 10
-60.64591139233243
 20
-13.16169135867667
 30
0.0
 42
-0.4879283649264857
  0
VERTEX
  5
20D1
  8
SAPA_FOGBAND
 10
-61.61605389247778
 20
-11.91915573364034
 30
0.0
  0
VERTEX
  5
20D2
  8
SAPA_FOGBAND
 10
-60.896604538392843
 20
-9.0413583173005705
 30
0.0
 42
-0.3441507314089108
  0
VERTEX
  5
20D3
  8
SAPA_FOGBAND
 10
-59.926462038247507
 20
-8.2838939423369045
 30
0.0
  0
VERTEX
  5
20D4
  8
SAPA_FOGBAND
 10
-59.713662158164219
 20
-8.2838939423368902
 30
0.0
 42
-0.214804042991016
  0
VERTEX
  5
20D5
  8
SAPA_FOGBAND
 10
-58.964792102998508
 20
-8.6211770793583771
 30
0.0
  0
SEQEND
  5
20D6
  8
SAPA_FOGBAND
  0
POLYLINE
  5
1B57
  8
SAPA_FOGBAND
 66
     1
 10
0.0
 20
0.0
 30
0.0
 70
     1
  0
VERTEX
  5
20D7
  8
SAPA_FOGBAND
 10
-51.500000000001862
 20
-18.18783908953592
 30
0.0
 42
0.4142135623730951
  0
VERTEX
  5
20D8
  8
SAPA_FOGBAND
 10
-51.000000000001862
 20
-18.68783908953592
 30
0.0
  0
VERTEX
  5
20D9
  8
SAPA_FOGBAND
 10
-50.05857458311997
 20
-18.68783908953592
 30
0.0
  0
VERTEX
  5
20DA
  8
SAPA_FOGBAND
 10
-49.99111467380952
 20
-18.436075280515439
 30
0.0
 42
-0.474057181023226
  0
VERTEX
  5
20DB
  8
SAPA_FOGBAND
 10
-49.708832088170922
 20
-18.308781418151831
 30
0.0
  0
VERTEX
  5
20DC
  8
SAPA_FOGBAND
 10
-48.262625951411039
 20
-18.92888192091047
 30
0.0
 42
-0.2846003776496053
  0
VERTEX
  5
20DD
  8
SAPA_FOGBAND
 10
-47.985369502363064
 20
-19.376526099370569
 30
0.0
  0
VERTEX
  5
20DE
  8
SAPA_FOGBAND
 10
-47.985369502363064
 20
-20.99915207970119
 30
0.0
 42
-0.2846003776496055
  0
VERTEX
  5
20DF
  8
SAPA_FOGBAND
 10
-48.262625951411039
 20
-21.446796258161349
 30
0.0
  0
VERTEX
  5
20E0
  8
SAPA_FOGBAND
 10
-49.708832088170858
 20
-22.066896760919949
 30
0.0
 42
-0.474057181023226
  0
VERTEX
  5
20E1
  8
SAPA_FOGBAND
 10
-49.99111467380952
 20
-21.939602898556391
 30
0.0
  0
VERTEX
  5
20E2
  8
SAPA_FOGBAND
 10
-50.05857458311997
 20
-21.68783908953592
 30
0.0
  0
VERTEX
  5
20E3
  8
SAPA_FOGBAND
 10
-51.000000000001862
 20
-21.68783908953592
 30
0.0
 42
0.4142135623730951
  0
VERTEX
  5
20E4
  8
SAPA_FOGBAND
 10
-51.500000000001862
 20
-22.18783908953592
 30
0.0
  0
VERTEX
  5
20E5
  8
SAPA_FOGBAND
 10
-51.500000000001798
 20
-24.699999252917369
 30
0.0
 42
-0.4052499559557504
  0
VERTEX
  5
20E6
  8
SAPA_FOGBAND
 10
-51.790791339129143
 20
-24.9998578872185
 30
0.0
  0
VERTEX
  5
20E7
  8
SAPA_FOGBAND
 10
-62.690791339129177
 20
-25.487697701887932
 30
0.0
 42
-0.4232343445545565
  0
VERTEX
  5
20E8
  8
SAPA_FOGBAND
 10
-63.000000000001869
 20
-25.1878390675868
 30
0.0
  0
VERTEX
  5
20E9
  8
SAPA_FOGBAND
 10
-63.000000000001862
 20
-11.54939190234475
 30
0.0
 42
-0.0613213552369726
  0
VERTEX
  5
20EA
  8
SAPA_FOGBAND
 10
-62.98507125007454
 20
-11.42812408982658
 30
0.0
  0
VERTEX
  5
20EB
  8
SAPA_FOGBAND
 10
-62.414366093742721
 20
-5.945303464499573
 30
0.0
 42
-0.3441507314089092
  0
VERTEX
  5
20EC
  8
SAPA_FOGBAND
 10
-61.444223593597393
 20
-5.1878390895359141
 30
0.0
  0
VERTEX
  5
20ED
  8
SAPA_FOGBAND
 10
-60.206139425069189
 20
-5.1878390895359141
 30
0.0
 42
-0.2148040429910146
  0
VERTEX
  5
20EE
  8
SAPA_FOGBAND
 10
-59.831704397486327
 20
-5.3564806580466504
 30
0.0
  0
VERTEX
  5
20EF
  8
SAPA_FOGBAND
 10
-51.751129944836102
 20
-14.4875297895413
 30
0.0
 42
-0.1831167524995932
  0
VERTEX
  5
20F0
  8
SAPA_FOGBAND
 10
-51.500000000001847
 20
-15.150246652519829
 30
0.0
  0
SEQEND
  5
20F1
  8
SAPA_FOGBAND
  0
VIEWPORT
  5
C4
 67
     1
  8
0
 10
209.49949014430729
 20
130.70624923706049
 30
0.0
 40
625.55625699991936
 41
256.8421457311839
 68
     1
 69
     1
1001
ACAD
1000
MVIEW
1002
{
1070
    16
1010
0.0
1020
0.0
1030
0.0
1010
0.0
1020
0.0
1030
1.0
1040
0.0
1040
256.8421457311839
1040
209.49949014430729
1040
130.70624923706049
1040
50.0
1040
0.0
1040
0.0
1070
     0
1070
     0
1070
     1
1070
     1
1070
     0
1070
     0
1070
     0
1070
     0
1040
0.0
1040
0.0
1040
0.0
1040
10.0
1040
10.0
1040
10.0
1040
10.0
1070
     0
1002
{
1002
}
1002
}
  0
ENDSEC
  0
EOF
