  0
SECTION
  2
HEADER
  9
$ACADVER
  1
AC1009
  9
$INSBASE
 10
0.0
 20
0.0
 30
0.0
  9
$EXTMIN
 10
-168.082672302855
 20
-89.023669454960441
 30
0.0
  9
$EXTMAX
 10
61.056759434175689
 20
60.9571521167409
 30
0.0
  9
$LIMMIN
 10
0.0
 20
0.0
  9
$LIMMAX
 10
790.0
 20
790.0
  9
$ORTHOMODE
 70
     1
  9
$REGENMODE
 70
     1
  9
$FILLMODE
 70
     1
  9
$QTEXTMODE
 70
     0
  9
$MIRRTEXT
 70
     1
  9
$DRAGMODE
 70
     2
  9
$LTSCALE
 40
4.0
  9
$OSMODE
 70
   167
  9
$ATTMODE
 70
     1
  9
$TEXTSIZE
 40
3.5
  9
$TRACEWID
 40
0.05
  9
$TEXTSTYLE
  7
ISO
  9
$CLAYER
  8
0
  9
$CELTYPE
  6
BYLAYER
  9
$CECOLOR
 62
   256
  9
$DIMSCALE
 40
0.0
  9
$DIMASZ
 40
3.0
  9
$DIMEXO
 40
1.5
  9
$DIMDLI
 40
10.0
  9
$DIMRND
 40
0.0
  9
$DIMDLE
 40
0.0
  9
$DIMEXE
 40
1.5
  9
$DIMTP
 40
0.0
  9
$DIMTM
 40
0.0
  9
$DIMTXT
 40
3.0
  9
$DIMCEN
 40
-5.0
  9
$DIMTSZ
 40
0.0
  9
$DIMTOL
 70
     0
  9
$DIMLIM
 70
     0
  9
$DIMTIH
 70
     0
  9
$DIMTOH
 70
     0
  9
$DIMSE1
 70
     0
  9
$DIMSE2
 70
     0
  9
$DIMTAD
 70
     1
  9
$DIMZIN
 70
     8
  9
$DIMBLK
  1

  9
$DIMASO
 70
     1
  9
$DIMSHO
 70
     1
  9
$DIMPOST
  1

  9
$DIMAPOST
  1

  9
$DIMALT
 70
     0
  9
$DIMALTD
 70
     0
  9
$DIMALTF
 40
25.399999999999999
  9
$DIMLFAC
 40
-1.0
  9
$DIMTOFL
 70
     1
  9
$DIMTVP
 40
0.0
  9
$DIMTIX
 70
     0
  9
$DIMSOXD
 70
     0
  9
$DIMSAH
 70
     0
  9
$DIMBLK1
  1

  9
$DIMBLK2
  1

  9
$DIMSTYLE
  2
MASKIN
  9
$DIMCLRD
 70
   256
  9
$DIMCLRE
 70
   256
  9
$DIMCLRT
 70
     2
  9
$DIMTFAC
 40
1.0
  9
$DIMGAP
 40
1.0
  9
$LUNITS
 70
     2
  9
$LUPREC
 70
     8
  9
$SKETCHINC
 40
0.1
  9
$FILLETRAD
 40
0.0
  9
$AUNITS
 70
     0
  9
$AUPREC
 70
     8
  9
$MENU
  1
ACAD
  9
$ELEVATION
 40
0.0
  9
$PELEVATION
 40
0.0
  9
$THICKNESS
 40
0.0
  9
$LIMCHECK
 70
     0
  9
$BLIPMODE
 70
     0
  9
$CHAMFERA
 40
0.0
  9
$CHAMFERB
 40
0.0
  9
$SKPOLY
 70
     0
  9
$TDCREATE
 40
2456297.4478323259
  9
$TDUPDATE
 40
2456660.4938879288
  9
$TDINDWG
 40
0.5344182639
  9
$TDUSRTIMER
 40
0.5344182639
  9
$USRTIMER
 70
     1
  9
$ANGBASE
 50
0.0
  9
$ANGDIR
 70
     0
  9
$PDMODE
 70
     0
  9
$PDSIZE
 40
0.0
  9
$PLINEWID
 40
0.0
  9
$COORDS
 70
     1
  9
$SPLFRAME
 70
     0
  9
$SPLINETYPE
 70
     6
  9
$SPLINESEGS
 70
     8
  9
$ATTDIA
 70
     0
  9
$ATTREQ
 70
     1
  9
$HANDLING
 70
     1
  9
$HANDSEED
  5
25A5
  9
$SURFTAB1
 70
     6
  9
$SURFTAB2
 70
     6
  9
$SURFTYPE
 70
     6
  9
$SURFU
 70
     6
  9
$SURFV
 70
     6
  9
$UCSNAME
  2

  9
$UCSORG
 10
0.0
 20
0.0
 30
0.0
  9
$UCSXDIR
 10
1.0
 20
0.0
 30
0.0
  9
$UCSYDIR
 10
0.0
 20
1.0
 30
0.0
  9
$PUCSNAME
  2

  9
$PUCSORG
 10
0.0
 20
0.0
 30
0.0
  9
$PUCSXDIR
 10
1.0
 20
0.0
 30
0.0
  9
$PUCSYDIR
 10
0.0
 20
1.0
 30
0.0
  9
$USERI1
 70
     0
  9
$USERI2
 70
     0
  9
$USERI3
 70
     0
  9
$USERI4
 70
     0
  9
$USERI5
 70
     0
  9
$USERR1
 40
0.0
  9
$USERR2
 40
0.0
  9
$USERR3
 40
0.0
  9
$USERR4
 40
0.0
  9
$USERR5
 40
0.0
  9
$WORLDVIEW
 70
     1
  9
$SHADEDGE
 70
     3
  9
$SHADEDIF
 70
    70
  9
$TILEMODE
 70
     1
  9
$MAXACTVP
 70
    16
  9
$PLIMCHECK
 70
     0
  9
$PEXTMIN
 10
1.0000000000000000E+020
 20
1.0000000000000000E+020
 30
1.0000000000000000E+020
  9
$PEXTMAX
 10
-1.0000000000000000E+020
 20
-1.0000000000000000E+020
 30
-1.0000000000000000E+020
  9
$PLIMMIN
 10
-5.069427490234375
 20
-5.8737497329711914
  9
$PLIMMAX
 10
291.89889526367187
 20
204.0995779037475
  9
$UNITMODE
 70
     0
  9
$VISRETAIN
 70
     1
  9
$PLINEGEN
 70
     0
  9
$PSLTSCALE
 70
     1
  0
ENDSEC
  0
SECTION
  2
TABLES
  0
TABLE
  2
VPORT
 70
     1
  0
VPORT
  2
*ACTIVE
 70
     0
 10
0.0
 20
0.0
 11
1.0
 21
1.0
 12
-25.998702518731651
 22
43.697499501097859
 13
0.0
 23
0.0
 14
1.0
 24
1.0
 15
0.0
 25
0.0
 16
0.0
 26
0.0
 36
1.0
 17
0.0
 27
0.0
 37
0.0
 40
250.53884205536011
 41
2.112307692307692
 42
50.0
 43
0.0
 44
0.0
 50
0.0
 51
0.0
 71
     0
 72
   100
 73
     1
 74
     1
 75
     0
 76
     0
 77
     0
 78
     0
  0
ENDTAB
  0
TABLE
  2
LTYPE
 70
    45
  0
LTYPE
  2
CONTINUOUS
 70
     0
  3
Solid line
 72
    65
 73
     0
 40
0.0
  0
LTYPE
  2
DASHDOT
 70
     0
  3
__ . __ . __ . __ . __ . __ . __ . __ . __ . __
 72
    65
 73
     4
 40
1.0
 49
0.5
 49
-0.25
 49
0.0
 49
-0.25
  0
LTYPE
  2
BYGG-018516$0$NEWDOT
 70
     0
  3
____ . ____ . ____ . ____ . ____ . ____ . ____
 72
    65
 73
     4
 40
2.0
 49
1.0
 49
-0.5
 49
0.0
 49
-0.5
  0
LTYPE
  2
BYGG-018516$0$ZIGZAG
 70
     0
  3
Zig zag /\/\/\/\/\/\/\/\/\/\/\/\/\/\/\/\/\/\/\/\/\/\/\/
 72
    65
 73
     4
 40
20.32254
 49
0.00254
 49
-5.0800000000000001
 49
-10.16
 49
-5.0800000000000001
  0
LTYPE
  2
BYGG-014269$0$NEWDOT
 70
     0
  3
____ . ____ . ____ . ____ . ____ . ____ . ____
 72
    65
 73
     4
 40
2.0
 49
1.0
 49
-0.5
 49
0.0
 49
-0.5
  0
LTYPE
  2
BYGG-014269$0$ZIGZAG
 70
     0
  3
Zig zag /\/\/\/\/\/\/\/\/\/\/\/\/\/\/\/\/\/\/\/\/\/\/\/
 72
    65
 73
     4
 40
20.32254
 49
0.00254
 49
-5.0800000000000001
 49
-10.16
 49
-5.0800000000000001
  0
LTYPE
  2
BYGG-018731$0$NEWDOT
 70
     0
  3
____ . ____ . ____ . ____ . ____ . ____ . ____
 72
    65
 73
     4
 40
2.0
 49
1.0
 49
-0.5
 49
0.0
 49
-0.5
  0
LTYPE
  2
BYGG-018731$0$DASHDOT
 70
     0
  3
__ . __ . __ . __ . __ . __ . __ . __ . __ . __
 72
    65
 73
     4
 40
1.0
 49
0.5
 49
-0.25
 49
0.0
 49
-0.25
  0
LTYPE
  2
BYGG-018731$0$DASHED
 70
     0
  3
__ __ __ __ __ __ __ __ __ __ __ __ __ __ __
 72
    65
 73
     2
 40
0.75
 49
0.5
 49
-0.25
  0
LTYPE
  2
BYGG-018731$0$PHANTOM
 70
     0
  3
Phantom ______  __  __  ______  __  __  ______
 72
    65
 73
     6
 40
63.5
 49
31.75
 49
-6.3499999999999988
 49
6.3499999999999988
 49
-6.3499999999999988
 49
6.3499999999999988
 49
-6.3499999999999988
  0
LTYPE
  2
BYGG-029261$0$NEWDOT
 70
     0
  3
____ . ____ . ____ . ____ . ____ . ____ . ____
 72
    65
 73
     4
 40
2.0
 49
1.0
 49
-0.5
 49
0.0
 49
-0.5
  0
LTYPE
  2
BYGG-029261$0$DASHDOT
 70
     0
  3
__ . __ . __ . __ . __ . __ . __ . __ . __ . __
 72
    65
 73
     4
 40
1.0
 49
0.5
 49
-0.25
 49
0.0
 49
-0.25
  0
LTYPE
  2
BYGG-029261$0$DASHED
 70
     0
  3
__ __ __ __ __ __ __ __ __ __ __ __ __ __ __
 72
    65
 73
     2
 40
0.75
 49
0.5
 49
-0.25
  0
LTYPE
  2
BYGG-029261$0$PHANTOM
 70
     0
  3
Phantom ______  __  __  ______  __  __  ______
 72
    65
 73
     6
 40
63.5
 49
31.75
 49
-6.3499999999999988
 49
6.3499999999999988
 49
-6.3499999999999988
 49
6.3499999999999988
 49
-6.3499999999999988
  0
LTYPE
  2
BYGG-019653$0$NEWDOT
 70
     0
  3
____ . ____ . ____ . ____ . ____ . ____ . ____
 72
    65
 73
     4
 40
2.0
 49
1.0
 49
-0.5
 49
0.0
 49
-0.5
  0
LTYPE
  2
BYGG-019653$0$DASHDOT
 70
     0
  3
__ . __ . __ . __ . __ . __ . __ . __ . __ . __
 72
    65
 73
     4
 40
1.0
 49
0.5
 49
-0.25
 49
0.0
 49
-0.25
  0
LTYPE
  2
BYGG-019653$0$DASHED
 70
     0
  3
__ __ __ __ __ __ __ __ __ __ __ __ __ __ __
 72
    65
 73
     2
 40
0.75
 49
0.5
 49
-0.25
  0
LTYPE
  2
BYGG-019653$0$PHANTOM
 70
     0
  3
Phantom ______  __  __  ______  __  __  ______
 72
    65
 73
     6
 40
63.5
 49
31.75
 49
-6.3499999999999988
 49
6.3499999999999988
 49
-6.3499999999999988
 49
6.3499999999999988
 49
-6.3499999999999988
  0
LTYPE
  2
BYGG-020945$0$NEWDOT
 70
     0
  3
____ . ____ . ____ . ____ . ____ . ____ . ____
 72
    65
 73
     4
 40
2.0
 49
1.0
 49
-0.5
 49
0.0
 49
-0.5
  0
LTYPE
  2
BYGG-020945$0$DASHDOT
 70
     0
  3
__ . __ . __ . __ . __ . __ . __ . __ . __ . __
 72
    65
 73
     4
 40
1.0
 49
0.5
 49
-0.25
 49
0.0
 49
-0.25
  0
LTYPE
  2
BYGG-020945$0$DASHED
 70
     0
  3
__ __ __ __ __ __ __ __ __ __ __ __ __ __ __
 72
    65
 73
     2
 40
0.75
 49
0.5
 49
-0.25
  0
LTYPE
  2
BYGG-020945$0$PHANTOM
 70
     0
  3
Phantom ______  __  __  ______  __  __  ______
 72
    65
 73
     6
 40
63.5
 49
31.75
 49
-6.3499999999999988
 49
6.3499999999999988
 49
-6.3499999999999988
 49
6.3499999999999988
 49
-6.3499999999999988
  0
LTYPE
  2
BYGG-014113$0$NEWDOT
 70
     0
  3
____ . ____ . ____ . ____ . ____ . ____ . ____
 72
    65
 73
     4
 40
2.0
 49
1.0
 49
-0.5
 49
0.0
 49
-0.5
  0
LTYPE
  2
BYGG-014113$0$DASHDOT
 70
     0
  3
__ . __ . __ . __ . __ . __ . __ . __ . __ . __
 72
    65
 73
     4
 40
1.0
 49
0.5
 49
-0.25
 49
0.0
 49
-0.25
  0
LTYPE
  2
BYGG-014113$0$DASHED
 70
     0
  3
__ __ __ __ __ __ __ __ __ __ __ __ __ __ __
 72
    65
 73
     2
 40
0.75
 49
0.5
 49
-0.25
  0
LTYPE
  2
BYGG-028959$0$NEWDOT
 70
     0
  3
____ . ____ . ____ . ____ . ____ . ____ . ____
 72
    65
 73
     4
 40
2.0
 49
1.0
 49
-0.5
 49
0.0
 49
-0.5
  0
LTYPE
  2
BYGG-028959$0$DASHDOT
 70
     0
  3
__ . __ . __ . __ . __ . __ . __ . __ . __ . __
 72
    65
 73
     4
 40
1.0
 49
0.5
 49
-0.25
 49
0.0
 49
-0.25
  0
LTYPE
  2
BYGG-028959$0$DASHED
 70
     0
  3
__ __ __ __ __ __ __ __ __ __ __ __ __ __ __
 72
    65
 73
     2
 40
0.75
 49
0.5
 49
-0.25
  0
LTYPE
  2
BYGG-028959$0$PHANTOM
 70
     0
  3
Phantom ______  __  __  ______  __  __  ______
 72
    65
 73
     6
 40
63.5
 49
31.75
 49
-6.3499999999999988
 49
6.3499999999999988
 49
-6.3499999999999988
 49
6.3499999999999988
 49
-6.3499999999999988
  0
LTYPE
  2
BYGG-025538$0$NEWDOT
 70
     0
  3
____ . ____ . ____ . ____ . ____ . ____ . ____
 72
    65
 73
     4
 40
2.0
 49
1.0
 49
-0.5
 49
0.0
 49
-0.5
  0
LTYPE
  2
BYGG-025538$0$DASHDOT
 70
     0
  3
__ . __ . __ . __ . __ . __ . __ . __ . __ . __
 72
    65
 73
     4
 40
1.0
 49
0.5
 49
-0.25
 49
0.0
 49
-0.25
  0
LTYPE
  2
BYGG-025538$0$DASHED
 70
     0
  3
__ __ __ __ __ __ __ __ __ __ __ __ __ __ __
 72
    65
 73
     2
 40
0.75
 49
0.5
 49
-0.25
  0
LTYPE
  2
BYGG-025538$0$PHANTOM
 70
     0
  3
Phantom ______  __  __  ______  __  __  ______
 72
    65
 73
     6
 40
63.5
 49
31.75
 49
-6.3499999999999988
 49
6.3499999999999988
 49
-6.3499999999999988
 49
6.3499999999999988
 49
-6.3499999999999988
  0
LTYPE
  2
BYGG-019718$0$NEWDOT
 70
     0
  3
____ . ____ . ____ . ____ . ____ . ____ . ____
 72
    65
 73
     4
 40
2.0
 49
1.0
 49
-0.5
 49
0.0
 49
-0.5
  0
LTYPE
  2
BYGG-019718$0$DASHDOT
 70
     0
  3
__ . __ . __ . __ . __ . __ . __ . __ . __ . __
 72
    65
 73
     4
 40
1.0
 49
0.5
 49
-0.25
 49
0.0
 49
-0.25
  0
LTYPE
  2
BYGG-019718$0$DASHED
 70
     0
  3
__ __ __ __ __ __ __ __ __ __ __ __ __ __ __
 72
    65
 73
     2
 40
0.75
 49
0.5
 49
-0.25
  0
LTYPE
  2
BYGG-019718$0$PHANTOM
 70
     0
  3
Phantom ______  __  __  ______  __  __  ______
 72
    65
 73
     6
 40
63.5
 49
31.75
 49
-6.3499999999999988
 49
6.3499999999999988
 49
-6.3499999999999988
 49
6.3499999999999988
 49
-6.3499999999999988
  0
LTYPE
  2
BYGG-024894$0$DASHDOT
 70
     0
  3
__ . __ . __ . __ . __ . __ . __ . __ . __ . __
 72
    65
 73
     4
 40
1.0
 49
0.5
 49
-0.25
 49
0.0
 49
-0.25
  0
LTYPE
  2
BYGG-019612$0$NEWDOT
 70
     0
  3
____ . ____ . ____ . ____ . ____ . ____ . ____
 72
    65
 73
     4
 40
2.0
 49
1.0
 49
-0.5
 49
0.0
 49
-0.5
  0
LTYPE
  2
BYGG-019612$0$DASHDOT
 70
     0
  3
__ . __ . __ . __ . __ . __ . __ . __ . __ . __
 72
    65
 73
     4
 40
1.0
 49
0.5
 49
-0.25
 49
0.0
 49
-0.25
  0
LTYPE
  2
BYGG-019612$0$DASHED
 70
     0
  3
__ __ __ __ __ __ __ __ __ __ __ __ __ __ __
 72
    65
 73
     2
 40
0.75
 49
0.5
 49
-0.25
  0
LTYPE
  2
BYGG-019612$0$PHANTOM
 70
     0
  3
Phantom ______  __  __  ______  __  __  ______
 72
    65
 73
     6
 40
63.5
 49
31.75
 49
-6.3499999999999988
 49
6.3499999999999988
 49
-6.3499999999999988
 49
6.3499999999999988
 49
-6.3499999999999988
  0
LTYPE
  2
BYGG-019612$0$ZIGZAG
 70
     0
  3
Zig zag /\/\/\/\/\/\/\/\/\/\/\/\/\/\/\/\/\/\/\/\/\/\/\/
 72
    65
 73
     4
 40
20.32254
 49
0.00254
 49
-5.0800000000000001
 49
-10.16
 49
-5.0800000000000001
  0
LTYPE
  2
BYGG-019653$0$DOT_CENTER
 70
     0
  3
Dot_Center
 72
    65
 73
     4
 40
14.0
 49
12.0
 49
-1.0
 49
0.0
 49
-1.0
  0
LTYPE
  2
BYGG-019653$0$DASH_CENTER
 70
     0
  3
Dash_Center
 72
    65
 73
     4
 40
14.0
 49
11.0
 49
-1.0
 49
1.0
 49
-1.0
  0
ENDTAB
  0
TABLE
  2
LAYER
 70
   261
  0
LAYER
  2
0
 70
     0
 62
     7
  6
CONTINUOUS
  0
LAYER
  2
SAPA_ARTIKELNR
 70
     0
 62
     4
  6
CONTINUOUS
  0
LAYER
  2
SAPA_GLAS
 70
     0
 62
     4
  6
CONTINUOUS
  0
LAYER
  2
SAPA_ANSLUTNING
 70
     0
 62
     6
  6
CONTINUOUS
  0
LAYER
  2
SAPA_ISOLATOR
 70
     0
 62
     4
  6
CONTINUOUS
  0
LAYER
  2
SAPA_FOGBAND
 70
     0
 62
     2
  6
CONTINUOUS
  0
LAYER
  2
SAPA_PROFIL
 70
     0
 62
     7
  6
CONTINUOUS
  0
ENDTAB
  0
TABLE
  2
STYLE
 70
    34
  0
STYLE
  2
STANDARD
 70
     0
 40
0.0
 41
1.0
 50
0.0
 71
     0
 42
0.2
  3
txt
  4

  0
STYLE
  2
ISO
 70
     0
 40
0.0
 41
1.0
 50
0.0
 71
     0
 42
3.5
  3
txt
  4

  0
STYLE
  2

 70
     1
 40
0.0
 41
1.0
 50
0.0
 71
     0
 42
0.2
  3
ltypeshp.shx
  4

  0
STYLE
  2
BYGG-021665$0$STANDARD
 70
     0
 40
0.0
 41
1.0
 50
0.0
 71
     0
 42
0.2
  3
txt
  4

  0
STYLE
  2
BYGG-021665$0$ISO
 70
     0
 40
0.0
 41
1.0
 50
0.0
 71
     0
 42
3.5
  3
isocp3.shx
  4

  0
STYLE
  2
BYGG-018516$0$STANDARD
 70
     0
 40
0.0
 41
1.0
 50
0.0
 71
     0
 42
0.2
  3
txt
  4

  0
STYLE
  2
BYGG-018516$0$ISO
 70
     0
 40
0.0
 41
1.0
 50
0.0
 71
     0
 42
3.5
  3
isocp3.shx
  4

  0
STYLE
  2
BYGG-021581$0$STANDARD
 70
     0
 40
0.0
 41
1.0
 50
0.0
 71
     0
 42
0.2
  3
txt
  4

  0
STYLE
  2
BYGG-014269$0$STANDARD
 70
     0
 40
0.0
 41
1.0
 50
0.0
 71
     0
 42
0.2
  3
txt
  4

  0
STYLE
  2
BYGG-014269$0$ISO
 70
     0
 40
0.0
 41
1.0
 50
0.0
 71
     0
 42
2.5
  3
isocp3.shx
  4

  0
STYLE
  2
BYGG-018731$0$STANDARD
 70
     0
 40
0.0
 41
1.0
 50
0.0
 71
     0
 42
0.2
  3
txt
  4

  0
STYLE
  2
BYGG-018731$0$ISO
 70
     0
 40
0.0
 41
1.0
 50
0.0
 71
     0
 42
3.5
  3
txt
  4

  0
STYLE
  2
BYGG-029261$0$STANDARD
 70
     0
 40
0.0
 41
1.0
 50
0.0
 71
     0
 42
0.2
  3
txt
  4

  0
STYLE
  2
BYGG-029261$0$ISO
 70
     0
 40
0.0
 41
1.0
 50
0.0
 71
     0
 42
3.5
  3
txt
  4

  0
STYLE
  2
BYGG-019653$0$STANDARD
 70
     0
 40
0.0
 41
1.0
 50
0.0
 71
     0
 42
0.2
  3
txt
  4

  0
STYLE
  2
BYGG-019653$0$ISO
 70
     0
 40
0.0
 41
1.0
 50
0.0
 71
     0
 42
3.5
  3
txt
  4

  0
STYLE
  2
BYGG-019653$0$CONVERTER_11
 70
     0
 40
0.0
 41
0.72
 50
0.0
 71
     0
 42
0.2
  3
txt.shx
  4

  0
STYLE
  2
BYGG-020945$0$STANDARD
 70
     0
 40
0.0
 41
1.0
 50
0.0
 71
     0
 42
0.2
  3
txt
  4

  0
STYLE
  2
BYGG-020945$0$ISO
 70
     0
 40
0.0
 41
1.0
 50
0.0
 71
     0
 42
3.5
  3
txt
  4

  0
STYLE
  2
BYGG-014113$0$STANDARD
 70
     0
 40
0.0
 41
1.0
 50
0.0
 71
     0
 42
0.2
  3
txt
  4

  0
STYLE
  2
BYGG-014113$0$ISO
 70
     0
 40
0.0
 41
1.0
 50
0.0
 71
     0
 42
3.5
  3
isocp3.shx
  4

  0
STYLE
  2
BYGG-014113$0$SIMPLEX
 70
     0
 40
0.0
 41
1.0
 50
0.0
 71
     0
 42
0.4
  3
simplex
  4

  0
STYLE
  2
BYGG-028959$0$STANDARD
 70
     0
 40
0.0
 41
1.0
 50
0.0
 71
     0
 42
0.2
  3
txt
  4

  0
STYLE
  2
BYGG-028959$0$ISO
 70
     0
 40
0.0
 41
1.0
 50
0.0
 71
     0
 42
3.5
  3
txt
  4

  0
STYLE
  2
BYGG-025538$0$STANDARD
 70
     0
 40
0.0
 41
1.0
 50
0.0
 71
     0
 42
0.2
  3
txt
  4

  0
STYLE
  2
BYGG-025538$0$ISO
 70
     0
 40
0.0
 41
1.0
 50
0.0
 71
     0
 42
3.5
  3
txt
  4

  0
STYLE
  2
BYGG-019718$0$STANDARD
 70
     0
 40
0.0
 41
1.0
 50
0.0
 71
     0
 42
0.2
  3
txt
  4

  0
STYLE
  2
BYGG-019718$0$ISO
 70
     0
 40
0.0
 41
1.0
 50
0.0
 71
     0
 42
3.5
  3
txt
  4

  0
STYLE
  2
BYGG-024973$0$STANDARD
 70
     0
 40
0.0
 41
1.0
 50
0.0
 71
     0
 42
0.2
  3
txt
  4

  0
STYLE
  2
BYGG-024973$0$ISO
 70
     0
 40
0.0
 41
1.0
 50
0.0
 71
     0
 42
3.5
  3
txt
  4

  0
STYLE
  2
BYGG-024894$0$STANDARD
 70
     0
 40
0.0
 41
1.0
 50
0.0
 71
     0
 42
0.2
  3
txt
  4

  0
STYLE
  2
BYGG-024894$0$ISO
 70
     0
 40
0.0
 41
1.0
 50
0.0
 71
     0
 42
3.5
  3
txt
  4

  0
STYLE
  2
BYGG-019612$0$STANDARD
 70
     0
 40
0.0
 41
1.0
 50
0.0
 71
     0
 42
0.2
  3
txt
  4

  0
STYLE
  2
BYGG-019612$0$ISO
 70
     0
 40
0.0
 41
1.0
 50
0.0
 71
     0
 42
3.5
  3
txt
  4

  0
ENDTAB
  0
TABLE
  2
VIEW
 70
     0
  0
ENDTAB
  0
TABLE
  2
UCS
 70
     0
  0
ENDTAB
  0
TABLE
  2
APPID
 70
    23
  0
APPID
  2
ACAD
 70
     0
  0
APPID
  2
ACAD_DSTYLE_DIMTEXT_FILL
 70
     0
  0
APPID
  2
ACAD_DSTYLE_DIMEXT_LENGTH
 70
     0
  0
APPID
  2
ACAD_DSTYLE_DIMEXT_ENABLED
 70
     0
  0
APPID
  2
ACAD_DSTYLE_DIM_LINETYPE
 70
     0
  0
APPID
  2
ACAD_DSTYLE_DIM_EXT1_LINETYPE
 70
     0
  0
APPID
  2
ACAD_DSTYLE_DIM_EXT2_LINETYPE
 70
     0
  0
APPID
  2
ACAD_DSTYLE_DIMJOGGED_JOGA
 70
     0
  0
APPID
  2
ACAD_DSTYLE_DIMARC_LENGTH_
 70
     0
  0
APPID
  2
ACAD_PSEXT
 70
     0
  0
APPID
  2
ACAD_MLEADERVER
 70
     0
  0
APPID
  2
ACAD_NAV_VCDISPLAY
 70
     0
  0
APPID
  2
ACAD_EXEMPT_FROM_CAD_STANDARDS
 70
     0
  0
APPID
  2
ACAECLAYERSTANDARD
 70
     0
  0
APPID
  2
ACADANNOTATIVE
 70
     0
  0
APPID
  2
AMG_ARCHIVE11
 70
     0
  0
APPID
  2
GRADIENTCOLOR1ACI
 70
     0
  0
APPID
  2
GRADIENTCOLOR2ACI
 70
     0
  0
APPID
  2
AME_SOL
 70
     0
  0
APPID
  2
ACDBDYNAMICBLOCKGUID
 70
     0
  0
APPID
  2
ACDBBLOCKREPETAG
 70
     0
  0
APPID
  2
AEC_XDATA_BOUND_SPACE
 70
     0
  0
APPID
  2
ACCMTRANSPARENCY
 70
     0
  0
ENDTAB
  0
TABLE
  2
DIMSTYLE
 70
    48
  0
DIMSTYLE
  2
STANDARD
 70
     0
  3

  4

  5

  6

  7

 40
1.0
 41
0.18
 42
0.0625
 43
0.38
 44
0.18
 45
0.0
 46
0.0
 47
0.0
 48
0.0
140
0.18
141
0.09
142
0.0
143
25.399999999999999
144
1.0
145
0.0
146
1.0
147
0.09
 71
     0
 72
     0
 73
     1
 74
     1
 75
     0
 76
     0
 77
     0
 78
     0
170
     0
171
     2
172
     0
173
     0
174
     0
175
     0
176
     0
177
     0
178
     0
  0
DIMSTYLE
  2
MASKIN
 70
     0
  3

  4

  5

  6

  7

 40
0.0
 41
3.0
 42
1.5
 43
10.0
 44
1.5
 45
0.0
 46
0.0
 47
0.0
 48
0.0
140
3.0
141
-5.0
142
0.0
143
25.399999999999999
144
-1.0
145
0.0
146
1.0
147
1.0
 71
     0
 72
     0
 73
     0
 74
     0
 75
     0
 76
     0
 77
     1
 78
     8
170
     0
171
     0
172
     1
173
     0
174
     0
175
     0
176
   256
177
   256
178
     2
  0
DIMSTYLE
  2
BYGG-021665$0$MASKIN
 70
     0
  3

  4

  5

  6

  7

 40
0.0
 41
3.0
 42
1.5
 43
10.0
 44
1.5
 45
0.0
 46
0.0
 47
0.0
 48
0.0
140
3.0
141
-5.0
142
0.0
143
25.399999999999999
144
-1.0
145
0.0
146
1.0
147
1.0
 71
     0
 72
     0
 73
     0
 74
     0
 75
     0
 76
     0
 77
     1
 78
     8
170
     0
171
     0
172
     1
173
     0
174
     0
175
     0
176
   256
177
   256
178
   256
  0
DIMSTYLE
  2
BYGG-018516$0$STANDARD
 70
     0
  3

  4

  5

  6

  7

 40
1.0
 41
0.18
 42
0.0625
 43
0.38
 44
0.18
 45
0.0
 46
0.0
 47
0.0
 48
0.0
140
0.18
141
0.09
142
0.0
143
25.399999999999999
144
1.0
145
0.0
146
1.0
147
0.09
 71
     0
 72
     0
 73
     1
 74
     1
 75
     0
 76
     0
 77
     0
 78
     0
170
     0
171
     2
172
     0
173
     0
174
     0
175
     0
176
     0
177
     0
178
     0
  0
DIMSTYLE
  2
BYGG-018516$0$MASKIN
 70
     0
  3

  4

  5

  6

  7

 40
0.0
 41
3.0
 42
1.5
 43
10.0
 44
1.5
 45
0.0
 46
0.0
 47
0.0
 48
0.0
140
3.0
141
-5.0
142
0.0
143
25.399999999999999
144
-1.0
145
0.0
146
1.0
147
1.0
 71
     0
 72
     0
 73
     0
 74
     0
 75
     0
 76
     0
 77
     1
 78
     8
170
     0
171
     0
172
     1
173
     0
174
     0
175
     0
176
   256
177
   256
178
     2
  0
DIMSTYLE
  2
BYGG-021581$0$STANDARD
 70
     0
  3

  4

  5

  6

  7

 40
1.0
 41
0.18
 42
0.0625
 43
0.38
 44
0.18
 45
0.0
 46
0.0
 47
0.0
 48
0.0
140
0.18
141
0.09
142
0.0
143
25.399999999999999
144
1.0
145
0.0
146
1.0
147
0.09
 71
     0
 72
     0
 73
     1
 74
     1
 75
     0
 76
     0
 77
     0
 78
     0
170
     0
171
     2
172
     0
173
     0
174
     0
175
     0
176
     0
177
     0
178
     0
  0
DIMSTYLE
  2
BYGG-014269$0$STANDARD
 70
     0
  3

  4

  5

  6

  7

 40
1.0
 41
0.18
 42
0.0625
 43
0.38
 44
0.18
 45
0.0
 46
0.0
 47
0.0
 48
0.0
140
0.18
141
0.09
142
0.0
143
25.399999999999999
144
1.0
145
0.0
146
1.0
147
0.09
 71
     0
 72
     0
 73
     1
 74
     1
 75
     0
 76
     0
 77
     0
 78
     0
170
     0
171
     2
172
     0
173
     0
174
     0
175
     0
176
     0
177
     0
178
     0
  0
DIMSTYLE
  2
BYGG-014269$0$MASKIN
 70
     0
  3

  4

  5

  6

  7

 40
0.0
 41
3.0
 42
1.5
 43
10.0
 44
1.5
 45
0.0
 46
0.0
 47
0.0
 48
0.0
140
3.0
141
-5.0
142
0.0
143
25.399999999999999
144
-1.0
145
0.0
146
1.0
147
1.0
 71
     0
 72
     0
 73
     0
 74
     1
 75
     0
 76
     0
 77
     1
 78
     8
170
     0
171
     0
172
     1
173
     0
174
     0
175
     0
176
   256
177
   256
178
     2
  0
DIMSTYLE
  2
BYGG-018731$0$STANDARD
 70
     0
  3

  4

  5

  6

  7

 40
1.0
 41
0.18
 42
0.0625
 43
0.38
 44
0.18
 45
0.0
 46
0.0
 47
0.0
 48
0.0
140
0.18
141
0.09
142
0.0
143
25.399999999999999
144
1.0
145
0.0
146
1.0
147
0.09
 71
     0
 72
     0
 73
     1
 74
     1
 75
     0
 76
     0
 77
     0
 78
     0
170
     0
171
     2
172
     0
173
     0
174
     0
175
     0
176
     0
177
     0
178
     0
  0
DIMSTYLE
  2
BYGG-018731$0$MASKIN
 70
     0
  3

  4

  5

  6

  7

 40
0.0
 41
3.0
 42
1.5
 43
10.0
 44
1.5
 45
0.0
 46
0.0
 47
0.0
 48
0.0
140
3.0
141
-5.0
142
0.0
143
25.399999999999999
144
-1.0
145
0.0
146
1.0
147
1.0
 71
     0
 72
     0
 73
     0
 74
     0
 75
     0
 76
     0
 77
     1
 78
     8
170
     0
171
     0
172
     1
173
     0
174
     0
175
     0
176
   256
177
   256
178
     2
  0
DIMSTYLE
  2
BYGG-029261$0$STANDARD
 70
     0
  3

  4

  5

  6

  7

 40
1.0
 41
0.18
 42
0.0625
 43
0.38
 44
0.18
 45
0.0
 46
0.0
 47
0.0
 48
0.0
140
0.18
141
0.09
142
0.0
143
25.399999999999999
144
1.0
145
0.0
146
1.0
147
0.09
 71
     0
 72
     0
 73
     1
 74
     1
 75
     0
 76
     0
 77
     0
 78
     0
170
     0
171
     2
172
     0
173
     0
174
     0
175
     0
176
     0
177
     0
178
     0
  0
DIMSTYLE
  2
BYGG-029261$0$MASKIN
 70
     0
  3

  4

  5

  6

  7

 40
0.0
 41
3.0
 42
1.5
 43
10.0
 44
1.5
 45
0.0
 46
0.0
 47
0.0
 48
0.0
140
3.0
141
-5.0
142
0.0
143
25.399999999999999
144
-1.0
145
0.0
146
1.0
147
1.0
 71
     0
 72
     0
 73
     0
 74
     0
 75
     0
 76
     0
 77
     1
 78
     8
170
     0
171
     0
172
     1
173
     0
174
     0
175
     0
176
   256
177
   256
178
     2
  0
DIMSTYLE
  2
BYGG-029261$0$ISO-25
 70
     0
  3

  4

  5

  6

  7

 40
1.0
 41
2.5
 42
0.625
 43
3.75
 44
1.25
 45
0.0
 46
0.0
 47
0.0
 48
0.0
140
2.5
141
2.5
142
0.0
143
0.03937007874016
144
1.0
145
0.0
146
1.0
147
0.625
 71
     0
 72
     0
 73
     0
 74
     0
 75
     0
 76
     0
 77
     1
 78
     8
170
     0
171
     3
172
     1
173
     0
174
     0
175
     0
176
     0
177
     0
178
     0
  0
DIMSTYLE
  2
BYGG-019653$0$STANDARD
 70
     0
  3

  4

  5

  6

  7

 40
1.0
 41
0.18
 42
0.0625
 43
0.38
 44
0.18
 45
0.0
 46
0.0
 47
0.0
 48
0.0
140
0.18
141
0.09
142
0.0
143
25.399999999999999
144
1.0
145
0.0
146
1.0
147
0.09
 71
     0
 72
     0
 73
     1
 74
     1
 75
     0
 76
     0
 77
     0
 78
     0
170
     0
171
     2
172
     0
173
     0
174
     0
175
     0
176
     0
177
     0
178
     0
  0
DIMSTYLE
  2
BYGG-019653$0$MASKIN
 70
     0
  3

  4

  5

  6

  7

 40
0.0
 41
3.0
 42
1.5
 43
10.0
 44
1.5
 45
0.0
 46
0.0
 47
0.0
 48
0.0
140
3.0
141
-5.0
142
0.0
143
25.399999999999999
144
-1.0
145
0.0
146
1.0
147
1.0
 71
     0
 72
     0
 73
     0
 74
     0
 75
     0
 76
     0
 77
     1
 78
     8
170
     0
171
     0
172
     1
173
     0
174
     0
175
     0
176
   256
177
   256
178
     2
  0
DIMSTYLE
  2
BYGG-019653$0$ME10_DIM_10
 70
     0
  3

  4

  5

  6

  7

 40
1.0
 41
0.7
 42
0.0
 43
0.38
 44
0.4
 45
0.0
 46
0.0
 47
0.0
 48
0.0
140
0.7
141
0.09
142
0.0
143
25.399999999999999
144
1.0
145
0.0
146
1.0
147
0.4
 71
     0
 72
     0
 73
     0
 74
     0
 75
     0
 76
     0
 77
     1
 78
     8
170
     0
171
     2
172
     1
173
     1
174
     0
175
     0
176
     1
177
     1
178
     2
  0
DIMSTYLE
  2
BYGG-019653$0$ME10_DIM_11
 70
     0
  3

  4

  5

  6

  7

 40
1.0
 41
0.7
 42
0.0
 43
0.38
 44
0.4
 45
0.0
 46
0.0
 47
0.0
 48
0.0
140
0.7
141
0.09
142
0.0
143
25.399999999999999
144
1.0
145
0.0
146
1.0
147
0.4
 71
     0
 72
     0
 73
     0
 74
     0
 75
     0
 76
     0
 77
     1
 78
     8
170
     0
171
     2
172
     1
173
     1
174
     0
175
     0
176
     1
177
     1
178
     2
  0
DIMSTYLE
  2
BYGG-019653$0$ME10_DIM_12
 70
     0
  3
(<>)
  4

  5

  6

  7

 40
1.0
 41
0.7
 42
0.0
 43
0.38
 44
0.4
 45
0.0
 46
0.0
 47
0.0
 48
0.0
140
0.7
141
0.09
142
0.0
143
25.399999999999999
144
1.0
145
0.0
146
1.0
147
0.4
 71
     0
 72
     0
 73
     0
 74
     0
 75
     0
 76
     0
 77
     1
 78
     8
170
     0
171
     2
172
     1
173
     1
174
     0
175
     0
176
     1
177
     1
178
     2
  0
DIMSTYLE
  2
BYGG-019653$0$ME10_DIM_13
 70
     0
  3

  4

  5

  6

  7

 40
1.0
 41
0.7
 42
0.0
 43
0.38
 44
0.4
 45
0.0
 46
0.0
 47
0.0
 48
0.0
140
0.7
141
0.09
142
0.0
143
25.399999999999999
144
1.0
145
0.0
146
1.0
147
0.4
 71
     0
 72
     0
 73
     0
 74
     0
 75
     0
 76
     0
 77
     1
 78
     8
170
     0
171
     2
172
     1
173
     1
174
     0
175
     0
176
     1
177
     1
178
     2
  0
DIMSTYLE
  2
BYGG-019653$0$ME10_DIM_14
 70
     0
  3

  4

  5

  6

  7

 40
1.0
 41
0.7
 42
0.0
 43
0.38
 44
0.4
 45
0.0
 46
0.0
 47
0.0
 48
0.0
140
0.7
141
0.09
142
0.0
143
25.399999999999999
144
1.0
145
0.0
146
1.0
147
0.4
 71
     0
 72
     0
 73
     0
 74
     0
 75
     0
 76
     0
 77
     1
 78
     8
170
     0
171
     2
172
     1
173
     1
174
     0
175
     0
176
     1
177
     1
178
     2
  0
DIMSTYLE
  2
BYGG-019653$0$ME10_DIM_15
 70
     0
  3

  4

  5

  6

  7

 40
1.0
 41
0.7
 42
0.0
 43
0.38
 44
0.4
 45
0.0
 46
0.0
 47
0.0
 48
0.0
140
0.7
141
0.09
142
0.0
143
25.399999999999999
144
1.0
145
0.0
146
1.0
147
0.4
 71
     0
 72
     0
 73
     0
 74
     0
 75
     0
 76
     0
 77
     1
 78
     8
170
     0
171
     2
172
     1
173
     1
174
     0
175
     0
176
     1
177
     1
178
     2
  0
DIMSTYLE
  2
BYGG-019653$0$ME10_DIM_16
 70
     0
  3

  4

  5

  6

  7

 40
1.0
 41
0.7
 42
0.0
 43
0.38
 44
0.4
 45
0.0
 46
0.0
 47
0.3
 48
0.3
140
0.7
141
0.09
142
0.0
143
25.399999999999999
144
1.0
145
0.0
146
0.6
147
0.4
 71
     1
 72
     0
 73
     0
 74
     0
 75
     0
 76
     0
 77
     1
 78
     8
170
     0
171
     2
172
     1
173
     1
174
     0
175
     0
176
     1
177
     1
178
     2
  0
DIMSTYLE
  2
BYGG-019653$0$ME10_DIM_17
 70
     0
  3

  4

  5

  6

  7

 40
1.0
 41
0.7
 42
0.0
 43
0.38
 44
0.4
 45
0.0
 46
0.0
 47
0.0
 48
0.0
140
0.7
141
0.09
142
0.0
143
25.399999999999999
144
1.0
145
0.0
146
1.0
147
0.4
 71
     0
 72
     0
 73
     0
 74
     0
 75
     0
 76
     0
 77
     1
 78
     8
170
     0
171
     2
172
     1
173
     1
174
     0
175
     0
176
     1
177
     1
178
     2
  0
DIMSTYLE
  2
BYGG-019653$0$ME10_DIM_18
 70
     0
  3

  4

  5

  6

  7

 40
1.0
 41
0.7
 42
0.0
 43
0.38
 44
0.4
 45
0.0
 46
0.0
 47
0.3
 48
0.3
140
0.7
141
0.09
142
0.0
143
25.399999999999999
144
1.0
145
0.0
146
0.6
147
0.4
 71
     1
 72
     0
 73
     0
 74
     0
 75
     0
 76
     0
 77
     1
 78
     8
170
     0
171
     2
172
     1
173
     1
174
     0
175
     0
176
     1
177
     1
178
     2
  0
DIMSTYLE
  2
BYGG-019653$0$ME10_DIM_19
 70
     0
  3

  4

  5

  6

  7

 40
1.0
 41
0.7
 42
0.0
 43
0.38
 44
0.4
 45
0.0
 46
0.0
 47
0.0
 48
0.0
140
0.7
141
0.09
142
0.0
143
25.399999999999999
144
1.0
145
0.0
146
1.0
147
0.4
 71
     0
 72
     0
 73
     0
 74
     0
 75
     0
 76
     0
 77
     1
 78
     8
170
     0
171
     2
172
     1
173
     1
174
     0
175
     0
176
     1
177
     1
178
     2
  0
DIMSTYLE
  2
BYGG-019653$0$ME10_DIM_20
 70
     0
  3

  4

  5

  6

  7

 40
1.0
 41
0.7
 42
0.0
 43
0.38
 44
0.4
 45
0.0
 46
0.0
 47
0.0
 48
0.0
140
0.7
141
0.09
142
0.0
143
25.399999999999999
144
1.0
145
0.0
146
1.0
147
0.4
 71
     0
 72
     0
 73
     0
 74
     0
 75
     0
 76
     0
 77
     1
 78
     8
170
     0
171
     2
172
     1
173
     1
174
     0
175
     0
176
     1
177
     1
178
     2
  0
DIMSTYLE
  2
BYGG-019653$0$ME10_DIM_21
 70
     0
  3
(<>)
  4

  5

  6

  7

 40
1.0
 41
0.7
 42
0.0
 43
0.38
 44
0.4
 45
0.0
 46
0.0
 47
0.0
 48
0.0
140
0.7
141
0.09
142
0.0
143
25.399999999999999
144
1.0
145
0.0
146
1.0
147
0.4
 71
     0
 72
     0
 73
     0
 74
     0
 75
     0
 76
     0
 77
     1
 78
     8
170
     0
171
     2
172
     1
173
     1
174
     0
175
     0
176
     1
177
     1
178
     2
  0
DIMSTYLE
  2
BYGG-019653$0$ME10_DIM_22
 70
     0
  3

  4

  5

  6

  7

 40
1.0
 41
0.7
 42
0.0
 43
0.38
 44
0.4
 45
0.0
 46
0.0
 47
0.0
 48
0.0
140
0.7
141
0.09
142
0.0
143
25.399999999999999
144
1.0
145
0.0
146
1.0
147
0.4
 71
     0
 72
     0
 73
     0
 74
     0
 75
     0
 76
     0
 77
     1
 78
     8
170
     0
171
     2
172
     1
173
     1
174
     0
175
     0
176
     1
177
     1
178
     2
  0
DIMSTYLE
  2
BYGG-019653$0$ME10_DIM_23
 70
     0
  3

  4

  5

  6

  7

 40
1.0
 41
0.7
 42
0.0
 43
0.38
 44
0.4
 45
0.0
 46
0.0
 47
0.0
 48
0.0
140
0.7
141
0.09
142
0.0
143
25.399999999999999
144
1.0
145
0.0
146
1.0
147
0.4
 71
     0
 72
     0
 73
     0
 74
     0
 75
     0
 76
     0
 77
     1
 78
     8
170
     0
171
     2
172
     1
173
     1
174
     0
175
     0
176
     1
177
     1
178
     2
  0
DIMSTYLE
  2
BYGG-020945$0$STANDARD
 70
     0
  3

  4

  5

  6

  7

 40
1.0
 41
0.18
 42
0.0625
 43
0.38
 44
0.18
 45
0.0
 46
0.0
 47
0.0
 48
0.0
140
0.18
141
0.09
142
0.0
143
25.399999999999999
144
1.0
145
0.0
146
1.0
147
0.09
 71
     0
 72
     0
 73
     1
 74
     1
 75
     0
 76
     0
 77
     0
 78
     0
170
     0
171
     2
172
     0
173
     0
174
     0
175
     0
176
     0
177
     0
178
     0
  0
DIMSTYLE
  2
BYGG-020945$0$MASKIN
 70
     0
  3

  4

  5

  6

  7

 40
0.0
 41
3.0
 42
1.5
 43
10.0
 44
1.5
 45
0.0
 46
0.0
 47
0.0
 48
0.0
140
3.0
141
-5.0
142
0.0
143
25.399999999999999
144
-1.0
145
0.0
146
1.0
147
1.0
 71
     0
 72
     0
 73
     0
 74
     0
 75
     0
 76
     0
 77
     1
 78
     8
170
     0
171
     0
172
     1
173
     0
174
     0
175
     0
176
   256
177
   256
178
     2
  0
DIMSTYLE
  2
BYGG-014113$0$MASKIN
 70
     0
  3

  4

  5

  6

  7

 40
0.0
 41
3.0
 42
1.5
 43
10.0
 44
1.5
 45
0.0
 46
0.0
 47
0.0
 48
0.0
140
3.0
141
-5.0
142
0.0
143
25.399999999999999
144
-1.0
145
0.0
146
1.0
147
1.0
 71
     0
 72
     0
 73
     0
 74
     0
 75
     0
 76
     0
 77
     1
 78
     8
170
     0
171
     0
172
     1
173
     0
174
     0
175
     0
176
   256
177
   256
178
   256
  0
DIMSTYLE
  2
BYGG-014113$0$MASKIN1
 70
     0
  3

  4

  5

  6

  7

 40
1.0
 41
3.0
 42
1.5
 43
10.0
 44
1.5
 45
0.0
 46
0.0
 47
0.0
 48
0.0
140
3.0
141
-5.0
142
0.0
143
25.399999999999999
144
1.0
145
0.0
146
1.0
147
0.9
 71
     0
 72
     0
 73
     0
 74
     0
 75
     0
 76
     0
 77
     1
 78
     8
170
     0
171
     0
172
     1
173
     0
174
     0
175
     0
176
   256
177
   256
178
   256
  0
DIMSTYLE
  2
BYGG-014113$0$MASKIN2
 70
     0
  3

  4

  5

  6

  7

 40
1.0
 41
3.0
 42
1.5
 43
10.0
 44
1.5
 45
0.0
 46
0.0
 47
0.0
 48
0.0
140
3.0
141
-5.0
142
0.0
143
25.399999999999999
144
1.0
145
0.0
146
1.0
147
0.9
 71
     0
 72
     0
 73
     0
 74
     0
 75
     0
 76
     0
 77
     1
 78
     8
170
     0
171
     0
172
     1
173
     0
174
     0
175
     0
176
   256
177
   256
178
   256
  0
DIMSTYLE
  2
BYGG-014113$0$MASKIN3
 70
     0
  3

  4

  5

  6

  7

 40
1.0
 41
3.0
 42
1.5
 43
10.0
 44
1.5
 45
0.0
 46
0.0
 47
0.0
 48
0.0
140
3.0
141
-5.0
142
0.0
143
25.399999999999999
144
1.0
145
0.0
146
1.0
147
0.9
 71
     0
 72
     0
 73
     0
 74
     0
 75
     0
 76
     0
 77
     1
 78
     8
170
     0
171
     0
172
     1
173
     0
174
     0
175
     0
176
   256
177
   256
178
   256
  0
DIMSTYLE
  2
BYGG-014113$0$STANDARD
 70
     0
  3

  4

  5

  6

  7

 40
1.0
 41
0.18
 42
0.0625
 43
0.38
 44
0.18
 45
0.0
 46
0.0
 47
0.0
 48
0.0
140
0.18
141
0.09
142
0.0
143
25.399999999999999
144
1.0
145
0.0
146
1.0
147
0.09
 71
     0
 72
     0
 73
     1
 74
     1
 75
     0
 76
     0
 77
     0
 78
     0
170
     0
171
     2
172
     0
173
     0
174
     0
175
     0
176
     0
177
     0
178
     0
  0
DIMSTYLE
  2
BYGG-028959$0$STANDARD
 70
     0
  3

  4

  5

  6

  7

 40
1.0
 41
0.18
 42
0.0625
 43
0.38
 44
0.18
 45
0.0
 46
0.0
 47
0.0
 48
0.0
140
0.18
141
0.09
142
0.0
143
25.399999999999999
144
1.0
145
0.0
146
1.0
147
0.09
 71
     0
 72
     0
 73
     1
 74
     1
 75
     0
 76
     0
 77
     0
 78
     0
170
     0
171
     2
172
     0
173
     0
174
     0
175
     0
176
     0
177
     0
178
     0
  0
DIMSTYLE
  2
BYGG-028959$0$MASKIN
 70
     0
  3

  4

  5

  6

  7

 40
0.0
 41
3.0
 42
1.5
 43
10.0
 44
1.5
 45
0.0
 46
0.0
 47
0.0
 48
0.0
140
3.0
141
-5.0
142
0.0
143
25.399999999999999
144
-1.0
145
0.0
146
1.0
147
1.0
 71
     0
 72
     0
 73
     0
 74
     0
 75
     0
 76
     0
 77
     1
 78
     8
170
     0
171
     0
172
     1
173
     0
174
     0
175
     0
176
   256
177
   256
178
     2
  0
DIMSTYLE
  2
BYGG-025538$0$STANDARD
 70
     0
  3

  4

  5

  6

  7

 40
1.0
 41
0.18
 42
0.0625
 43
0.38
 44
0.18
 45
0.0
 46
0.0
 47
0.0
 48
0.0
140
0.18
141
0.09
142
0.0
143
25.399999999999999
144
1.0
145
0.0
146
1.0
147
0.09
 71
     0
 72
     0
 73
     1
 74
     1
 75
     0
 76
     0
 77
     0
 78
     0
170
     0
171
     2
172
     0
173
     0
174
     0
175
     0
176
     0
177
     0
178
     0
  0
DIMSTYLE
  2
BYGG-025538$0$MASKIN
 70
     0
  3

  4

  5

  6

  7

 40
0.0
 41
3.0
 42
1.5
 43
10.0
 44
1.5
 45
0.0
 46
0.0
 47
0.0
 48
0.0
140
3.0
141
-5.0
142
0.0
143
25.399999999999999
144
-1.0
145
0.0
146
1.0
147
1.0
 71
     0
 72
     0
 73
     0
 74
     0
 75
     0
 76
     0
 77
     1
 78
     8
170
     0
171
     0
172
     1
173
     0
174
     0
175
     0
176
   256
177
   256
178
     2
  0
DIMSTYLE
  2
BYGG-019718$0$STANDARD
 70
     0
  3

  4

  5

  6

  7

 40
1.0
 41
0.18
 42
0.0625
 43
0.38
 44
0.18
 45
0.0
 46
0.0
 47
0.0
 48
0.0
140
0.18
141
0.09
142
0.0
143
25.399999999999999
144
1.0
145
0.0
146
1.0
147
0.09
 71
     0
 72
     0
 73
     1
 74
     1
 75
     0
 76
     0
 77
     0
 78
     0
170
     0
171
     2
172
     0
173
     0
174
     0
175
     0
176
     0
177
     0
178
     0
  0
DIMSTYLE
  2
BYGG-019718$0$MASKIN
 70
     0
  3

  4

  5

  6

  7

 40
0.0
 41
3.0
 42
1.5
 43
10.0
 44
1.5
 45
0.0
 46
0.0
 47
0.0
 48
0.0
140
3.0
141
-5.0
142
0.0
143
25.399999999999999
144
-1.0
145
0.0
146
1.0
147
1.0
 71
     0
 72
     0
 73
     0
 74
     0
 75
     0
 76
     0
 77
     1
 78
     8
170
     0
171
     0
172
     1
173
     0
174
     0
175
     0
176
   256
177
   256
178
     2
  0
DIMSTYLE
  2
BYGG-024973$0$STANDARD
 70
     0
  3

  4

  5

  6

  7

 40
1.0
 41
0.18
 42
0.0625
 43
0.38
 44
0.18
 45
0.0
 46
0.0
 47
0.0
 48
0.0
140
0.18
141
0.09
142
0.0
143
25.399999999999999
144
1.0
145
0.0
146
1.0
147
0.09
 71
     0
 72
     0
 73
     1
 74
     1
 75
     0
 76
     0
 77
     0
 78
     0
170
     0
171
     2
172
     0
173
     0
174
     0
175
     0
176
     0
177
     0
178
     0
  0
DIMSTYLE
  2
BYGG-024973$0$MASKIN
 70
     0
  3

  4

  5

  6

  7

 40
0.0
 41
3.0
 42
1.5
 43
10.0
 44
1.5
 45
0.0
 46
0.0
 47
0.0
 48
0.0
140
3.0
141
-5.0
142
0.0
143
25.399999999999999
144
-1.0
145
0.0
146
1.0
147
1.0
 71
     0
 72
     0
 73
     0
 74
     0
 75
     0
 76
     0
 77
     1
 78
     8
170
     0
171
     0
172
     1
173
     0
174
     0
175
     0
176
   256
177
   256
178
     2
  0
DIMSTYLE
  2
BYGG-024894$0$STANDARD
 70
     0
  3

  4

  5

  6

  7

 40
1.0
 41
0.18
 42
0.0625
 43
0.38
 44
0.18
 45
0.0
 46
0.0
 47
0.0
 48
0.0
140
0.18
141
0.09
142
0.0
143
25.399999999999999
144
1.0
145
0.0
146
1.0
147
0.09
 71
     0
 72
     0
 73
     1
 74
     1
 75
     0
 76
     0
 77
     0
 78
     0
170
     0
171
     2
172
     0
173
     0
174
     0
175
     0
176
     0
177
     0
178
     0
  0
DIMSTYLE
  2
BYGG-024894$0$MASKIN
 70
     0
  3

  4

  5

  6

  7

 40
0.0
 41
3.0
 42
1.5
 43
10.0
 44
1.5
 45
0.0
 46
0.0
 47
0.0
 48
0.0
140
3.0
141
-5.0
142
0.0
143
25.399999999999999
144
-1.0
145
0.0
146
1.0
147
1.0
 71
     0
 72
     0
 73
     0
 74
     0
 75
     0
 76
     0
 77
     1
 78
     8
170
     0
171
     0
172
     1
173
     0
174
     0
175
     0
176
   256
177
   256
178
     2
  0
DIMSTYLE
  2
BYGG-019612$0$STANDARD
 70
     0
  3

  4

  5

  6

  7

 40
1.0
 41
0.18
 42
0.0625
 43
0.38
 44
0.18
 45
0.0
 46
0.0
 47
0.0
 48
0.0
140
0.18
141
0.09
142
0.0
143
25.399999999999999
144
1.0
145
0.0
146
1.0
147
0.09
 71
     0
 72
     0
 73
     1
 74
     1
 75
     0
 76
     0
 77
     0
 78
     0
170
     0
171
     2
172
     0
173
     0
174
     0
175
     0
176
     0
177
     0
178
     0
  0
DIMSTYLE
  2
BYGG-019612$0$MASKIN
 70
     0
  3

  4

  5

  6

  7

 40
0.0
 41
3.0
 42
1.5
 43
10.0
 44
1.5
 45
0.0
 46
0.0
 47
0.0
 48
0.0
140
3.0
141
-5.0
142
0.0
143
25.399999999999999
144
-1.0
145
0.0
146
1.0
147
1.0
 71
     0
 72
     0
 73
     0
 74
     0
 75
     0
 76
     0
 77
     1
 78
     8
170
     0
171
     0
172
     1
173
     0
174
     0
175
     0
176
   256
177
   256
178
     2
  0
ENDTAB
  0
ENDSEC
  0
SECTION
  2
BLOCKS
  0
BLOCK
  8
0
  2
$MODEL_SPACE
 70
     0
 10
0.0
 20
0.0
 30
0.0
  3
$MODEL_SPACE
  1

  0
ENDBLK
  5
37
  8
0
  0
BLOCK
 67
     1
  8
0
  2
$PAPER_SPACE
 70
     0
 10
0.0
 20
0.0
 30
0.0
  3
$PAPER_SPACE
  1

  0
ENDBLK
  5
35
 67
     1
  8
0
  0
BLOCK
  8
0
  2
*U71
 70
     1
 10
0.0
 20
0.0
 30
0.0
  3
*U71
  1

  0
TEXT
  5
1DF2
  8
SAPA_ARTIKELNR
 10
49.682835003788853
 20
-7.489531390261595
 30
0.0
 40
3.5
  1
68653
 50
89.999999999999986
  7
ISO
  0
ENDBLK
  5
1DF4
  8
0
  0
BLOCK
  8
0
  2
*X72
 70
     1
 10
0.0
 20
0.0
 30
0.0
  3
*X72
  1

  0
LINE
  5
1DFB
  8
0
 62
     0
 10
36.512489758140518
 20
-37.12000795657017
 30
0.0
 11
36.753441921496297
 21
-36.702666567444339
 31
0.0
  0
LINE
  5
1DFC
  8
0
 62
     0
 10
35.321864758140521
 20
-39.18223094933186
 30
0.0
 11
35.718739758140522
 21
-38.49482328507797
 31
0.0
  0
LINE
  5
1DFD
  8
0
 62
     0
 10
36.512490042636628
 20
-34.370377463808481
 30
0.0
 11
36.90936504263663
 21
-33.682969799554577
 31
0.0
  0
LINE
  5
1DFE
  8
0
 62
     0
 10
35.321865042636631
 20
-36.432600456570171
 30
0.0
 11
35.718740042636618
 21
-35.745192792316281
 31
0.0
  0
LINE
  5
1DFF
  8
0
 62
     0
 10
34.13124004263662
 20
-38.494823449331861
 30
0.0
 11
34.528115042636621
 21
-37.807415785077971
 31
0.0
  0
LINE
  5
1E00
  8
0
 62
     0
 10
33.028011272308248
 20
-40.405671731912321
 30
0.0
 11
33.337490042636617
 21
-39.869638777839661
 31
0.0
  0
LINE
  5
1E01
  8
0
 62
     0
 10
36.512490327132731
 20
-31.620746971046799
 30
0.0
 11
36.909365327132733
 21
-30.933339306792899
 31
0.0
  0
LINE
  5
1E02
  8
0
 62
     0
 10
35.321865327132727
 20
-33.682969963808489
 30
0.0
 11
35.718740327132728
 21
-32.995562299554592
 31
0.0
  0
LINE
  5
1E03
  8
0
 62
     0
 10
34.131240327132723
 20
-35.745192956570179
 30
0.0
 11
34.528115327132731
 21
-35.057785292316289
 31
0.0
  0
LINE
  5
1E04
  8
0
 62
     0
 10
32.940615327132718
 20
-37.807415949331869
 30
0.0
 11
33.33749032713272
 21
-37.120008285077972
 31
0.0
  0
LINE
  5
1E05
  8
0
 62
     0
 10
31.875541576687599
 20
-39.652177798910728
 30
0.0
 11
32.146865327132723
 21
-39.182231277839662
 31
0.0
  0
LINE
  5
1E06
  8
0
 62
     0
 10
31.749990327132711
 20
-39.869638942093559
 30
0.0
 11
31.875541576687599
 21
-39.652177798910742
 31
0.0
  0
LINE
  5
1E07
  8
0
 62
     0
 10
36.512490611628827
 20
-28.871116478285099
 30
0.0
 11
36.665904448563687
 21
-28.60539591812983
 31
0.0
  0
LINE
  5
1E08
  8
0
 62
     0
 10
35.32186561162883
 20
-30.933339471046789
 30
0.0
 11
35.718740611628817
 21
-30.2459318067929
 31
0.0
  0
LINE
  5
1E09
  8
0
 62
     0
 10
34.131240611628819
 20
-32.995562463808483
 30
0.0
 11
34.52811561162882
 21
-32.308154799554593
 31
0.0
  0
LINE
  5
1E0A
  8
0
 62
     0
 10
32.940615611628822
 20
-35.05778545657018
 30
0.0
 11
33.337490611628823
 21
-34.370377792316283
 31
0.0
  0
LINE
  5
1E0B
  8
0
 62
     0
 10
31.74999061162881
 20
-37.120008449331863
 30
0.0
 11
32.146865611628812
 21
-36.432600785077973
 31
0.0
  0
LINE
  5
1E0C
  8
0
 62
     0
 10
30.559365611628809
 20
-39.182231442093553
 30
0.0
 11
30.956240611628822
 21
-38.494823777839663
 31
0.0
  0
LINE
  5
1E0D
  8
0
 62
     0
 10
35.321865896124919
 20
-28.1837089782851
 30
0.0
 11
35.71874089612492
 21
-27.4963013140312
 31
0.0
  0
LINE
  5
1E0E
  8
0
 62
     0
 10
34.131240896124908
 20
-30.24593197104679
 30
0.0
 11
34.528115896124923
 21
-29.558524306792901
 31
0.0
  0
LINE
  5
1E0F
  8
0
 62
     0
 10
32.94061589612491
 20
-32.308154963808491
 30
0.0
 11
33.337490896124912
 21
-31.620747299554591
 31
0.0
  0
LINE
  5
1E10
  8
0
 62
     0
 10
31.74999089612491
 20
-34.370377956570181
 30
0.0
 11
32.146865896124908
 21
-33.682970292316277
 31
0.0
  0
LINE
  5
1E11
  8
0
 62
     0
 10
30.559365896124909
 20
-36.432600949331857
 30
0.0
 11
30.95624089612491
 21
-35.745193285077967
 31
0.0
  0
LINE
  5
1E12
  8
0
 62
     0
 10
29.368740896124908
 20
-38.494823942093568
 30
0.0
 11
29.76561589612491
 21
-37.807416277839671
 31
0.0
  0
LINE
  5
1E13
  8
0
 62
     0
 10
28.26551241029264
 20
-40.405671731912328
 30
0.0
 11
28.574990896124909
 21
-39.869639270601361
 31
0.0
  0
LINE
  5
1E14
  8
0
 62
     0
 10
34.131241180621018
 20
-27.496301478285101
 30
0.0
 11
34.528116180621019
 21
-26.808893814031201
 31
0.0
  0
LINE
  5
1E15
  8
0
 62
     0
 10
32.940616180621021
 20
-29.558524471046791
 30
0.0
 11
33.337491180621008
 21
-28.871116806792891
 31
0.0
  0
LINE
  5
1E16
  8
0
 62
     0
 10
31.749991180621009
 20
-31.620747463808481
 30
0.0
 11
32.146866180621011
 21
-30.933339799554581
 31
0.0
  0
LINE
  5
1E17
  8
0
 62
     0
 10
30.559366180621009
 20
-33.682970456570182
 30
0.0
 11
30.95624118062101
 21
-32.995562792316278
 31
0.0
  0
LINE
  5
1E18
  8
0
 62
     0
 10
29.368741180621011
 20
-35.745193449331857
 30
0.0
 11
29.765616180621009
 21
-35.057785785077968
 31
0.0
  0
LINE
  5
1E19
  8
0
 62
     0
 10
28.178116180621011
 20
-37.807416442093562
 30
0.0
 11
28.574991180621009
 21
-37.120008777839672
 31
0.0
  0
LINE
  5
1E1A
  8
0
 62
     0
 10
27.091886479391778
 20
-39.688821473312963
 30
0.0
 11
27.384366180621011
 21
-39.182231770601362
 31
0.0
  0
LINE
  5
1E1B
  8
0
 62
     0
 10
32.94061646511711
 20
-26.808893978285099
 30
0.0
 11
33.135668226836358
 21
-26.47105441688154
 31
0.0
  0
LINE
  5
1E1C
  8
0
 62
     0
 10
31.749991465117109
 20
-28.871116971046789
 30
0.0
 11
32.146866465117107
 21
-28.183709306792888
 31
0.0
  0
LINE
  5
1E1D
  8
0
 62
     0
 10
30.559366465117112
 20
-30.933339963808479
 30
0.0
 11
30.95624146511711
 21
-30.245932299554578
 31
0.0
  0
LINE
  5
1E1E
  8
0
 62
     0
 10
29.368741465117111
 20
-32.995562956570183
 30
0.0
 11
29.765616465117109
 21
-32.308155292316279
 31
0.0
  0
LINE
  5
1E1F
  8
0
 62
     0
 10
28.42121939865623
 20
-34.636719316973071
 30
0.0
 11
28.574991465117112
 21
-34.370378285077969
 31
0.0
  0
LINE
  5
1E20
  8
0
 62
     0
 10
33.135668226836358
 20
-26.471054416881529
 30
0.0
 11
33.337491465117111
 21
-26.121486314031191
 31
0.0
  0
LINE
  5
1E21
  8
0
 62
     0
 10
28.17811646511711
 20
-35.057785949331858
 30
0.0
 11
28.42121939865622
 21
-34.636719316973071
 31
0.0
  0
LINE
  5
1E22
  8
0
 62
     0
 10
26.98749146511711
 20
-37.120008942093563
 30
0.0
 11
27.3843664651171
 21
-36.432601277839659
 31
0.0
  0
LINE
  5
1E23
  8
0
 62
     0
 10
30.559366749613211
 20
-28.183709471046779
 30
0.0
 11
30.661788635187929
 21
-28.006309561424342
 31
0.0
  0
LINE
  5
1E24
  8
0
 62
     0
 10
29.368741749613211
 20
-30.245932463808479
 30
0.0
 11
29.765616749613208
 21
-29.558524799554579
 31
0.0
  0
LINE
  5
1E25
  8
0
 62
     0
 10
28.178116749613199
 20
-32.308155456570169
 30
0.0
 11
28.574991749613211
 21
-31.620747792316269
 31
0.0
  0
LINE
  5
1E26
  8
0
 62
     0
 10
31.749991749613201
 20
-26.121486478285089
 30
0.0
 11
32.146866749613203
 21
-25.434078814031199
 31
0.0
  0
LINE
  5
1E27
  8
0
 62
     0
 10
30.661788635187929
 20
-28.006309561424342
 30
0.0
 11
30.956241749613199
 21
-27.496301806792889
 31
0.0
  0
LINE
  5
1E28
  8
0
 62
     0
 10
26.987491749613199
 20
-34.370378449331866
 30
0.0
 11
27.384366749613211
 21
-33.682970785077977
 31
0.0
  0
LINE
  5
1E29
  8
0
 62
     0
 10
25.796866749613201
 20
-36.432601442093571
 30
0.0
 11
26.19374174961321
 21
-35.745193777839667
 31
0.0
  0
LINE
  5
1E2A
  8
0
 62
     0
 10
30.5593670341093
 20
-25.43407897828509
 30
0.0
 11
30.80998286473395
 21
-24.999999626462131
 31
0.0
  0
LINE
  5
1E2B
  8
0
 62
     0
 10
29.3687420341093
 20
-27.49630197104679
 30
0.0
 11
29.765617034109301
 21
-26.80889430679289
 31
0.0
  0
LINE
  5
1E2C
  8
0
 62
     0
 10
28.178117034109299
 20
-29.55852496380848
 30
0.0
 11
28.5749920341093
 21
-28.871117299554591
 31
0.0
  0
LINE
  5
1E2D
  8
0
 62
     0
 10
26.987492034109302
 20
-31.620747956570181
 30
0.0
 11
27.3843670341093
 21
-30.933340292316281
 31
0.0
  0
LINE
  5
1E2E
  8
0
 62
     0
 10
25.796867034109301
 20
-33.682970949331867
 30
0.0
 11
26.193742034109299
 21
-32.995563285077971
 31
0.0
  0
LINE
  5
1E2F
  8
0
 62
     0
 10
28.178117318605398
 20
-26.808894471046781
 30
0.0
 11
28.5749923186054
 21
-26.12148680679288
 31
0.0
  0
LINE
  5
1E30
  8
0
 62
     0
 10
26.987492318605401
 20
-28.871117463808481
 30
0.0
 11
27.384367318605399
 21
-28.183709799554581
 31
0.0
  0
LINE
  5
1E31
  8
0
 62
     0
 10
25.7968673186054
 20
-30.933340456570171
 30
0.0
 11
26.193742318605398
 21
-30.245932792316271
 31
0.0
  0
LINE
  5
1E32
  8
0
 62
     0
 10
34.528121586046829
 20
-26.808900876948801
 30
0.0
 11
34.131246586046828
 21
-26.121493212694912
 31
0.0
  0
LINE
  5
1E33
  8
0
 62
     0
 10
35.718746586046827
 20
-28.871123869710491
 30
0.0
 11
35.321871586046832
 21
-28.183716205456602
 31
0.0
  0
LINE
  5
1E34
  8
0
 62
     0
 10
36.909371586046831
 20
-30.933346862472192
 30
0.0
 11
36.512496586046822
 21
-30.245939198218291
 31
0.0
  0
LINE
  5
1E35
  8
0
 62
     0
 10
32.146871870542931
 20
-25.434085384187121
 30
0.0
 11
31.896252341469019
 21
-24.999999626462142
 31
0.0
  0
LINE
  5
1E36
  8
0
 62
     0
 10
33.337496870542921
 20
-27.496308376948821
 30
0.0
 11
32.94062187054292
 21
-26.808900712694921
 31
0.0
  0
LINE
  5
1E37
  8
0
 62
     0
 10
34.528121870542918
 20
-29.558531369710511
 30
0.0
 11
34.131246870542917
 21
-28.871123705456611
 31
0.0
  0
LINE
  5
1E38
  8
0
 62
     0
 10
35.718746870542923
 20
-31.620754362472201
 30
0.0
 11
35.321871870542921
 21
-30.933346698218301
 31
0.0
  0
LINE
  5
1E39
  8
0
 62
     0
 10
36.909371870542913
 20
-33.682977355233902
 30
0.0
 11
36.512496870542911
 21
-32.995569690979998
 31
0.0
  0
LINE
  5
1E3A
  8
0
 62
     0
 10
30.95624715503903
 20
-26.121492884187131
 30
0.0
 11
30.559372155039028
 21
-25.43408521993323
 31
0.0
  0
LINE
  5
1E3B
  8
0
 62
     0
 10
32.146872155039041
 20
-28.183715876948821
 30
0.0
 11
31.74999715503904
 21
-27.496308212694931
 31
0.0
  0
LINE
  5
1E3C
  8
0
 62
     0
 10
33.337497155039031
 20
-30.245938869710521
 30
0.0
 11
32.94062215503903
 21
-29.558531205456621
 31
0.0
  0
LINE
  5
1E3D
  8
0
 62
     0
 10
34.528122155039028
 20
-32.308161862472211
 30
0.0
 11
34.131247155039027
 21
-31.620754198218322
 31
0.0
  0
LINE
  5
1E3E
  8
0
 62
     0
 10
35.718747155039033
 20
-34.370384855233901
 30
0.0
 11
35.321872155039031
 21
-33.682977190980012
 31
0.0
  0
LINE
  5
1E3F
  8
0
 62
     0
 10
36.860513981845351
 20
-36.34798300965916
 30
0.0
 11
36.512497155039021
 21
-35.745200183741687
 31
0.0
  0
LINE
  5
1E40
  8
0
 62
     0
 10
29.765622439535129
 20
-26.808900384187119
 30
0.0
 11
29.368747439535131
 21
-26.121492719933229
 31
0.0
  0
LINE
  5
1E41
  8
0
 62
     0
 10
30.956247439535129
 20
-28.87112337694882
 30
0.0
 11
30.559372439535132
 21
-28.18371571269493
 31
0.0
  0
LINE
  5
1E42
  8
0
 62
     0
 10
32.14687243953513
 20
-30.93334636971052
 30
0.0
 11
31.749997439535139
 21
-30.24593870545662
 31
0.0
  0
LINE
  5
1E43
  8
0
 62
     0
 10
33.337497439535127
 20
-32.99556936247221
 30
0.0
 11
32.940622439535133
 21
-32.308161698218321
 31
0.0
  0
LINE
  5
1E44
  8
0
 62
     0
 10
34.528122439535132
 20
-35.0577923552339
 30
0.0
 11
34.131247439535123
 21
-34.370384690980011
 31
0.0
  0
LINE
  5
1E45
  8
0
 62
     0
 10
35.718747439535122
 20
-37.12001534799559
 30
0.0
 11
35.32187243953512
 21
-36.432607683741693
 31
0.0
  0
LINE
  5
1E46
  8
0
 62
     0
 10
28.574997724031231
 20
-27.496307884187139
 30
0.0
 11
28.17812272403123
 21
-26.808900219933239
 31
0.0
  0
LINE
  5
1E47
  8
0
 62
     0
 10
29.765622724031228
 20
-29.558530876948829
 30
0.0
 11
29.36874772403123
 21
-28.871123212694929
 31
0.0
  0
LINE
  5
1E48
  8
0
 62
     0
 10
30.956247724031218
 20
-31.620753869710519
 30
0.0
 11
30.559372724031221
 21
-30.93334620545663
 31
0.0
  0
LINE
  5
1E49
  8
0
 62
     0
 10
32.146872724031219
 20
-33.682976862472223
 30
0.0
 11
31.749997724031221
 21
-32.99556919821832
 31
0.0
  0
LINE
  5
1E4A
  8
0
 62
     0
 10
33.337497724031223
 20
-35.745199855233913
 30
0.0
 11
32.940622724031222
 21
-35.05779219098001
 31
0.0
  0
LINE
  5
1E4B
  8
0
 62
     0
 10
34.528122724031221
 20
-37.807422847995603
 30
0.0
 11
34.131247724031212
 21
-37.1200151837417
 31
0.0
  0
LINE
  5
1E4C
  8
0
 62
     0
 10
35.494067620497191
 20
-39.480488485986527
 30
0.0
 11
35.321872724031209
 21
-39.18223817650339
 31
0.0
  0
LINE
  5
1E4D
  8
0
 62
     0
 10
27.384373008527319
 20
-28.183715384187138
 30
0.0
 11
26.987498008527322
 21
-27.496307719933242
 31
0.0
  0
LINE
  5
1E4E
  8
0
 62
     0
 10
28.57499800852732
 20
-30.245938376948828
 30
0.0
 11
28.178123008527319
 21
-29.558530712694939
 31
0.0
  0
LINE
  5
1E4F
  8
0
 62
     0
 10
29.765623008527321
 20
-32.308161369710533
 30
0.0
 11
29.368748008527319
 21
-31.620753705456629
 31
0.0
  0
LINE
  5
1E50
  8
0
 62
     0
 10
30.956248008527311
 20
-34.370384362472223
 30
0.0
 11
30.559373008527309
 21
-33.682976698218319
 31
0.0
  0
LINE
  5
1E51
  8
0
 62
     0
 10
32.146873008527308
 20
-36.432607355233912
 30
0.0
 11
31.74999800852731
 21
-35.745199690980009
 31
0.0
  0
LINE
  5
1E52
  8
0
 62
     0
 10
33.337498008527312
 20
-38.494830347995602
 30
0.0
 11
32.940623008527297
 21
-37.807422683741699
 31
0.0
  0
LINE
  5
1E53
  8
0
 62
     0
 10
34.440722795910318
 20
-40.405671731912342
 30
0.0
 11
34.131248008527301
 21
-39.869645676503389
 31
0.0
  0
LINE
  5
1E54
  8
0
 62
     0
 10
26.193748293023429
 20
-28.871122884187141
 30
0.0
 11
26.085181662286519
 21
-28.683079963744241
 31
0.0
  0
LINE
  5
1E55
  8
0
 62
     0
 10
27.384373293023419
 20
-30.933345876948831
 30
0.0
 11
26.987498293023432
 21
-30.245938212694941
 31
0.0
  0
LINE
  5
1E56
  8
0
 62
     0
 10
28.57499829302342
 20
-32.995568869710517
 30
0.0
 11
28.178123293023418
 21
-32.308161205456628
 31
0.0
  0
LINE
  5
1E57
  8
0
 62
     0
 10
29.76562329302342
 20
-35.057791862472222
 30
0.0
 11
29.368748293023419
 21
-34.370384198218318
 31
0.0
  0
LINE
  5
1E58
  8
0
 62
     0
 10
30.95624829302341
 20
-37.120014855233912
 30
0.0
 11
30.55937329302342
 21
-36.432607190980008
 31
0.0
  0
LINE
  5
1E59
  8
0
 62
     0
 10
32.146873293023411
 20
-39.182237847995601
 30
0.0
 11
31.74999829302342
 21
-38.494830183741698
 31
0.0
  0
LINE
  5
1E5A
  8
0
 62
     0
 10
26.193748577519511
 20
-31.620753376948809
 30
0.0
 11
25.796873577519509
 21
-30.933345712694909
 31
0.0
  0
LINE
  5
1E5B
  8
0
 62
     0
 10
27.384373577519519
 20
-33.682976369710516
 30
0.0
 11
26.987498577519521
 21
-32.99556870545662
 31
0.0
  0
LINE
  5
1E5C
  8
0
 62
     0
 10
28.574998577519509
 20
-35.745199362472214
 30
0.0
 11
28.178123577519521
 21
-35.05779169821831
 31
0.0
  0
LINE
  5
1E5D
  8
0
 62
     0
 10
29.765623577519509
 20
-37.807422355233903
 30
0.0
 11
29.368748577519511
 21
-37.12001469098
 31
0.0
  0
LINE
  5
1E5E
  8
0
 62
     0
 10
30.95624857751951
 20
-39.869645347995593
 30
0.0
 11
30.559373577519509
 21
-39.18223768374169
 31
0.0
  0
LINE
  5
1E5F
  8
0
 62
     0
 10
26.19374886201561
 20
-34.370383869710523
 30
0.0
 11
25.796873862015609
 21
-33.682976205456619
 31
0.0
  0
LINE
  5
1E60
  8
0
 62
     0
 10
27.384373862015611
 20
-36.432606862472198
 30
0.0
 11
26.98749886201561
 21
-35.745199198218309
 31
0.0
  0
LINE
  5
1E61
  8
0
 62
     0
 10
28.574998862015612
 20
-38.494829855233903
 30
0.0
 11
28.17812386201561
 21
-37.807422190979999
 31
0.0
  0
LINE
  5
1E62
  8
0
 62
     0
 10
29.67822393389471
 20
-40.405671731912342
 30
0.0
 11
29.368748862015611
 21
-39.869645183741689
 31
0.0
  0
LINE
  5
1E63
  8
0
 62
     0
 10
26.193749146511699
 20
-37.120014362472197
 30
0.0
 11
25.796874146511708
 21
-36.432606698218301
 31
0.0
  0
LINE
  5
1E64
  8
0
 62
     0
 10
27.3843741465117
 20
-39.182237355233887
 30
0.0
 11
26.987499146511698
 21
-38.494829690979991
 31
0.0
  0
LINE
  5
1E65
  8
0
 62
     0
 10
33.337500000000027
 20
-39.869635000000002
 30
0.0
 11
34.13125000000003
 21
-39.869635000000002
 31
0.0
  0
LINE
  5
1E66
  8
0
 62
     0
 10
30.956250000000018
 20
-39.869635000000002
 30
0.0
 11
31.750000000000021
 21
-39.869635000000002
 31
0.0
  0
LINE
  5
1E67
  8
0
 62
     0
 10
28.575000000000031
 20
-39.869635000000002
 30
0.0
 11
29.36875000000002
 21
-39.869635000000002
 31
0.0
  0
LINE
  5
1E68
  8
0
 62
     0
 10
35.718750000000028
 20
-38.494819999999997
 30
0.0
 11
36.033015156589997
 21
-38.494819999999997
 31
0.0
  0
LINE
  5
1E69
  8
0
 62
     0
 10
33.337500000000027
 20
-38.494819999999997
 30
0.0
 11
34.13125000000003
 21
-38.494819999999997
 31
0.0
  0
LINE
  5
1E6A
  8
0
 62
     0
 10
31.078428665257341
 20
-38.494819999999997
 30
0.0
 11
31.750000000000021
 21
-38.494819999999997
 31
0.0
  0
LINE
  5
1E6B
  8
0
 62
     0
 10
30.956250000000018
 20
-38.494819999999997
 30
0.0
 11
31.078428665257331
 21
-38.494819999999997
 31
0.0
  0
LINE
  5
1E6C
  8
0
 62
     0
 10
28.575000000000021
 20
-38.494819999999997
 30
0.0
 11
29.36875000000002
 21
-38.494819999999997
 31
0.0
  0
LINE
  5
1E6D
  8
0
 62
     0
 10
26.42166520764874
 20
-38.494819999999997
 30
0.0
 11
26.987500000000018
 21
-38.494819999999997
 31
0.0
  0
LINE
  5
1E6E
  8
0
 62
     0
 10
35.718750000000028
 20
-37.120005000000013
 30
0.0
 11
36.512500000000031
 21
-37.120005000000013
 31
0.0
  0
LINE
  5
1E6F
  8
0
 62
     0
 10
33.337500000000027
 20
-37.120005000000013
 30
0.0
 11
34.13125000000003
 21
-37.120005000000013
 31
0.0
  0
LINE
  5
1E70
  8
0
 62
     0
 10
30.956250000000029
 20
-37.120005000000013
 30
0.0
 11
31.750000000000021
 21
-37.120005000000013
 31
0.0
  0
LINE
  5
1E71
  8
0
 62
     0
 10
28.575000000000031
 20
-37.120005000000013
 30
0.0
 11
29.36875000000002
 21
-37.120005000000013
 31
0.0
  0
LINE
  5
1E72
  8
0
 62
     0
 10
26.19375000000003
 20
-37.120005000000013
 30
0.0
 11
26.987500000000029
 21
-37.120005000000013
 31
0.0
  0
LINE
  5
1E73
  8
0
 62
     0
 10
35.718750000000021
 20
-35.745190000000001
 30
0.0
 11
36.512500000000031
 21
-35.745190000000001
 31
0.0
  0
LINE
  5
1E74
  8
0
 62
     0
 10
33.33750000000002
 20
-35.745190000000001
 30
0.0
 11
34.13125000000003
 21
-35.745190000000001
 31
0.0
  0
LINE
  5
1E75
  8
0
 62
     0
 10
30.956250000000018
 20
-35.745190000000001
 30
0.0
 11
31.750000000000021
 21
-35.745190000000001
 31
0.0
  0
LINE
  5
1E76
  8
0
 62
     0
 10
29.18466203861966
 20
-35.745190000000001
 30
0.0
 11
29.36875000000002
 21
-35.745190000000001
 31
0.0
  0
LINE
  5
1E77
  8
0
 62
     0
 10
28.575000000000031
 20
-35.745190000000001
 30
0.0
 11
29.18466203861966
 21
-35.745190000000001
 31
0.0
  0
LINE
  5
1E78
  8
0
 62
     0
 10
26.19375000000003
 20
-35.745190000000001
 30
0.0
 11
26.987500000000029
 21
-35.745190000000001
 31
0.0
  0
LINE
  5
1E79
  8
0
 62
     0
 10
35.718750000000021
 20
-34.370375000000003
 30
0.0
 11
36.512500000000031
 21
-34.370375000000003
 31
0.0
  0
LINE
  5
1E7A
  8
0
 62
     0
 10
33.33750000000002
 20
-34.370375000000003
 30
0.0
 11
34.13125000000003
 21
-34.370375000000003
 31
0.0
  0
LINE
  5
1E7B
  8
0
 62
     0
 10
30.956250000000018
 20
-34.370375000000003
 30
0.0
 11
31.750000000000021
 21
-34.370375000000003
 31
0.0
  0
LINE
  5
1E7C
  8
0
 62
     0
 10
28.575000000000031
 20
-34.370375000000003
 30
0.0
 11
29.36875000000002
 21
-34.370375000000003
 31
0.0
  0
LINE
  5
1E7D
  8
0
 62
     0
 10
26.19375000000003
 20
-34.370375000000003
 30
0.0
 11
26.987500000000029
 21
-34.370375000000003
 31
0.0
  0
LINE
  5
1E7E
  8
0
 62
     0
 10
35.718750000000021
 20
-32.995559999999998
 30
0.0
 11
36.512500000000031
 21
-32.995559999999998
 31
0.0
  0
LINE
  5
1E7F
  8
0
 62
     0
 10
33.33750000000002
 20
-32.995559999999998
 30
0.0
 11
34.13125000000003
 21
-32.995559999999998
 31
0.0
  0
LINE
  5
1E80
  8
0
 62
     0
 10
30.956250000000018
 20
-32.995559999999998
 30
0.0
 11
31.750000000000021
 21
-32.995559999999998
 31
0.0
  0
LINE
  5
1E81
  8
0
 62
     0
 10
28.575000000000031
 20
-32.995559999999998
 30
0.0
 11
29.36875000000002
 21
-32.995559999999998
 31
0.0
  0
LINE
  5
1E82
  8
0
 62
     0
 10
26.19375000000003
 20
-32.995559999999998
 30
0.0
 11
26.987500000000029
 21
-32.995559999999998
 31
0.0
  0
LINE
  5
1E83
  8
0
 62
     0
 10
35.718750000000021
 20
-31.62074500000001
 30
0.0
 11
36.512500000000031
 21
-31.62074500000001
 31
0.0
  0
LINE
  5
1E84
  8
0
 62
     0
 10
33.33750000000002
 20
-31.62074500000001
 30
0.0
 11
34.13125000000003
 21
-31.62074500000001
 31
0.0
  0
LINE
  5
1E85
  8
0
 62
     0
 10
30.956250000000018
 20
-31.62074500000001
 30
0.0
 11
31.750000000000021
 21
-31.62074500000001
 31
0.0
  0
LINE
  5
1E86
  8
0
 62
     0
 10
28.575000000000031
 20
-31.62074500000001
 30
0.0
 11
29.36875000000002
 21
-31.62074500000001
 31
0.0
  0
LINE
  5
1E87
  8
0
 62
     0
 10
26.19375000000003
 20
-31.62074500000001
 30
0.0
 11
26.987500000000029
 21
-31.62074500000001
 31
0.0
  0
LINE
  5
1E88
  8
0
 62
     0
 10
35.718750000000021
 20
-30.245930000000001
 30
0.0
 11
36.512500000000031
 21
-30.245930000000001
 31
0.0
  0
LINE
  5
1E89
  8
0
 62
     0
 10
33.33750000000002
 20
-30.245930000000001
 30
0.0
 11
34.13125000000003
 21
-30.245930000000001
 31
0.0
  0
LINE
  5
1E8A
  8
0
 62
     0
 10
30.956250000000018
 20
-30.245930000000001
 30
0.0
 11
31.750000000000021
 21
-30.245930000000001
 31
0.0
  0
LINE
  5
1E8B
  8
0
 62
     0
 10
28.575000000000031
 20
-30.245930000000001
 30
0.0
 11
29.36875000000002
 21
-30.245930000000001
 31
0.0
  0
LINE
  5
1E8C
  8
0
 62
     0
 10
26.19375000000003
 20
-30.245930000000001
 30
0.0
 11
26.987500000000029
 21
-30.245930000000001
 31
0.0
  0
LINE
  5
1E8D
  8
0
 62
     0
 10
35.718750000000021
 20
-28.871115
 30
0.0
 11
36.512500000000031
 21
-28.871115
 31
0.0
  0
LINE
  5
1E8E
  8
0
 62
     0
 10
33.33750000000002
 20
-28.871115
 30
0.0
 11
34.13125000000003
 21
-28.871115
 31
0.0
  0
LINE
  5
1E8F
  8
0
 62
     0
 10
30.956250000000018
 20
-28.871115
 30
0.0
 11
31.750000000000021
 21
-28.871115
 31
0.0
  0
LINE
  5
1E90
  8
0
 62
     0
 10
28.575000000000031
 20
-28.871115
 30
0.0
 11
29.36875000000002
 21
-28.871115
 31
0.0
  0
LINE
  5
1E91
  8
0
 62
     0
 10
26.19375000000003
 20
-28.871115
 30
0.0
 11
26.987500000000029
 21
-28.871115
 31
0.0
  0
LINE
  5
1E92
  8
0
 62
     0
 10
35.718750000000028
 20
-27.496300000000002
 30
0.0
 11
36.229069773597693
 21
-27.496300000000002
 31
0.0
  0
LINE
  5
1E93
  8
0
 62
     0
 10
33.337500000000027
 20
-27.496300000000002
 30
0.0
 11
34.13125000000003
 21
-27.496300000000002
 31
0.0
  0
LINE
  5
1E94
  8
0
 62
     0
 10
31.483607894376249
 20
-27.496300000000002
 30
0.0
 11
31.750000000000021
 21
-27.496300000000002
 31
0.0
  0
LINE
  5
1E95
  8
0
 62
     0
 10
30.956250000000018
 20
-27.496300000000002
 30
0.0
 11
31.483607894376249
 21
-27.496300000000002
 31
0.0
  0
LINE
  5
1E96
  8
0
 62
     0
 10
28.575000000000021
 20
-27.496300000000002
 30
0.0
 11
29.36875000000002
 21
-27.496300000000002
 31
0.0
  0
LINE
  5
1E97
  8
0
 62
     0
 10
26.644698003846418
 20
-27.496300000000002
 30
0.0
 11
26.987500000000018
 21
-27.496300000000002
 31
0.0
  0
LINE
  5
1E98
  8
0
 62
     0
 10
33.698957429521393
 20
-26.121485
 30
0.0
 11
34.13125000000003
 21
-26.121485
 31
0.0
  0
LINE
  5
1E99
  8
0
 62
     0
 10
33.33750000000002
 20
-26.121485
 30
0.0
 11
33.698957429521393
 21
-26.121485
 31
0.0
  0
LINE
  5
1E9A
  8
0
 62
     0
 10
30.956250000000018
 20
-26.121485
 30
0.0
 11
31.750000000000021
 21
-26.121485
 31
0.0
  0
LINE
  5
1E9B
  8
0
 62
     0
 10
28.575000000000031
 20
-26.121485
 30
0.0
 11
29.36875000000002
 21
-26.121485
 31
0.0
  0
ENDBLK
  5
1E9D
  8
0
  0
BLOCK
  8
0
  2
*X73
 70
     1
 10
0.0
 20
0.0
 30
0.0
  3
*X73
  1

  0
LINE
  5
1E9F
  8
0
 62
     0
 10
43.601851205048582
 20
-25.641338962910272
 30
0.0
 11
42.960511868600449
 21
-24.999999626462131
 31
0.0
  0
LINE
  5
1EA0
  8
0
 62
     0
 10
43.20402795058461
 20
-26.366047723579928
 30
0.0
 11
41.837979853466798
 21
-24.999999626462131
 31
0.0
  0
LINE
  5
1EA1
  8
0
 62
     0
 10
42.84121616294108
 20
-27.125767951070038
 30
0.0
 11
40.715447838333162
 21
-24.999999626462131
 31
0.0
  0
LINE
  5
1EA2
  8
0
 62
     0
 10
42.515608032255308
 20
-27.92269183551792
 30
0.0
 11
39.592915823199519
 21
-24.999999626462131
 31
0.0
  0
LINE
  5
1EA3
  8
0
 62
     0
 10
42.230052206213578
 20
-28.75966802460983
 30
0.0
 11
38.470383808065868
 21
-24.99999962646212
 31
0.0
  0
LINE
  5
1EA4
  8
0
 62
     0
 10
41.988265094661159
 20
-29.640412928191061
 30
0.0
 11
37.347851792932218
 21
-24.99999962646212
 31
0.0
  0
LINE
  5
1EA5
  8
0
 62
     0
 10
41.795155057563768
 20
-30.56983490622731
 30
0.0
 11
36.225319777798582
 21
-24.99999962646212
 31
0.0
  0
LINE
  5
1EA6
  8
0
 62
     0
 10
41.657339841680113
 20
-31.554551705477301
 30
0.0
 11
35.257230573307851
 21
-25.15444243710504
 31
0.0
  0
LINE
  5
1EA7
  8
0
 62
     0
 10
41.584016925856439
 20
-32.603760804787278
 30
0.0
 11
36.007454389033327
 21
-27.02719826796416
 31
0.0
  0
LINE
  5
1EA8
  8
0
 62
     0
 10
41.588532528454103
 20
-33.730808422518578
 30
0.0
 11
36.764835970541156
 21
-28.907111864605628
 31
0.0
  0
LINE
  5
1EA9
  8
0
 62
     0
 10
41.691488369315692
 20
-34.956296278513811
 30
0.0
 11
37.138893663564389
 21
-30.4037015727625
 31
0.0
  0
LINE
  5
1EAA
  8
0
 62
     0
 10
41.927771999337203
 20
-36.315111923668972
 30
0.0
 11
37.314727406496409
 21
-31.702067330828172
 31
0.0
  0
LINE
  5
1EAB
  8
0
 62
     0
 10
42.366136402087612
 20
-37.87600834155301
 30
0.0
 11
37.360021210659347
 21
-32.869893150124753
 31
0.0
  0
LINE
  5
1EAC
  8
0
 62
     0
 10
43.189540007420952
 20
-39.821943962019994
 30
0.0
 11
37.308695033872212
 21
-33.941098988471254
 31
0.0
  0
LINE
  5
1EAD
  8
0
 62
     0
 10
42.650735762179629
 20
-40.405671731912307
 30
0.0
 11
37.180607446869672
 21
-34.935543416602357
 31
0.0
  0
LINE
  5
1EAE
  8
0
 62
     0
 10
41.528203747045978
 20
-40.405671731912307
 30
0.0
 11
36.988521397337287
 21
-35.865989382203622
 31
0.0
  0
LINE
  5
1EAF
  8
0
 62
     0
 10
40.405671731912342
 20
-40.405671731912321
 30
0.0
 11
36.741153344464649
 21
-36.741153344464642
 31
0.0
  0
LINE
  5
1EB0
  8
0
 62
     0
 10
39.283139716778699
 20
-40.405671731912328
 30
0.0
 11
36.44470229516903
 21
-37.567234310302659
 31
0.0
  0
LINE
  5
1EB1
  8
0
 62
     0
 10
38.160607701645063
 20
-40.405671731912321
 30
0.0
 11
36.103692405788209
 21
-38.348756436055481
 31
0.0
  0
LINE
  5
1EB2
  8
0
 62
     0
 10
37.038075686511412
 20
-40.405671731912321
 30
0.0
 11
35.721469997254282
 21
-39.08906604265519
 31
0.0
  0
LINE
  5
1EB3
  8
0
 62
     0
 10
35.915543671377769
 20
-40.405671731912328
 30
0.0
 11
35.300511360837817
 21
-39.790639421372369
 31
0.0
  0
LINE
  5
1EB4
  8
0
 62
     0
 10
42.66169738797737
 20
-40.405671731912328
 30
0.0
 11
43.208466879525702
 21
-39.858902240363989
 31
0.0
  0
LINE
  5
1EB5
  8
0
 62
     0
 10
41.539165372843733
 20
-40.405671731912321
 30
0.0
 11
42.84523549989931
 21
-39.099601604856737
 31
0.0
  0
LINE
  5
1EB6
  8
0
 62
     0
 10
40.416633357710083
 20
-40.405671731912307
 30
0.0
 11
42.51917877499266
 21
-38.303126314629729
 31
0.0
  0
LINE
  5
1EB7
  8
0
 62
     0
 10
39.29410134257644
 20
-40.405671731912321
 30
0.0
 11
42.233136651296817
 21
-37.466636423191929
 31
0.0
  0
LINE
  5
1EB8
  8
0
 62
     0
 10
38.171569327442803
 20
-40.405671731912307
 30
0.0
 11
41.990813834233229
 21
-36.586427225121867
 31
0.0
  0
LINE
  5
1EB9
  8
0
 62
     0
 10
37.04903731230916
 20
-40.405671731912321
 30
0.0
 11
41.797102296658387
 21
-35.657606747563086
 31
0.0
  0
LINE
  5
1EBA
  8
0
 62
     0
 10
35.92650529717551
 20
-40.405671731912307
 30
0.0
 11
41.658595762212357
 21
-34.673581266875459
 31
0.0
  0
LINE
  5
1EBB
  8
0
 62
     0
 10
35.06256070363537
 20
-40.14708431031881
 30
0.0
 11
41.584454479276303
 21
-33.625190534677891
 31
0.0
  0
LINE
  5
1EBC
  8
0
 62
     0
 10
36.393797545182863
 20
-37.69331545363768
 30
0.0
 11
41.587962736843693
 21
-32.499150261976851
 31
0.0
  0
LINE
  5
1EBD
  8
0
 62
     0
 10
36.95158317347903
 20
-36.012997810207871
 30
0.0
 11
41.689608922548317
 21
-31.27497206113857
 31
0.0
  0
LINE
  5
1EBE
  8
0
 62
     0
 10
37.231039371724137
 20
-34.611009596829113
 30
0.0
 11
41.92404230593116
 21
-29.91800666262208
 31
0.0
  0
LINE
  5
1EBF
  8
0
 62
     0
 10
37.347025917850047
 20
-33.372491035569567
 30
0.0
 11
42.359387723581357
 21
-28.36012922983825
 31
0.0
  0
LINE
  5
1EC0
  8
0
 62
     0
 10
37.349057574319318
 20
-32.247927363966653
 30
0.0
 11
43.175972951994041
 21
-26.421011986291919
 31
0.0
  0
LINE
  5
1EC1
  8
0
 62
     0
 10
37.263898260557639
 20
-31.210554662594689
 30
0.0
 11
43.4744532966902
 21
-24.999999626462131
 31
0.0
  0
LINE
  5
1EC2
  8
0
 62
     0
 10
37.107922140085492
 20
-30.243998767933189
 30
0.0
 11
42.35192128155655
 21
-24.99999962646212
 31
0.0
  0
LINE
  5
1EC3
  8
0
 62
     0
 10
36.891954798002082
 20
-29.337434094882969
 30
0.0
 11
41.229389266422913
 21
-24.999999626462131
 31
0.0
  0
LINE
  5
1EC4
  8
0
 62
     0
 10
36.623530530050523
 20
-28.48332634770086
 30
0.0
 11
40.10685725128927
 21
-24.99999962646212
 31
0.0
  0
LINE
  5
1EC5
  8
0
 62
     0
 10
36.308074195029953
 20
-27.676250667587802
 30
0.0
 11
38.98432523615562
 21
-24.99999962646212
 31
0.0
  0
LINE
  5
1EC6
  8
0
 62
     0
 10
35.949572970854611
 20
-26.9122198766295
 30
0.0
 11
37.861793221021983
 21
-24.99999962646212
 31
0.0
  0
LINE
  5
1EC7
  8
0
 62
     0
 10
35.550981565433929
 20
-26.188279266916531
 30
0.0
 11
36.739261205888333
 21
-24.99999962646212
 31
0.0
  0
LINE
  5
1EC8
  8
0
 62
     0
 10
35.114477025715551
 20
-25.502251791501259
 30
0.0
 11
35.61672919075469
 21
-24.99999962646212
 31
0.0
  0
ENDBLK
  5
1ECA
  8
0
  0
BLOCK
  8
0
  2
*X74
 70
     1
 10
0.0
 20
0.0
 30
0.0
  3
*X74
  1

  0
LINE
  5
23DA
  8
0
 62
     0
 10
-63.372122992308107
 20
-24.447500000000002
 30
0.0
 11
-41.627877005529648
 21
-24.447500000000002
 31
0.0
  0
LINE
  5
23DB
  8
0
 62
     0
 10
-63.776584915136418
 20
-23.33625
 30
0.0
 11
-41.223415082701337
 21
-23.33625
 31
0.0
  0
LINE
  5
23DC
  8
0
 62
     0
 10
-42.947308704824813
 20
-22.225000000000001
 30
0.0
 11
-40.818953159873033
 21
-22.225000000000001
 31
0.0
  0
LINE
  5
23DD
  8
0
 62
     0
 10
-64.181046837964715
 20
-22.225000000000001
 30
0.0
 11
-62.05269129301292
 21
-22.225000000000001
 31
0.0
  0
LINE
  5
23DE
  8
0
 62
     0
 10
-39.631136872385092
 20
-22.225000000000001
 30
0.0
 11
-37.499999998918888
 21
-22.225000000000001
 31
0.0
  0
LINE
  5
23DF
  8
0
 62
     0
 10
-67.499999998918895
 20
-22.225000000000001
 30
0.0
 11
-65.368863125452592
 21
-22.225000000000001
 31
0.0
  0
LINE
  5
23E0
  8
0
 62
     0
 10
-42.542846781996481
 20
-21.11375
 30
0.0
 11
-37.499999998918867
 21
-21.11375
 31
0.0
  0
LINE
  5
23E1
  8
0
 62
     0
 10
-67.499999998918895
 20
-21.11375
 30
0.0
 11
-62.457153215841217
 21
-21.11375
 31
0.0
  0
LINE
  5
23E2
  8
0
 62
     0
 10
-40.260100169190558
 20
-20.002500000000001
 30
0.0
 11
-37.499999998918859
 21
-20.002500000000001
 31
0.0
  0
LINE
  5
23E3
  8
0
 62
     0
 10
-67.499999998918895
 20
-20.002500000000001
 30
0.0
 11
-64.73989982865109
 21
-20.002500000000001
 31
0.0
  0
ENDBLK
  5
23E5
  8
0
  0
BLOCK
  8
0
  2
*X75
 70
     1
 10
0.0
 20
0.0
 30
0.0
  3
*X75
  1

  0
LINE
  5
23E7
  8
0
 62
     0
 10
-66.388750149734662
 20
-7.073651373634652
 30
0.0
 11
-66.388750149734662
 21
-10.87612946054432
 31
0.0
  0
LINE
  5
23E8
  8
0
 62
     0
 10
-65.277500149734664
 20
-8.1067275843982891
 30
0.0
 11
-65.277500149734664
 21
-10.234548973907369
 31
0.0
  0
LINE
  5
23E9
  8
0
 62
     0
 10
-64.166250149734665
 20
-7.7343449390469088
 30
0.0
 11
-64.166250149734665
 21
-9.9743341871337687
 31
0.0
  0
LINE
  5
23EA
  8
0
 62
     0
 10
-63.05500014973466
 20
-5.103094085352331
 30
0.0
 11
-63.05500014973466
 21
-9.8412863240925645
 31
0.0
  0
LINE
  5
23EB
  8
0
 62
     0
 10
-61.943750149734662
 20
-5.0795944681358449
 30
0.0
 11
-61.943750149734662
 21
-7.4756851746350979
 31
0.0
  0
LINE
  5
23EC
  8
0
 62
     0
 10
-60.832500149734663
 20
-5.0795944681358494
 30
0.0
 11
-60.832500149734663
 21
-6.8795944681358012
 31
0.0
  0
LINE
  5
23ED
  8
0
 62
     0
 10
-59.721250149734658
 20
-5.079594468135852
 30
0.0
 11
-59.721250149734658
 21
-6.8795944681358101
 31
0.0
  0
LINE
  5
23EE
  8
0
 62
     0
 10
-58.61000014973466
 20
-5.0795944681358547
 30
0.0
 11
-58.61000014973466
 21
-6.8795944681358163
 31
0.0
  0
LINE
  5
23EF
  8
0
 62
     0
 10
-57.498750149734661
 20
-5.0795944681358591
 30
0.0
 11
-57.498750149734661
 21
-6.8795944681358234
 31
0.0
  0
LINE
  5
23F0
  8
0
 62
     0
 10
-56.387500149734663
 20
-5.0795944681358609
 30
0.0
 11
-56.387500149734663
 21
-6.8795944681358296
 31
0.0
  0
LINE
  5
23F1
  8
0
 62
     0
 10
-55.276250149734658
 20
-5.0795944681358653
 30
0.0
 11
-55.276250149734658
 21
-6.8795944681358376
 31
0.0
  0
LINE
  5
23F2
  8
0
 62
     0
 10
-54.165000149734666
 20
-5.079594468135868
 30
0.0
 11
-54.165000149734666
 21
-6.8795944681358447
 31
0.0
  0
LINE
  5
23F3
  8
0
 62
     0
 10
-53.053750149734661
 20
-5.0795944681358707
 30
0.0
 11
-53.053750149734661
 21
-6.8795944681358518
 31
0.0
  0
LINE
  5
23F4
  8
0
 62
     0
 10
-51.942500149734663
 20
-5.079594468135876
 30
0.0
 11
-51.942500149734663
 21
-6.8795944681358536
 31
0.0
  0
LINE
  5
23F5
  8
0
 62
     0
 10
-50.83125014973465
 20
-5.0795944681358831
 30
0.0
 11
-50.83125014973465
 21
-6.8795944681358536
 31
0.0
  0
LINE
  5
23F6
  8
0
 62
     0
 10
-49.720000149734659
 20
-5.0795944681358893
 30
0.0
 11
-49.720000149734659
 21
-6.8795944681358554
 31
0.0
  0
LINE
  5
23F7
  8
0
 62
     0
 10
-48.608750149734661
 20
-5.0795944681358947
 30
0.0
 11
-48.608750149734661
 21
-6.8795944681358563
 31
0.0
  0
LINE
  5
23F8
  8
0
 62
     0
 10
-47.497500149734663
 20
-5.0795944681359009
 30
0.0
 11
-47.497500149734663
 21
-6.8795944681358563
 31
0.0
  0
LINE
  5
23F9
  8
0
 62
     0
 10
-46.386250149734657
 20
-5.0795944681359071
 30
0.0
 11
-46.386250149734657
 21
-6.8795944681358572
 31
0.0
  0
LINE
  5
23FA
  8
0
 62
     0
 10
-45.275000149734659
 20
-5.0795944681359142
 30
0.0
 11
-45.275000149734659
 21
-6.8795944681358581
 31
0.0
  0
LINE
  5
23FB
  8
0
 62
     0
 10
-44.163750149734668
 20
-5.0795944681359213
 30
0.0
 11
-44.163750149734668
 21
-6.8795944681358581
 31
0.0
  0
LINE
  5
23FC
  8
0
 62
     0
 10
-43.052500149734662
 20
-5.0795944681359266
 30
0.0
 11
-43.052500149734662
 21
-7.4859873862320816
 31
0.0
  0
LINE
  5
23FD
  8
0
 62
     0
 10
-41.941250149734657
 20
-5.1044605777132723
 30
0.0
 11
-41.941250149734657
 21
-9.8434311796625522
 31
0.0
  0
LINE
  5
23FE
  8
0
 62
     0
 10
-40.830000149734673
 20
-7.7446471506439281
 30
0.0
 11
-40.830000149734673
 21
-9.9743341871339108
 31
0.0
  0
LINE
  5
23FF
  8
0
 62
     0
 10
-39.71875014973466
 20
-8.1040998079543165
 30
0.0
 11
-39.71875014973466
 21
-10.23671386326976
 31
0.0
  0
LINE
  5
2400
  8
0
 62
     0
 10
-38.607500149734662
 20
-7.0703515521688738
 30
0.0
 11
-38.607500149734662
 21
-10.878294349906771
 31
0.0
  0
ENDBLK
  5
2402
  8
0
  0
BLOCK
  8
0
  2
*X76
 70
     1
 10
0.0
 20
0.0
 30
0.0
  3
*X76
  1

  0
LINE
  5
2404
  8
0
 62
     0
 10
-63.372122992308107
 20
-24.447500000000002
 30
0.0
 11
-41.627877005529648
 21
-24.447500000000002
 31
0.0
  0
LINE
  5
2405
  8
0
 62
     0
 10
-63.776584915136418
 20
-23.33625
 30
0.0
 11
-41.223415082701337
 21
-23.33625
 31
0.0
  0
LINE
  5
2406
  8
0
 62
     0
 10
-42.947308704824813
 20
-22.225000000000001
 30
0.0
 11
-40.818953159873033
 21
-22.225000000000001
 31
0.0
  0
LINE
  5
2407
  8
0
 62
     0
 10
-64.181046837964715
 20
-22.225000000000001
 30
0.0
 11
-62.05269129301292
 21
-22.225000000000001
 31
0.0
  0
LINE
  5
2408
  8
0
 62
     0
 10
-39.631136872385092
 20
-22.225000000000001
 30
0.0
 11
-37.499999998918888
 21
-22.225000000000001
 31
0.0
  0
LINE
  5
2409
  8
0
 62
     0
 10
-67.499999998918895
 20
-22.225000000000001
 30
0.0
 11
-65.368863125452592
 21
-22.225000000000001
 31
0.0
  0
LINE
  5
240A
  8
0
 62
     0
 10
-42.542846781996481
 20
-21.11375
 30
0.0
 11
-37.499999998918867
 21
-21.11375
 31
0.0
  0
LINE
  5
240B
  8
0
 62
     0
 10
-67.499999998918895
 20
-21.11375
 30
0.0
 11
-62.457153215841217
 21
-21.11375
 31
0.0
  0
LINE
  5
240C
  8
0
 62
     0
 10
-40.260100169190558
 20
-20.002500000000001
 30
0.0
 11
-37.499999998918859
 21
-20.002500000000001
 31
0.0
  0
LINE
  5
240D
  8
0
 62
     0
 10
-67.499999998918895
 20
-20.002500000000001
 30
0.0
 11
-64.73989982865109
 21
-20.002500000000001
 31
0.0
  0
ENDBLK
  5
240F
  8
0
  0
BLOCK
  8
0
  2
*X77
 70
     1
 10
0.0
 20
0.0
 30
0.0
  3
*X77
  1

  0
LINE
  5
2411
  8
0
 62
     0
 10
-66.388750149734662
 20
-7.073651373634652
 30
0.0
 11
-66.388750149734662
 21
-10.87612946054432
 31
0.0
  0
LINE
  5
2412
  8
0
 62
     0
 10
-65.277500149734664
 20
-8.1067275843982891
 30
0.0
 11
-65.277500149734664
 21
-10.234548973907369
 31
0.0
  0
LINE
  5
2413
  8
0
 62
     0
 10
-64.166250149734665
 20
-7.7343449390469088
 30
0.0
 11
-64.166250149734665
 21
-9.9743341871337687
 31
0.0
  0
LINE
  5
2414
  8
0
 62
     0
 10
-63.05500014973466
 20
-5.103094085352331
 30
0.0
 11
-63.05500014973466
 21
-9.8412863240925645
 31
0.0
  0
LINE
  5
2415
  8
0
 62
     0
 10
-61.943750149734662
 20
-5.0795944681358449
 30
0.0
 11
-61.943750149734662
 21
-7.4756851746350979
 31
0.0
  0
LINE
  5
2416
  8
0
 62
     0
 10
-60.832500149734663
 20
-5.0795944681358494
 30
0.0
 11
-60.832500149734663
 21
-6.8795944681358012
 31
0.0
  0
LINE
  5
2417
  8
0
 62
     0
 10
-59.721250149734658
 20
-5.079594468135852
 30
0.0
 11
-59.721250149734658
 21
-6.8795944681358101
 31
0.0
  0
LINE
  5
2418
  8
0
 62
     0
 10
-58.61000014973466
 20
-5.0795944681358547
 30
0.0
 11
-58.61000014973466
 21
-6.8795944681358163
 31
0.0
  0
LINE
  5
2419
  8
0
 62
     0
 10
-57.498750149734661
 20
-5.0795944681358591
 30
0.0
 11
-57.498750149734661
 21
-6.8795944681358234
 31
0.0
  0
LINE
  5
241A
  8
0
 62
     0
 10
-56.387500149734663
 20
-5.0795944681358609
 30
0.0
 11
-56.387500149734663
 21
-6.8795944681358296
 31
0.0
  0
LINE
  5
241B
  8
0
 62
     0
 10
-55.276250149734658
 20
-5.0795944681358653
 30
0.0
 11
-55.276250149734658
 21
-6.8795944681358376
 31
0.0
  0
LINE
  5
241C
  8
0
 62
     0
 10
-54.165000149734666
 20
-5.079594468135868
 30
0.0
 11
-54.165000149734666
 21
-6.8795944681358447
 31
0.0
  0
LINE
  5
241D
  8
0
 62
     0
 10
-53.053750149734661
 20
-5.0795944681358707
 30
0.0
 11
-53.053750149734661
 21
-6.8795944681358518
 31
0.0
  0
LINE
  5
241E
  8
0
 62
     0
 10
-51.942500149734663
 20
-5.079594468135876
 30
0.0
 11
-51.942500149734663
 21
-6.8795944681358536
 31
0.0
  0
LINE
  5
241F
  8
0
 62
     0
 10
-50.83125014973465
 20
-5.0795944681358831
 30
0.0
 11
-50.83125014973465
 21
-6.8795944681358536
 31
0.0
  0
LINE
  5
2420
  8
0
 62
     0
 10
-49.720000149734659
 20
-5.0795944681358893
 30
0.0
 11
-49.720000149734659
 21
-6.8795944681358554
 31
0.0
  0
LINE
  5
2421
  8
0
 62
     0
 10
-48.608750149734661
 20
-5.0795944681358947
 30
0.0
 11
-48.608750149734661
 21
-6.8795944681358563
 31
0.0
  0
LINE
  5
2422
  8
0
 62
     0
 10
-47.497500149734663
 20
-5.0795944681359009
 30
0.0
 11
-47.497500149734663
 21
-6.8795944681358563
 31
0.0
  0
LINE
  5
2423
  8
0
 62
     0
 10
-46.386250149734657
 20
-5.0795944681359071
 30
0.0
 11
-46.386250149734657
 21
-6.8795944681358572
 31
0.0
  0
LINE
  5
2424
  8
0
 62
     0
 10
-45.275000149734659
 20
-5.0795944681359142
 30
0.0
 11
-45.275000149734659
 21
-6.8795944681358581
 31
0.0
  0
LINE
  5
2425
  8
0
 62
     0
 10
-44.163750149734668
 20
-5.0795944681359213
 30
0.0
 11
-44.163750149734668
 21
-6.8795944681358581
 31
0.0
  0
LINE
  5
2426
  8
0
 62
     0
 10
-43.052500149734662
 20
-5.0795944681359266
 30
0.0
 11
-43.052500149734662
 21
-7.4859873862320816
 31
0.0
  0
LINE
  5
2427
  8
0
 62
     0
 10
-41.941250149734657
 20
-5.1044605777132723
 30
0.0
 11
-41.941250149734657
 21
-9.8434311796625522
 31
0.0
  0
LINE
  5
2428
  8
0
 62
     0
 10
-40.830000149734673
 20
-7.7446471506439281
 30
0.0
 11
-40.830000149734673
 21
-9.9743341871339108
 31
0.0
  0
LINE
  5
2429
  8
0
 62
     0
 10
-39.71875014973466
 20
-8.1040998079543165
 30
0.0
 11
-39.71875014973466
 21
-10.23671386326976
 31
0.0
  0
LINE
  5
242A
  8
0
 62
     0
 10
-38.607500149734662
 20
-7.0703515521688738
 30
0.0
 11
-38.607500149734662
 21
-10.878294349906771
 31
0.0
  0
ENDBLK
  5
242C
  8
0
  0
ENDSEC
  0
SECTION
  2
ENTITIES
  0
INSERT
  5
7BD
  8
0
  2
*U71
 10
0.0
 20
0.0
 30
0.0
  0
LINE
  5
1042
  8
SAPA_GLAS
 10
-85.000000000480611
 20
11.000000747072781
 30
0.0
 11
-81.900000000983027
 21
11.000000747072781
 31
0.0
  0
LINE
  5
1043
  8
SAPA_GLAS
 10
-81.900000000983027
 20
11.000000747072781
 30
0.0
 11
-81.900000000983013
 21
20.000000747076552
 31
0.0
  0
LINE
  5
1044
  8
SAPA_GLAS
 10
-81.900000000983013
 20
20.000000747076552
 30
0.0
 11
-85.000000000480611
 21
20.000000747076552
 31
0.0
  0
ARC
  5
1045
  8
SAPA_GLAS
 10
-81.927472822962287
 20
44.384362071676847
 30
0.0
 40
8.2592372925440731
 50
248.16030517098059
 51
291.50337180106629
  0
LINE
  5
14AF
  8
SAPA_GLAS
 10
-83.396440251907066
 20
-8.1554684367131554
 30
0.0
 11
-82.262870722021489
 21
-10.999999252955821
 31
0.0
  0
LINE
  5
14B0
  8
SAPA_GLAS
 10
-83.396440251906995
 20
8.1554699308604004
 30
0.0
 11
-82.653051271135723
 21
11.000000747075781
 31
0.0
  0
ARC
  5
14B1
  8
SAPA_GLAS
 10
-152.61988178597809
 20
4.6958552574801704
 30
0.0
 40
61.941521467203017
 50
345.3213231646244
 51
5.8414358847292549
  0
ARC
  5
14B2
  8
SAPA_GLAS
 10
-31.577137293194198
 20
0.0000007470735655
 30
0.0
 40
52.457142857141569
 50
171.05599162060551
 51
188.94400837939281
  0
POLYLINE
  5
157B
  8
SAPA_ANSLUTNING
 66
     1
 10
0.0
 20
0.0
 30
0.0
  0
VERTEX
  5
1DF5
  8
SAPA_ANSLUTNING
 10
-152.330785502579
 20
-46.868798277399151
 30
0.0
  0
VERTEX
  5
1DF6
  8
SAPA_ANSLUTNING
 10
-132.55300818718371
 20
-42.680973109772481
 30
0.0
  0
VERTEX
  5
1DF7
  8
SAPA_ANSLUTNING
 10
-120.3479548987134
 20
-52.188888975677791
 30
0.0
  0
VERTEX
  5
1DF8
  8
SAPA_ANSLUTNING
 10
-102.47253732342961
 20
-48.332343767427631
 30
0.0
  0
SEQEND
  5
1DF9
  8
SAPA_ANSLUTNING
  0
LINE
  5
157C
  8
SAPA_ANSLUTNING
 10
-32.783160070159603
 20
-40.392351897277301
 30
0.0
 11
61.056759434175689
 21
-40.392351897277301
 31
0.0
  0
ARC
  5
157D
  8
SAPA_ANSLUTNING
 10
56.345028206697322
 20
-33.108152537508147
 30
0.0
 40
14.76962643580225
 50
146.70329074687709
 51
209.78717132801
  0
ARC
  5
157E
  8
SAPA_ANSLUTNING
 10
24.423052085402929
 20
-32.786858686566923
 30
0.0
 40
12.93723559613799
 50
323.60653541113089
 51
37.226406989329298
  0
ARC
  5
157F
  8
SAPA_ANSLUTNING
 10
37.230821022653487
 20
-33.212491408213623
 30
0.0
 40
12.030828931734179
 50
136.69175939567381
 51
217.0599287065902
  0
INSERT
  5
1580
  8
SAPA_ANSLUTNING
  6
CONTINUOUS
  2
*X72
 10
0.0
 20
0.0
 30
0.0
1001
ACAD
1000
HATCH
1002
{
1070
    19
1000
HEX
1040
0.25
1040
0.0
1000
R14_HATCH_DATA
1000
1580
1011
1.0
1021
0.0
1031
0.0
1021
0.0
1031
0.0
1011
0.0
1021
0.0
1031
0.0
1021
1.0
1031
0.0
1011
0.0
1021
0.0
1031
0.0
1021
0.0
1031
1.0
1040
0.0
1010
0.0
1020
0.0
1030
1.0
1000
HEX
1070
     0
1070
     0
1071
        1
1071
        7
1070
     1
1070
     1
1071
       16
1040
29.868104118949681
1040
-28.34371258353622
1040
-0.754764512512243
1040
30.330524021657912
1040
-28.211887756840099
1040
0.0
1040
34.988746992423252
1040
-25.321059599949201
1040
0.0076814917560647
1040
34.754406829483663
1040
-24.99999962646212
1040
0.0
1040
28.439016684560251
1040
-24.99999962646212
1040
0.3628247603846906
1040
27.587222025629131
1040
-40.405671731912321
1040
0.0
1040
32.394499277793699
1040
-40.405671731912321
1040
0.0
1040
27.188515626915351
1040
-32.846910993066899
1040
-0.6041705852269828
1040
26.796710795305358
1040
-32.641019298887393
1040
-1.0
1040
27.296710795305358
1040
-32.641019298887393
1040
-0.2467502012680361
1040
27.188515626915351
1040
-32.846910993066899
1040
0.0
1040
32.394499277793699
1040
-40.405671731912321
1040
0.0
1040
34.878947678323271
1040
-40.405671731912321
1040
0.3216652329132922
1040
34.988746992423252
1040
-25.321059599949201
1040
0.0
1040
30.330524021657912
1040
-28.211887756840099
1040
-0.1397540728337868
1040
30.36810411894967
1040
-28.34371258353622
1040
-1.0
1071
        0
1070
     0
1070
     1
1040
0.0
1040
0.25
1070
     0
1070
     3
1040
0.0
1040
0.0000000000000284
1040
-0.0000000000000036
1040
0.0
1040
1.374814999999999
1070
     2
1040
0.79375
1040
-1.587499999999999
1040
2.0943951023931939
1040
0.0000000000000284
1040
-0.0000000000000036
1040
-1.190624715503902
1040
-0.6874074999999996
1070
     2
1040
0.7937499999999995
1040
-1.587499999999999
1040
1.047197551196597
1040
0.7937500000000171
1040
-0.0000000000000036
1040
-1.190624715503902
1040
0.6874075000000001
1070
     2
1040
0.79375
1040
-1.587499999999999
1040
0.0622435331576015
1071
        1
1040
29.82814593986442
1040
-31.30123050559974
1040
0.0
1002
}
  0
INSERT
  5
1581
  8
SAPA_ANSLUTNING
  6
CONTINUOUS
  2
*X73
 10
0.0
 20
0.0
 30
0.0
1001
ACAD
1000
HATCH
1002
{
1070
    19
1000
ANSI37
1040
0.25
1040
0.0
1000
R14_HATCH_DATA
1000
1581
1011
1.0
1021
0.0
1031
0.0
1021
0.0
1031
0.0
1011
0.0
1021
0.0
1031
0.0
1021
1.0
1031
0.0
1011
0.0
1021
0.0
1031
0.0
1021
0.0
1031
1.0
1040
0.0
1010
0.0
1020
0.0
1030
1.0
1000
ANSI37
1070
     0
1070
     0
1071
        1
1071
        7
1070
     1
1070
     1
1071
        5
1040
34.878947678323271
1040
-40.405671731912321
1040
0.0
1040
43.504152899287327
1040
-40.405671731912321
1040
-0.2815885454835446
1040
43.999999999996277
1040
-24.99999962646212
1040
0.0
1040
35.506096645298761
1040
-24.99999962646212
1040
0.0
1040
34.988746992423252
1040
-25.321059599949201
1040
-0.3216652329132927
1071
        0
1070
     0
1070
     1
1040
0.0
1040
0.25
1070
     0
1070
     2
1040
0.7853981633974483
1040
0.0000000000000284
1040
-0.0000000000000036
1040
-0.5612660075668221
1040
0.5612660075668221
1070
     0
1040
2.3561944901923439
1040
0.0000000000000284
1040
-0.0000000000000036
1040
-0.5612660075668221
1040
-0.5612660075668221
1070
     0
1040
0.0622435331576015
1071
        1
1040
39.357263134785313
1040
-30.180846550437199
1040
0.0
1002
}
  0
POLYLINE
  5
1582
  8
SAPA_ANSLUTNING
 66
     1
 10
0.0
 20
0.0
 30
0.0
  0
VERTEX
  5
1ECB
  8
SAPA_ANSLUTNING
 10
24.503154159254048
 20
-26.986679791824209
 30
0.0
  0
VERTEX
  5
1ECC
  8
SAPA_ANSLUTNING
 10
24.503154159249711
 20
-38.429550980655911
 30
0.0
 42
-0.9999999999999998
  0
VERTEX
  5
1ECD
  8
SAPA_ANSLUTNING
 10
20.503154159250041
 20
-38.429550980655911
 30
0.0
  0
VERTEX
  5
1ECE
  8
SAPA_ANSLUTNING
 10
20.503154159254048
 20
-26.986679791821601
 30
0.0
 42
0.9999999999999998
  0
VERTEX
  5
1ECF
  8
SAPA_ANSLUTNING
 10
16.50315415925462
 20
-26.986679791821491
 30
0.0
  0
VERTEX
  5
1ED0
  8
SAPA_ANSLUTNING
 10
16.503154159250158
 20
-38.429550980653062
 30
0.0
 42
-0.9999999999999998
  0
VERTEX
  5
1ED1
  8
SAPA_ANSLUTNING
 10
12.503154159250499
 20
-38.429550980653062
 30
0.0
  0
VERTEX
  5
1ED2
  8
SAPA_ANSLUTNING
 10
12.503154159254731
 20
-26.986679791820581
 30
0.0
 42
0.9999999999999998
  0
VERTEX
  5
1ED3
  8
SAPA_ANSLUTNING
 10
8.5031541592550752
 20
-26.986679791820581
 30
0.0
  0
VERTEX
  5
1ED4
  8
SAPA_ANSLUTNING
 10
8.5031541592547057
 20
-38.429550980653062
 30
0.0
 42
-0.9999999999999998
  0
VERTEX
  5
1ED5
  8
SAPA_ANSLUTNING
 10
4.5031541592550459
 20
-38.429550980653062
 30
0.0
  0
VERTEX
  5
1ED6
  8
SAPA_ANSLUTNING
 10
4.503154159258826
 20
-26.986679791815909
 30
0.0
 42
0.9999999999999998
  0
VERTEX
  5
1ED7
  8
SAPA_ANSLUTNING
 10
0.5031541592593954
 20
-26.986679791815799
 30
0.0
  0
VERTEX
  5
1ED8
  8
SAPA_ANSLUTNING
 10
0.5031541592549617
 20
-38.429550980647377
 30
0.0
 42
-0.9999999999999998
  0
VERTEX
  5
1ED9
  8
SAPA_ANSLUTNING
 10
-3.496845840744697
 20
-38.429550980647377
 30
0.0
  0
VERTEX
  5
1EDA
  8
SAPA_ANSLUTNING
 10
-3.4968458407404901
 20
-26.986679791814879
 30
0.0
 42
0.9999999999999998
  0
VERTEX
  5
1EDB
  8
SAPA_ANSLUTNING
 10
-7.496845840740149
 20
-26.986679791814879
 30
0.0
  0
VERTEX
  5
1EDC
  8
SAPA_ANSLUTNING
 10
-7.4968458407404901
 20
-28.89102967928153
 30
0.0
  0
VERTEX
  5
1EDD
  8
SAPA_ANSLUTNING
 10
-7.4968458407404901
 20
-38.429550980647377
 30
0.0
 42
-0.9999999999999998
  0
VERTEX
  5
1EDE
  8
SAPA_ANSLUTNING
 10
-11.49684584074015
 20
-38.429550980647377
 30
0.0
  0
VERTEX
  5
1EDF
  8
SAPA_ANSLUTNING
 10
-11.49684584073583
 20
-33.67596890279998
 30
0.0
 42
0.9999999999999998
  0
VERTEX
  5
1EE0
  8
SAPA_ANSLUTNING
 10
-15.496845840735601
 20
-33.67596890279998
 30
0.0
  0
VERTEX
  5
1EE1
  8
SAPA_ANSLUTNING
 10
-15.49684584073583
 20
-38.429550980647321
 30
0.0
 42
-0.9999999999999998
  0
VERTEX
  5
1EE2
  8
SAPA_ANSLUTNING
 10
-19.496845840735709
 20
-38.429550980647321
 30
0.0
  0
VERTEX
  5
1EE3
  8
SAPA_ANSLUTNING
 10
-19.49684584073151
 20
-33.675968902800037
 30
0.0
 42
0.9999999999999998
  0
VERTEX
  5
1EE4
  8
SAPA_ANSLUTNING
 10
-23.496845840731311
 20
-33.675968902800001
 30
0.0
  0
VERTEX
  5
1EE5
  8
SAPA_ANSLUTNING
 10
-23.496845840731279
 20
-38.429550980647321
 30
0.0
 42
-0.9999999999999998
  0
VERTEX
  5
1EE6
  8
SAPA_ANSLUTNING
 10
-27.496845840731169
 20
-38.429550980647321
 30
0.0
  0
VERTEX
  5
1EE7
  8
SAPA_ANSLUTNING
 10
-27.496845840726738
 20
-33.67596890279993
 30
0.0
 42
0.9999999999999998
  0
VERTEX
  5
1EE8
  8
SAPA_ANSLUTNING
 10
-31.496845840726511
 20
-33.67596890279993
 30
0.0
  0
VERTEX
  5
1EE9
  8
SAPA_ANSLUTNING
 10
-31.496845840726849
 20
-38.429550980647257
 30
0.0
 42
-0.4142135623731617
  0
VERTEX
  5
1EEA
  8
SAPA_ANSLUTNING
 10
-33.496845840727097
 20
-40.42955098064715
 30
0.0
  0
SEQEND
  5
1EEB
  8
SAPA_ANSLUTNING
  0
LINE
  5
1583
  8
SAPA_ANSLUTNING
 10
4.5031541592547342
 20
-29.005999479499231
 30
0.0
 11
4.503154159258826
 21
-26.986679791815291
 31
0.0
  0
POLYLINE
  5
1584
  8
SAPA_ANSLUTNING
 66
     1
 10
0.0
 20
0.0
 30
0.0
  0
VERTEX
  5
1EEC
  8
SAPA_ANSLUTNING
 10
27.43616435639473
 20
-25.21764277354827
 30
0.0
 42
0.5655052335197573
  0
VERTEX
  5
1EED
  8
SAPA_ANSLUTNING
 10
24.503154159254048
 20
-26.99178323095996
 30
0.0
  0
SEQEND
  5
1EEE
  8
SAPA_ANSLUTNING
  0
POLYLINE
  5
1585
  8
SAPA_ANSLUTNING
 66
     1
 10
0.0
 20
0.0
 30
0.0
 70
     1
  0
VERTEX
  5
1EEF
  8
SAPA_ANSLUTNING
 10
-165.082672302855
 20
-75.301204687079007
 30
0.0
  0
VERTEX
  5
1EF0
  8
SAPA_ANSLUTNING
 10
-166.082672302855
 20
-75.301204687079007
 30
0.0
  0
VERTEX
  5
1EF1
  8
SAPA_ANSLUTNING
 10
-166.082672302855
 20
-87.523669454960441
 30
0.0
 42
-0.9999999999999998
  0
VERTEX
  5
1EF2
  8
SAPA_ANSLUTNING
 10
-167.082672302855
 20
-87.523669454960441
 30
0.0
  0
VERTEX
  5
1EF3
  8
SAPA_ANSLUTNING
 10
-167.082672302855
 20
-49.890805371385738
 30
0.0
  0
VERTEX
  5
1EF4
  8
SAPA_ANSLUTNING
 10
-90.917687232027035
 20
-33.950012405742797
 30
0.0
 42
0.3549979267869159
  0
VERTEX
  5
1EF5
  8
SAPA_ANSLUTNING
 10
-89.724968749069347
 20
-32.481823702174978
 30
0.0
  0
VERTEX
  5
1EF6
  8
SAPA_ANSLUTNING
 10
-89.724968749069347
 20
-13.681785684249011
 30
0.0
  0
VERTEX
  5
1EF7
  8
SAPA_ANSLUTNING
 10
-90.724968749069376
 20
-13.681785684249011
 30
0.0
  0
VERTEX
  5
1EF8
  8
SAPA_ANSLUTNING
 10
-90.724968749069376
 20
-32.478216617281348
 30
0.0
 42
-0.3550789480700978
  0
VERTEX
  5
1EF9
  8
SAPA_ANSLUTNING
 10
-91.122682432363689
 20
-32.967642310737247
 30
0.0
  0
VERTEX
  5
1EFA
  8
SAPA_ANSLUTNING
 10
-168.082672302855
 20
-49.05170574020854
 30
0.0
  0
VERTEX
  5
1EFB
  8
SAPA_ANSLUTNING
 10
-168.082672302855
 20
-87.523669454960441
 30
0.0
 42
0.9999999999999998
  0
VERTEX
  5
1EFC
  8
SAPA_ANSLUTNING
 10
-165.082672302855
 20
-87.523669454960441
 30
0.0
  0
SEQEND
  5
1EFD
  8
SAPA_ANSLUTNING
  0
LINE
  5
1586
  8
SAPA_ANSLUTNING
 10
-34.790089356639193
 20
-33.814354581104787
 30
0.0
 11
-43.720843316265757
 21
-35.967225558381408
 31
0.0
  0
LINE
  5
1587
  8
SAPA_ANSLUTNING
 10
-32.783160070159369
 20
-40.392351897277251
 30
0.0
 11
-120.3432018121855
 21
-60.358521195280268
 31
0.0
  0
POLYLINE
  5
1588
  8
SAPA_ANSLUTNING
 66
     1
 10
0.0
 20
0.0
 30
0.0
 70
     1
  0
VERTEX
  5
1EFE
  8
SAPA_ANSLUTNING
 10
-10.241109765019781
 20
-31.207226794194298
 30
0.0
  0
VERTEX
  5
1EFF
  8
SAPA_ANSLUTNING
 10
-10.241109765019781
 20
-27.207226794194309
 30
0.0
 42
0.4142135623730956
  0
VERTEX
  5
1F00
  8
SAPA_ANSLUTNING
 10
-10.741109765019781
 20
-26.707226794194309
 30
0.0
  0
VERTEX
  5
1F01
  8
SAPA_ANSLUTNING
 10
-29.74110976501979
 20
-26.707226794194309
 30
0.0
 42
0.4142135623730951
  0
VERTEX
  5
1F02
  8
SAPA_ANSLUTNING
 10
-30.24110976501979
 20
-27.207226794194309
 30
0.0
  0
VERTEX
  5
1F03
  8
SAPA_ANSLUTNING
 10
-30.24110976501979
 20
-31.207226794194298
 30
0.0
 42
0.4142135623730951
  0
VERTEX
  5
1F04
  8
SAPA_ANSLUTNING
 10
-29.74110976501979
 20
-31.707226794194298
 30
0.0
  0
VERTEX
  5
1F05
  8
SAPA_ANSLUTNING
 10
-10.741109765019781
 20
-31.707226794194298
 30
0.0
 42
0.4142135623730951
  0
SEQEND
  5
1F06
  8
SAPA_ANSLUTNING
  0
LINE
  5
1589
  8
SAPA_ANSLUTNING
 10
-103.7226941846905
 20
-48.60205978567177
 30
0.0
 11
-103.4042836140639
 21
-50.078116538836071
 31
0.0
  0
LINE
  5
158A
  8
SAPA_ANSLUTNING
 10
-90.396987362440385
 20
-45.734097034842193
 30
0.0
 11
-90.078462867639089
 21
-47.210681906614859
 31
0.0
  0
LINE
  5
158B
  8
SAPA_ANSLUTNING
 10
-43.892810072942282
 20
-35.225435875029923
 30
0.0
 11
-43.54887655958926
 21
-36.709015241732921
 31
0.0
  0
LINE
  5
158C
  8
SAPA_ANSLUTNING
 10
-31.502951521062052
 20
-25.207226794194309
 30
0.0
 11
-31.502951521062052
 21
-26.707226794194309
 31
0.0
  0
LINE
  5
158D
  8
SAPA_ANSLUTNING
 10
-34.50663562360009
 20
-33.438399636755442
 30
0.0
 11
-34.391824815773447
 21
-25.943613862453859
 31
0.0
  0
LINE
  5
158E
  8
SAPA_ANSLUTNING
 10
-78.395986457186225
 20
-43.903581310258062
 30
0.0
 11
-90.237725115039964
 21
-46.472389470728501
 31
0.0
  0
LINE
  5
158F
  8
SAPA_ANSLUTNING
 10
-103.56348889937711
 20
-49.340088162253949
 30
0.0
 11
-116.421015066045
 21
-52.161749516262937
 31
0.0
  0
POLYLINE
  5
1590
  8
SAPA_ANSLUTNING
 66
     1
 10
0.0
 20
0.0
 30
0.0
 70
     1
  0
VERTEX
  5
1F07
  8
SAPA_ANSLUTNING
 10
-60.283087178547547
 20
-40.776140355529037
 30
0.0
  0
VERTEX
  5
1F08
  8
SAPA_ANSLUTNING
 10
-34.323543089678061
 20
-34.466866729743181
 30
0.0
  0
VERTEX
  5
1F09
  8
SAPA_ANSLUTNING
 10
-33.75663562360009
 20
-33.703063702432019
 30
0.0
  0
VERTEX
  5
1F0A
  8
SAPA_ANSLUTNING
 10
-33.75663562360009
 20
-27.707226794194298
 30
0.0
 42
-0.4142135623730951
  0
VERTEX
  5
1F0B
  8
SAPA_ANSLUTNING
 10
-32.75663562360009
 20
-26.707226794194309
 30
0.0
  0
VERTEX
  5
1F0C
  8
SAPA_ANSLUTNING
 10
-12.25663562360009
 20
-26.707226794194309
 30
0.0
  0
VERTEX
  5
1F0D
  8
SAPA_ANSLUTNING
 10
-12.25663562360009
 20
-25.207226794194309
 30
0.0
  0
VERTEX
  5
1F0E
  8
SAPA_ANSLUTNING
 10
-34.25663562360009
 20
-25.207226794194309
 30
0.0
  0
VERTEX
  5
1F0F
  8
SAPA_ANSLUTNING
 10
-35.25663562360009
 20
-25.867837359060569
 30
0.0
  0
VERTEX
  5
1F10
  8
SAPA_ANSLUTNING
 10
-35.25663562360009
 20
-33.207226794193559
 30
0.0
  0
VERTEX
  5
1F11
  8
SAPA_ANSLUTNING
 10
-35.25663562360009
 20
-33.207226794193559
 30
0.0
  0
VERTEX
  5
1F12
  8
SAPA_ANSLUTNING
 10
-60.662377004016051
 20
-39.311979753165311
 30
0.0
  0
VERTEX
  5
1F13
  8
SAPA_ANSLUTNING
 10
-126.9329704718005
 20
-53.646425779302042
 30
0.0
 42
0.35329840999121
  0
VERTEX
  5
1F14
  8
SAPA_ANSLUTNING
 10
-127.3275237589247
 20
-54.135247052129699
 30
0.0
  0
VERTEX
  5
1F15
  8
SAPA_ANSLUTNING
 10
-127.32289476805229
 20
-76.842974086078527
 30
0.0
  0
VERTEX
  5
1F16
  8
SAPA_ANSLUTNING
 10
-125.8254625148214
 20
-76.842661934693524
 30
0.0
  0
VERTEX
  5
1F17
  8
SAPA_ANSLUTNING
 10
-125.8299235450994
 20
-55.442498613631017
 30
0.0
 42
-0.3529338416976539
  0
VERTEX
  5
1F18
  8
SAPA_ANSLUTNING
 10
-125.4360038877722
 20
-54.953814473695779
 30
0.0
  0
SEQEND
  5
1F19
  8
SAPA_ANSLUTNING
  0
LINE
  5
1591
  8
SAPA_ANSLUTNING
 10
-116.5851749904817
 20
-51.400752905544103
 30
0.0
 11
-116.26676441985509
 21
-52.876809658708403
 31
0.0
  0
LINE
  5
1592
  8
SAPA_ANSLUTNING
 10
-78.585631369920364
 20
-43.171501009076223
 30
0.0
 11
-78.20634154445186
 21
-44.635661611439957
 31
0.0
  0
LINE
  5
1593
  8
SAPA_ANSLUTNING
 10
-127.32289476805229
 20
-60.566990551422073
 30
0.0
 11
-125.8254625148214
 21
-60.566678400037063
 31
0.0
  0
LINE
  5
1594
  8
SAPA_ANSLUTNING
 10
-126.5741786414368
 20
-60.566834475729543
 30
0.0
 11
-126.5741786414368
 21
-76.842818010385997
 31
0.0
  0
LINE
  5
1595
  8
SAPA_ANSLUTNING
 10
-65.259924547670224
 20
-40.30353825824664
 30
0.0
 11
-64.941400052868929
 21
-41.780123130019312
 31
0.0
  0
LINE
  5
1596
  8
SAPA_ANSLUTNING
 10
-53.298275885238418
 20
-38.310238324755687
 30
0.0
 11
-65.100662300269803
 21
-41.041830694132948
 31
0.0
  0
LINE
  5
1597
  8
SAPA_ANSLUTNING
 10
-53.485454841287563
 20
-37.587435046786432
 30
0.0
 11
-53.11109692918906
 21
-39.03304160272495
 31
0.0
  0
LINE
  5
1598
  8
SAPA_ANSLUTNING
 10
-33.96725878843003
 20
-37.671063158153743
 30
0.0
 11
-49.920566845158028
 21
-41.325481190118921
 31
0.0
  0
LINE
  5
1599
  8
SAPA_ANSLUTNING
 10
-49.920566845158028
 20
-41.325481190118921
 30
0.0
 11
-47.502474817548162
 21
-42.930646594195757
 31
0.0
  0
LINE
  5
159A
  8
SAPA_ANSLUTNING
 10
-49.920566845158028
 20
-41.325481190118921
 30
0.0
 11
-48.418162030825741
 21
-39.055876423068071
 31
0.0
  0
LINE
  5
159B
  8
SAPA_ANSLUTNING
 10
-70.355065617393237
 20
-45.42821090483028
 30
0.0
 11
-86.308373674121256
 21
-49.082628936795459
 31
0.0
  0
LINE
  5
159C
  8
SAPA_ANSLUTNING
 10
-86.308373674121256
 20
-49.082628936795459
 30
0.0
 11
-83.890281646511383
 21
-50.687794340872301
 31
0.0
  0
LINE
  5
159D
  8
SAPA_ANSLUTNING
 10
-86.308373674121256
 20
-49.082628936795459
 30
0.0
 11
-84.805968859788948
 21
-46.813024169744601
 31
0.0
  0
LINE
  5
159E
  8
SAPA_ANSLUTNING
 10
-101.49545356846011
 20
-53.074274318288928
 30
0.0
 11
-117.4487616251882
 21
-56.728692350254107
 31
0.0
  0
LINE
  5
159F
  8
SAPA_ANSLUTNING
 10
-117.4487616251882
 20
-56.728692350254107
 30
0.0
 11
-115.0306695975783
 21
-58.33385775433095
 31
0.0
  0
LINE
  5
15A0
  8
SAPA_ANSLUTNING
 10
-117.4487616251882
 20
-56.728692350254107
 30
0.0
 11
-115.9463568108559
 21
-54.459087583203249
 31
0.0
  0
LINE
  5
15A1
  8
SAPA_ANSLUTNING
 10
-120.3432018121855
 20
-60.358521195280268
 30
0.0
 11
-120.3432018121855
 21
-86.561479982989624
 31
0.0
  0
LINE
  5
15A2
  8
SAPA_ANSLUTNING
 10
-123.2159850402998
 20
-65.081409466770822
 30
0.0
 11
-123.2159850402998
 21
-76.804101808787038
 31
0.0
  0
LINE
  5
15A3
  8
SAPA_ANSLUTNING
 10
-123.2159850402998
 20
-76.804101808787038
 30
0.0
 11
-124.6979905805222
 21
-75.210657704255311
 31
0.0
  0
LINE
  5
15A4
  8
SAPA_ANSLUTNING
 10
-123.2159850402998
 20
-76.804101808787038
 30
0.0
 11
-121.55821245881479
 21
-75.379651417728425
 31
0.0
  0
LINE
  5
18BB
  8
SAPA_GLAS
 10
-82.842048968552774
 20
11.000000747075781
 30
0.0
 11
-82.692210119047814
 21
10.850161897570819
 31
0.0
1001
GRADIENTCOLOR1ACI
1070
     5
1001
GRADIENTCOLOR2ACI
1070
     2
1001
ACAD
1010
0.0
1020
0.0
1030
0.0
  0
LINE
  5
18BC
  8
SAPA_GLAS
 10
-83.964580983686417
 20
11.00000074707579
 30
0.0
 11
-82.924789992018816
 21
9.9602097554081936
 31
0.0
1001
GRADIENTCOLOR1ACI
1070
     5
1001
GRADIENTCOLOR2ACI
1070
     2
1001
ACAD
1010
0.0
1020
0.0
1030
0.0
  0
LINE
  5
18BD
  8
SAPA_GLAS
 10
-85.087112998820075
 20
11.00000074707579
 30
0.0
 11
-83.157369864989832
 21
9.070257613245559
 31
0.0
1001
GRADIENTCOLOR1ACI
1070
     5
1001
GRADIENTCOLOR2ACI
1070
     2
1001
ACAD
1010
0.0
1020
0.0
1030
0.0
  0
LINE
  5
18BE
  8
SAPA_GLAS
 10
-86.209645013953704
 20
11.00000074707579
 30
0.0
 11
-83.389949737960848
 21
8.1803054710829244
 31
0.0
1001
GRADIENTCOLOR1ACI
1070
     5
1001
GRADIENTCOLOR2ACI
1070
     2
1001
ACAD
1010
0.0
1020
0.0
1030
0.0
  0
LINE
  5
18BF
  8
SAPA_GLAS
 10
-87.332177029087347
 20
11.00000074707579
 30
0.0
 11
-83.537127019604597
 21
7.2049507375930162
 31
0.0
1001
GRADIENTCOLOR1ACI
1070
     5
1001
GRADIENTCOLOR2ACI
1070
     2
1001
ACAD
1010
0.0
1020
0.0
1030
0.0
  0
LINE
  5
18C0
  8
SAPA_GLAS
 10
-88.454709044221005
 20
11.00000074707579
 30
0.0
 11
-83.665331754896968
 21
6.2106234577517858
 31
0.0
1001
GRADIENTCOLOR1ACI
1070
     5
1001
GRADIENTCOLOR2ACI
1070
     2
1001
ACAD
1010
0.0
1020
0.0
1030
0.0
  0
LINE
  5
18C1
  8
SAPA_GLAS
 10
-89.577241059354634
 20
11.00000074707579
 30
0.0
 11
-83.776030265416054
 21
5.1987899531372221
 31
0.0
1001
GRADIENTCOLOR1ACI
1070
     5
1001
GRADIENTCOLOR2ACI
1070
     2
1001
ACAD
1010
0.0
1020
0.0
1030
0.0
  0
LINE
  5
18C2
  8
SAPA_GLAS
 10
-90.699773074488277
 20
11.00000074707579
 30
0.0
 11
-83.868384332397355
 21
4.1686120049848654
 31
0.0
1001
GRADIENTCOLOR1ACI
1070
     5
1001
GRADIENTCOLOR2ACI
1070
     2
1001
ACAD
1010
0.0
1020
0.0
1030
0.0
  0
LINE
  5
18C3
  8
SAPA_GLAS
 10
-90.913812280422135
 20
10.091507937876001
 30
0.0
 11
-83.94146375640733
 21
3.1191594138611829
 31
0.0
1001
GRADIENTCOLOR1ACI
1070
     5
1001
GRADIENTCOLOR2ACI
1070
     2
1001
ACAD
1010
0.0
1020
0.0
1030
0.0
  0
LINE
  5
18C4
  8
SAPA_GLAS
 10
-90.819478712302967
 20
8.8746423546231696
 30
0.0
 11
-83.99423199812405
 21
2.049395640444267
 31
0.0
1001
GRADIENTCOLOR1ACI
1070
     5
1001
GRADIENTCOLOR2ACI
1070
     2
1001
ACAD
1010
0.0
1020
0.0
1030
0.0
  0
LINE
  5
18C5
  8
SAPA_GLAS
 10
-90.750433265167089
 20
7.6830648923536549
 30
0.0
 11
-84.025528754226457
 21
0.9581603814130232
 31
0.0
1001
GRADIENTCOLOR1ACI
1070
     5
1001
GRADIENTCOLOR2ACI
1070
     2
1001
ACAD
1010
0.0
1020
0.0
1030
0.0
  0
LINE
  5
18C6
  8
SAPA_GLAS
 10
-90.70508448979021
 20
6.5151841018431531
 30
0.0
 11
-84.034048627454453
 21
-0.1558517604925953
 31
0.0
1001
GRADIENTCOLOR1ACI
1070
     5
1001
GRADIENTCOLOR2ACI
1070
     2
1001
ACAD
1010
0.0
1020
0.0
1030
0.0
  0
LINE
  5
18C7
  8
SAPA_GLAS
 10
-90.682024539460613
 20
5.3695921363799206
 30
0.0
 11
-84.018314762168274
 21
-1.294117640912432
 31
0.0
1001
GRADIENTCOLOR1ACI
1070
     5
1001
GRADIENTCOLOR2ACI
1070
     2
1001
ACAD
1010
0.0
1020
0.0
1030
0.0
  0
LINE
  5
18C8
  8
SAPA_GLAS
 10
-90.680000900526579
 20
4.2450364823122291
 30
0.0
 11
-83.976645908908054
 21
-2.4583185093063018
 31
0.0
1001
GRADIENTCOLOR1ACI
1070
     5
1001
GRADIENTCOLOR2ACI
1070
     2
1001
ACAD
1010
0.0
1020
0.0
1030
0.0
  0
LINE
  5
18C9
  8
SAPA_GLAS
 10
-90.697893514180279
 20
3.1403970808323001
 30
0.0
 11
-83.907114793307926
 21
-3.6503816400400728
 31
0.0
1001
GRADIENTCOLOR1ACI
1070
     5
1001
GRADIENTCOLOR2ACI
1070
     2
1001
ACAD
1010
0.0
1020
0.0
1030
0.0
  0
LINE
  5
18CA
  8
SAPA_GLAS
 10
-90.734696082068623
 20
2.0546676335870009
 30
0.0
 11
-83.807494800104976
 21
-4.8725336483766517
 31
0.0
1001
GRADIENTCOLOR1ACI
1070
     5
1001
GRADIENTCOLOR2ACI
1070
     2
1001
ACAD
1010
0.0
1020
0.0
1030
0.0
  0
LINE
  5
18CB
  8
SAPA_GLAS
 10
-90.789500655744263
 20
0.9869401921289764
 30
0.0
 11
-83.675190684565294
 21
-6.1273697790500199
 31
0.0
1001
GRADIENTCOLOR1ACI
1070
     5
1001
GRADIENTCOLOR2ACI
1070
     2
1001
ACAD
1010
0.0
1020
0.0
1030
0.0
  0
LINE
  5
18CC
  8
SAPA_GLAS
 10
-90.861484830420707
 20
-0.0636076483282224
 30
0.0
 11
-83.507147026694113
 21
-7.4179454520548296
 31
0.0
1001
GRADIENTCOLOR1ACI
1070
     5
1001
GRADIENTCOLOR2ACI
1070
     2
1001
ACAD
1010
0.0
1020
0.0
1030
0.0
  0
LINE
  5
18CD
  8
SAPA_GLAS
 10
-90.949901023858672
 20
-1.0977234700239
 30
0.0
 11
-83.068011820002184
 21
-8.9796126738803892
 31
0.0
1001
GRADIENTCOLOR1ACI
1070
     5
1001
GRADIENTCOLOR2ACI
1070
     2
1001
ACAD
1010
0.0
1020
0.0
1030
0.0
  0
LINE
  5
18CE
  8
SAPA_GLAS
 10
-91.054067439405955
 20
-2.1160890696102541
 30
0.0
 11
-82.324296518654961
 21
-10.84585999036126
 31
0.0
1001
GRADIENTCOLOR1ACI
1070
     5
1001
GRADIENTCOLOR2ACI
1070
     2
1001
ACAD
1010
0.0
1020
0.0
1030
0.0
  0
LINE
  5
18CF
  8
SAPA_GLAS
 10
-91.173360400389868
 20
-3.1193281237600128
 30
0.0
 11
-83.292689271195854
 21
-10.999999252954019
 31
0.0
1001
GRADIENTCOLOR1ACI
1070
     5
1001
GRADIENTCOLOR2ACI
1070
     2
1001
ACAD
1010
0.0
1020
0.0
1030
0.0
  0
LINE
  5
18D0
  8
SAPA_GLAS
 10
-91.307207809579126
 20
-4.1080127297043907
 30
0.0
 11
-84.415221286331374
 21
-10.999999252952151
 31
0.0
1001
GRADIENTCOLOR1ACI
1070
     5
1001
GRADIENTCOLOR2ACI
1070
     2
1001
ACAD
1010
0.0
1020
0.0
1030
0.0
  0
LINE
  5
18D1
  8
SAPA_GLAS
 10
-91.455083538134588
 20
-5.0826690162825514
 30
0.0
 11
-85.537753301466864
 21
-10.999999252950291
 31
0.0
1001
GRADIENTCOLOR1ACI
1070
     5
1001
GRADIENTCOLOR2ACI
1070
     2
1001
ACAD
1010
0.0
1020
0.0
1030
0.0
  0
LINE
  5
18D2
  8
SAPA_GLAS
 10
-91.616502587486494
 20
-6.0437819820642877
 30
0.0
 11
-86.660285316602383
 21
-10.99999925294842
 31
0.0
1001
GRADIENTCOLOR1ACI
1070
     5
1001
GRADIENTCOLOR2ACI
1070
     2
1001
ACAD
1010
0.0
1020
0.0
1030
0.0
  0
LINE
  5
18D3
  8
SAPA_GLAS
 10
-91.791016897874414
 20
-6.9917996868100403
 30
0.0
 11
-87.782817331737874
 21
-10.99999925294656
 31
0.0
1001
GRADIENTCOLOR1ACI
1070
     5
1001
GRADIENTCOLOR2ACI
1070
     2
1001
ACAD
1010
0.0
1020
0.0
1030
0.0
  0
LINE
  5
18D4
  8
SAPA_GLAS
 10
-91.978211701009059
 20
-7.9271368988090174
 30
0.0
 11
-88.905349346873408
 21
-10.99999925294469
 31
0.0
1001
GRADIENTCOLOR1ACI
1070
     5
1001
GRADIENTCOLOR2ACI
1070
     2
1001
ACAD
1010
0.0
1020
0.0
1030
0.0
  0
LINE
  5
18D5
  8
SAPA_GLAS
 10
-92.177702333036876
 20
-8.8501782819148573
 30
0.0
 11
-90.027881362008912
 21
-10.99999925294283
 31
0.0
1001
GRADIENTCOLOR1ACI
1070
     5
1001
GRADIENTCOLOR2ACI
1070
     2
1001
ACAD
1010
0.0
1020
0.0
1030
0.0
  0
LINE
  5
18D6
  8
SAPA_GLAS
 10
-92.389131438869313
 20
-9.7612811912160637
 30
0.0
 11
-91.150413377144417
 21
-10.99999925294096
 31
0.0
1001
GRADIENTCOLOR1ACI
1070
     5
1001
GRADIENTCOLOR2ACI
1070
     2
1001
ACAD
1010
0.0
1020
0.0
1030
0.0
  0
LINE
  5
18D7
  8
SAPA_GLAS
 10
-92.612166510853527
 20
-10.66077813436547
 30
0.0
 11
-92.272945392279922
 21
-10.9999992529391
 31
0.0
1001
GRADIENTCOLOR1ACI
1070
     5
1001
GRADIENTCOLOR2ACI
1070
     2
1001
ACAD
1010
0.0
1020
0.0
1030
0.0
  0
LINE
  5
18D8
  8
SAPA_GLAS
 10
-90.915629714318158
 20
10.11225239478604
 30
0.0
 11
-90.02788136202841
 21
11.00000074707579
 31
0.0
1001
GRADIENTCOLOR1ACI
1070
     5
1001
GRADIENTCOLOR2ACI
1070
     2
1001
ACAD
1010
0.0
1020
0.0
1030
0.0
  0
LINE
  5
18D9
  8
SAPA_GLAS
 10
-90.833154060031418
 20
9.0721960339391359
 30
0.0
 11
-88.905349346894766
 21
11.00000074707579
 31
0.0
1001
GRADIENTCOLOR1ACI
1070
     5
1001
GRADIENTCOLOR2ACI
1070
     2
1001
ACAD
1010
0.0
1020
0.0
1030
0.0
  0
LINE
  5
18DA
  8
SAPA_GLAS
 10
-90.767376360560888
 20
8.0154417182760351
 30
0.0
 11
-87.782817331761123
 21
11.00000074707579
 31
0.0
1001
GRADIENTCOLOR1ACI
1070
     5
1001
GRADIENTCOLOR2ACI
1070
     2
1001
ACAD
1010
0.0
1020
0.0
1030
0.0
  0
LINE
  5
18DB
  8
SAPA_GLAS
 10
-90.719070492946344
 20
6.9412155707569312
 30
0.0
 11
-86.66028531662748
 21
11.00000074707579
 31
0.0
1001
GRADIENTCOLOR1ACI
1070
     5
1001
GRADIENTCOLOR2ACI
1070
     2
1001
ACAD
1010
0.0
1020
0.0
1030
0.0
  0
LINE
  5
18DC
  8
SAPA_GLAS
 10
-90.68908887193362
 20
5.848665176636004
 30
0.0
 11
-85.537753301493836
 21
11.00000074707579
 31
0.0
1001
GRADIENTCOLOR1ACI
1070
     5
1001
GRADIENTCOLOR2ACI
1070
     2
1001
ACAD
1010
0.0
1020
0.0
1030
0.0
  0
LINE
  5
18DD
  8
SAPA_GLAS
 10
-90.67837388332272
 20
4.7368481501132669
 30
0.0
 11
-84.415221286360193
 21
11.00000074707579
 31
0.0
1001
GRADIENTCOLOR1ACI
1070
     5
1001
GRADIENTCOLOR2ACI
1070
     2
1001
ACAD
1010
0.0
1020
0.0
1030
0.0
  0
LINE
  5
18DE
  8
SAPA_GLAS
 10
-90.687971577103383
 20
3.604718441198969
 30
0.0
 11
-83.292689271226536
 21
11.00000074707579
 31
0.0
1001
GRADIENTCOLOR1ACI
1070
     5
1001
GRADIENTCOLOR2ACI
1070
     2
1001
ACAD
1010
0.0
1020
0.0
1030
0.0
  0
LINE
  5
18DF
  8
SAPA_GLAS
 10
-90.719048192638141
 20
2.4511098105305531
 30
0.0
 11
-82.823900322640782
 21
10.3462576805279
 31
0.0
1001
GRADIENTCOLOR1ACI
1070
     5
1001
GRADIENTCOLOR2ACI
1070
     2
1001
ACAD
1010
0.0
1020
0.0
1030
0.0
  0
LINE
  5
18E0
  8
SAPA_GLAS
 10
-90.772910268071016
 20
1.274715719964028
 30
0.0
 11
-83.221054820512634
 21
8.8265711675224097
 31
0.0
1001
GRADIENTCOLOR1ACI
1070
     5
1001
GRADIENTCOLOR2ACI
1070
     2
1001
ACAD
1010
0.0
1020
0.0
1030
0.0
  0
LINE
  5
18E1
  8
SAPA_GLAS
 10
-90.851029334737206
 20
0.0740646381642023
 30
0.0
 11
-83.507147026693204
 21
7.4179469462081888
 31
0.0
1001
GRADIENTCOLOR1ACI
1070
     5
1001
GRADIENTCOLOR2ACI
1070
     2
1001
ACAD
1010
0.0
1020
0.0
1030
0.0
  0
LINE
  5
18E2
  8
SAPA_GLAS
 10
-90.955072545966104
 20
-1.1525105881983599
 30
0.0
 11
-83.675190684564541
 21
6.1273712732032086
 31
0.0
1001
GRADIENTCOLOR1ACI
1070
     5
1001
GRADIENTCOLOR2ACI
1070
     2
1001
ACAD
1010
0.0
1020
0.0
1030
0.0
  0
LINE
  5
18E3
  8
SAPA_GLAS
 10
-91.086941086551548
 20
-2.4069111439174402
 30
0.0
 11
-83.807494800104436
 21
4.8725351425296699
 31
0.0
1001
GRADIENTCOLOR1ACI
1070
     5
1001
GRADIENTCOLOR2ACI
1070
     2
1001
ACAD
1010
0.0
1020
0.0
1030
0.0
  0
LINE
  5
18E4
  8
SAPA_GLAS
 10
-91.248818930154897
 20
-3.691321002654433
 30
0.0
 11
-83.907114793307514
 21
3.6503831341929489
 31
0.0
1001
GRADIENTCOLOR1ACI
1070
     5
1001
GRADIENTCOLOR2ACI
1070
     2
1001
ACAD
1010
0.0
1020
0.0
1030
0.0
  0
LINE
  5
18E5
  8
SAPA_GLAS
 10
-91.443235579044696
 20
-5.0082696666778466
 30
0.0
 11
-83.976645908907784
 21
2.4583200034590429
 31
0.0
1001
GRADIENTCOLOR1ACI
1070
     5
1001
GRADIENTCOLOR2ACI
1070
     2
1001
ACAD
1010
0.0
1020
0.0
1030
0.0
  0
LINE
  5
18E6
  8
SAPA_GLAS
 10
-91.673148035326307
 20
-6.3607141380931287
 30
0.0
 11
-84.018314762168131
 21
1.2941191350650449
 31
0.0
1001
GRADIENTCOLOR1ACI
1070
     5
1001
GRADIENTCOLOR2ACI
1070
     2
1001
ACAD
1010
0.0
1020
0.0
1030
0.0
  0
LINE
  5
18E7
  8
SAPA_GLAS
 10
-91.942049757504606
 20
-7.7521478754050497
 30
0.0
 11
-84.034048627454439
 21
0.1558532546450877
 31
0.0
1001
GRADIENTCOLOR1ACI
1070
     5
1001
GRADIENTCOLOR2ACI
1070
     2
1001
ACAD
1010
0.0
1020
0.0
1030
0.0
  0
LINE
  5
18E8
  8
SAPA_GLAS
 10
-92.254118351641935
 20
-9.1867484846760448
 30
0.0
 11
-84.025528754226556
 21
-0.9581588872606516
 31
0.0
1001
GRADIENTCOLOR1ACI
1070
     5
1001
GRADIENTCOLOR2ACI
1070
     2
1001
ACAD
1010
0.0
1020
0.0
1030
0.0
  0
LINE
  5
18E9
  8
SAPA_GLAS
 10
-92.614420326426753
 20
-10.669582474594501
 30
0.0
 11
-83.994231998124235
 21
-2.0493941462919869
 31
0.0
1001
GRADIENTCOLOR1ACI
1070
     5
1001
GRADIENTCOLOR2ACI
1070
     2
1001
ACAD
1010
0.0
1020
0.0
1030
0.0
  0
LINE
  5
18EA
  8
SAPA_GLAS
 10
-91.822305089638448
 20
-10.999999252939849
 30
0.0
 11
-83.941463756407614
 21
-3.1191579197090098
 31
0.0
1001
GRADIENTCOLOR1ACI
1070
     5
1001
GRADIENTCOLOR2ACI
1070
     2
1001
ACAD
1010
0.0
1020
0.0
1030
0.0
  0
LINE
  5
18EB
  8
SAPA_GLAS
 10
-90.699773074506695
 20
-10.99999925294172
 30
0.0
 11
-83.868384332397767
 21
-4.1686105108327922
 31
0.0
1001
GRADIENTCOLOR1ACI
1070
     5
1001
GRADIENTCOLOR2ACI
1070
     2
1001
ACAD
1010
0.0
1020
0.0
1030
0.0
  0
LINE
  5
18EC
  8
SAPA_GLAS
 10
-89.577241059374927
 20
-10.99999925294359
 30
0.0
 11
-83.776030265416537
 21
-5.1987884589852413
 31
0.0
1001
GRADIENTCOLOR1ACI
1070
     5
1001
GRADIENTCOLOR2ACI
1070
     2
1001
ACAD
1010
0.0
1020
0.0
1030
0.0
  0
LINE
  5
18ED
  8
SAPA_GLAS
 10
-88.454709044243117
 20
-10.99999925294545
 30
0.0
 11
-83.665331754897579
 21
-6.2106219635998983
 31
0.0
1001
GRADIENTCOLOR1ACI
1070
     5
1001
GRADIENTCOLOR2ACI
1070
     2
1001
ACAD
1010
0.0
1020
0.0
1030
0.0
  0
LINE
  5
18EE
  8
SAPA_GLAS
 10
-87.332177029111349
 20
-10.999999252947321
 30
0.0
 11
-83.537127019605236
 21
-7.204949243441205
 31
0.0
1001
GRADIENTCOLOR1ACI
1070
     5
1001
GRADIENTCOLOR2ACI
1070
     2
1001
ACAD
1010
0.0
1020
0.0
1030
0.0
  0
LINE
  5
18EF
  8
SAPA_GLAS
 10
-86.209645013979582
 20
-10.999999252949181
 30
0.0
 11
-83.387513815316296
 21
-8.1778680542859092
 31
0.0
1001
GRADIENTCOLOR1ACI
1070
     5
1001
GRADIENTCOLOR2ACI
1070
     2
1001
ACAD
1010
0.0
1020
0.0
1030
0.0
  0
LINE
  5
18F0
  8
SAPA_GLAS
 10
-85.0871129988478
 20
-10.999999252951049
 30
0.0
 11
-83.067645542029794
 21
-8.9805317961330431
 31
0.0
1001
GRADIENTCOLOR1ACI
1070
     5
1001
GRADIENTCOLOR2ACI
1070
     2
1001
ACAD
1010
0.0
1020
0.0
1030
0.0
  0
LINE
  5
18F1
  8
SAPA_GLAS
 10
-83.964580983716004
 20
-10.99999925295292
 30
0.0
 11
-82.747777268743278
 21
-9.7831955379801752
 31
0.0
1001
GRADIENTCOLOR1ACI
1070
     5
1001
GRADIENTCOLOR2ACI
1070
     2
1001
ACAD
1010
0.0
1020
0.0
1030
0.0
  0
LINE
  5
18F2
  8
SAPA_GLAS
 10
-82.842048968584237
 20
-10.999999252954771
 30
0.0
 11
-82.427908995456761
 21
-10.585859279827289
 31
0.0
1001
GRADIENTCOLOR1ACI
1070
     5
1001
GRADIENTCOLOR2ACI
1070
     2
1001
ACAD
1010
0.0
1020
0.0
1030
0.0
  0
LINE
  5
18F8
  8
SAPA_GLAS
 10
-85.000000000480611
 20
19.247414603900001
 30
0.0
 11
-84.931249999999991
 21
19.247414603900001
 31
0.0
1001
GRADIENTCOLOR1ACI
1070
     5
1001
GRADIENTCOLOR2ACI
1070
     2
1001
ACAD
1010
0.0
1020
0.0
1030
0.0
  0
LINE
  5
18F9
  8
SAPA_GLAS
 10
-83.343749999999986
 20
19.247414603900001
 30
0.0
 11
-82.549999999999983
 21
19.247414603900001
 31
0.0
1001
GRADIENTCOLOR1ACI
1070
     5
1001
GRADIENTCOLOR2ACI
1070
     2
1001
ACAD
1010
0.0
1020
0.0
1030
0.0
  0
LINE
  5
18FA
  8
SAPA_GLAS
 10
-85.000000000480611
 20
17.872599275049989
 30
0.0
 11
-84.931249999999991
 21
17.872599275049989
 31
0.0
1001
GRADIENTCOLOR1ACI
1070
     5
1001
GRADIENTCOLOR2ACI
1070
     2
1001
ACAD
1010
0.0
1020
0.0
1030
0.0
  0
LINE
  5
18FB
  8
SAPA_GLAS
 10
-83.343749999999986
 20
17.872599275049989
 30
0.0
 11
-82.549999999999983
 21
17.872599275049989
 31
0.0
1001
GRADIENTCOLOR1ACI
1070
     5
1001
GRADIENTCOLOR2ACI
1070
     2
1001
ACAD
1010
0.0
1020
0.0
1030
0.0
  0
LINE
  5
18FC
  8
SAPA_GLAS
 10
-85.000000000480611
 20
16.497783946199998
 30
0.0
 11
-84.931249999999991
 21
16.497783946199998
 31
0.0
1001
GRADIENTCOLOR1ACI
1070
     5
1001
GRADIENTCOLOR2ACI
1070
     2
1001
ACAD
1010
0.0
1020
0.0
1030
0.0
  0
LINE
  5
18FD
  8
SAPA_GLAS
 10
-83.343749999999986
 20
16.497783946199998
 30
0.0
 11
-82.549999999999983
 21
16.497783946199998
 31
0.0
1001
GRADIENTCOLOR1ACI
1070
     5
1001
GRADIENTCOLOR2ACI
1070
     2
1001
ACAD
1010
0.0
1020
0.0
1030
0.0
  0
LINE
  5
18FE
  8
SAPA_GLAS
 10
-85.000000000480611
 20
15.122968617350001
 30
0.0
 11
-84.931249999999991
 21
15.122968617350001
 31
0.0
1001
GRADIENTCOLOR1ACI
1070
     5
1001
GRADIENTCOLOR2ACI
1070
     2
1001
ACAD
1010
0.0
1020
0.0
1030
0.0
  0
LINE
  5
18FF
  8
SAPA_GLAS
 10
-83.343749999999986
 20
15.122968617350001
 30
0.0
 11
-82.549999999999983
 21
15.122968617350001
 31
0.0
1001
GRADIENTCOLOR1ACI
1070
     5
1001
GRADIENTCOLOR2ACI
1070
     2
1001
ACAD
1010
0.0
1020
0.0
1030
0.0
  0
LINE
  5
1900
  8
SAPA_GLAS
 10
-85.000000000480611
 20
13.748153288499999
 30
0.0
 11
-84.931249999999991
 21
13.748153288499999
 31
0.0
1001
GRADIENTCOLOR1ACI
1070
     5
1001
GRADIENTCOLOR2ACI
1070
     2
1001
ACAD
1010
0.0
1020
0.0
1030
0.0
  0
LINE
  5
1901
  8
SAPA_GLAS
 10
-83.343749999999986
 20
13.748153288499999
 30
0.0
 11
-82.549999999999983
 21
13.748153288499999
 31
0.0
1001
GRADIENTCOLOR1ACI
1070
     5
1001
GRADIENTCOLOR2ACI
1070
     2
1001
ACAD
1010
0.0
1020
0.0
1030
0.0
  0
LINE
  5
1902
  8
SAPA_GLAS
 10
-85.000000000480611
 20
12.37333795965
 30
0.0
 11
-84.931249999999991
 21
12.37333795965
 31
0.0
1001
GRADIENTCOLOR1ACI
1070
     5
1001
GRADIENTCOLOR2ACI
1070
     2
1001
ACAD
1010
0.0
1020
0.0
1030
0.0
  0
LINE
  5
1903
  8
SAPA_GLAS
 10
-83.343749999999986
 20
12.37333795965
 30
0.0
 11
-82.549999999999983
 21
12.37333795965
 31
0.0
1001
GRADIENTCOLOR1ACI
1070
     5
1001
GRADIENTCOLOR2ACI
1070
     2
1001
ACAD
1010
0.0
1020
0.0
1030
0.0
  0
LINE
  5
1904
  8
SAPA_GLAS
 10
-84.534375014521487
 20
11.685930283932301
 30
0.0
 11
-84.931250014521467
 21
12.373337948186199
 31
0.0
1001
GRADIENTCOLOR1ACI
1070
     5
1001
GRADIENTCOLOR2ACI
1070
     2
1001
ACAD
1010
0.0
1020
0.0
1030
0.0
  0
LINE
  5
1905
  8
SAPA_GLAS
 10
-83.343750014225137
 20
12.3733379483573
 30
0.0
 11
-83.740625014225117
 21
13.0607456126112
 31
0.0
1001
GRADIENTCOLOR1ACI
1070
     5
1001
GRADIENTCOLOR2ACI
1070
     2
1001
ACAD
1010
0.0
1020
0.0
1030
0.0
  0
LINE
  5
1906
  8
SAPA_GLAS
 10
-84.534375014225105
 20
14.43556094111899
 30
0.0
 11
-84.931250014225114
 21
15.12296860537289
 31
0.0
1001
GRADIENTCOLOR1ACI
1070
     5
1001
GRADIENTCOLOR2ACI
1070
     2
1001
ACAD
1010
0.0
1020
0.0
1030
0.0
  0
LINE
  5
1907
  8
SAPA_GLAS
 10
-82.153125013928786
 20
13.0607456127823
 30
0.0
 11
-82.550000013928766
 21
13.74815327703619
 31
0.0
1001
GRADIENTCOLOR1ACI
1070
     5
1001
GRADIENTCOLOR2ACI
1070
     2
1001
ACAD
1010
0.0
1020
0.0
1030
0.0
  0
LINE
  5
1908
  8
SAPA_GLAS
 10
-83.343750013928755
 20
15.12296860554399
 30
0.0
 11
-83.740625013928764
 21
15.81037626979789
 31
0.0
1001
GRADIENTCOLOR1ACI
1070
     5
1001
GRADIENTCOLOR2ACI
1070
     2
1001
ACAD
1010
0.0
1020
0.0
1030
0.0
  0
LINE
  5
1909
  8
SAPA_GLAS
 10
-84.534375013928766
 20
17.185191598305689
 30
0.0
 11
-84.931250013928761
 21
17.872599262559579
 31
0.0
1001
GRADIENTCOLOR1ACI
1070
     5
1001
GRADIENTCOLOR2ACI
1070
     2
1001
ACAD
1010
0.0
1020
0.0
1030
0.0
  0
LINE
  5
190A
  8
SAPA_GLAS
 10
-82.153125013632405
 20
15.810376269968989
 30
0.0
 11
-82.550000013632399
 21
16.497783934222891
 31
0.0
1001
GRADIENTCOLOR1ACI
1070
     5
1001
GRADIENTCOLOR2ACI
1070
     2
1001
ACAD
1010
0.0
1020
0.0
1030
0.0
  0
LINE
  5
190B
  8
SAPA_GLAS
 10
-83.343750013632388
 20
17.872599262730692
 30
0.0
 11
-83.740625013632396
 21
18.560006926984592
 31
0.0
1001
GRADIENTCOLOR1ACI
1070
     5
1001
GRADIENTCOLOR2ACI
1070
     2
1001
ACAD
1010
0.0
1020
0.0
1030
0.0
  0
LINE
  5
190C
  8
SAPA_GLAS
 10
-84.534375013632385
 20
19.934822255492382
 30
0.0
 11
-84.5720058332939
 21
20.000000747076559
 31
0.0
1001
GRADIENTCOLOR1ACI
1070
     5
1001
GRADIENTCOLOR2ACI
1070
     2
1001
ACAD
1010
0.0
1020
0.0
1030
0.0
  0
LINE
  5
190D
  8
SAPA_GLAS
 10
-82.153125013336037
 20
18.560006927155701
 30
0.0
 11
-82.550000013336046
 21
19.247414591409601
 31
0.0
1001
GRADIENTCOLOR1ACI
1070
     5
1001
GRADIENTCOLOR2ACI
1070
     2
1001
ACAD
1010
0.0
1020
0.0
1030
0.0
  0
LINE
  5
190E
  8
SAPA_GLAS
 10
-84.931250018077762
 20
19.247414609546361
 30
0.0
 11
-84.534375018077753
 21
19.934822273800261
 31
0.0
1001
GRADIENTCOLOR1ACI
1070
     5
1001
GRADIENTCOLOR2ACI
1070
     2
1001
ACAD
1010
0.0
1020
0.0
1030
0.0
  0
LINE
  5
190F
  8
SAPA_GLAS
 10
-84.931250017781409
 20
16.497783952359669
 30
0.0
 11
-84.534375017781414
 21
17.185191616613562
 31
0.0
1001
GRADIENTCOLOR1ACI
1070
     5
1001
GRADIENTCOLOR2ACI
1070
     2
1001
ACAD
1010
0.0
1020
0.0
1030
0.0
  0
LINE
  5
1910
  8
SAPA_GLAS
 10
-83.740625017781412
 20
18.560006945121359
 30
0.0
 11
-83.343750017781403
 21
19.247414609375259
 31
0.0
1001
GRADIENTCOLOR1ACI
1070
     5
1001
GRADIENTCOLOR2ACI
1070
     2
1001
ACAD
1010
0.0
1020
0.0
1030
0.0
  0
LINE
  5
1911
  8
SAPA_GLAS
 10
-84.931250017485056
 20
13.74815329517298
 30
0.0
 11
-84.534375017485061
 21
14.43556095942688
 31
0.0
1001
GRADIENTCOLOR1ACI
1070
     5
1001
GRADIENTCOLOR2ACI
1070
     2
1001
ACAD
1010
0.0
1020
0.0
1030
0.0
  0
LINE
  5
1912
  8
SAPA_GLAS
 10
-83.740625017485058
 20
15.81037628793468
 30
0.0
 11
-83.343750017485064
 21
16.497783952188581
 31
0.0
1001
GRADIENTCOLOR1ACI
1070
     5
1001
GRADIENTCOLOR2ACI
1070
     2
1001
ACAD
1010
0.0
1020
0.0
1030
0.0
  0
LINE
  5
1913
  8
SAPA_GLAS
 10
-82.550000017485061
 20
17.87259928069637
 30
0.0
 11
-82.153125017485067
 21
18.56000694495027
 31
0.0
1001
GRADIENTCOLOR1ACI
1070
     5
1001
GRADIENTCOLOR2ACI
1070
     2
1001
ACAD
1010
0.0
1020
0.0
1030
0.0
  0
LINE
  5
1914
  8
SAPA_GLAS
 10
-84.930396630509705
 20
11.000000747072781
 30
0.0
 11
-84.534375017188694
 21
11.68593030224018
 31
0.0
1001
GRADIENTCOLOR1ACI
1070
     5
1001
GRADIENTCOLOR2ACI
1070
     2
1001
ACAD
1010
0.0
1020
0.0
1030
0.0
  0
LINE
  5
1915
  8
SAPA_GLAS
 10
-83.740625017188691
 20
13.060745630747981
 30
0.0
 11
-83.343750017188697
 21
13.748153295001879
 31
0.0
1001
GRADIENTCOLOR1ACI
1070
     5
1001
GRADIENTCOLOR2ACI
1070
     2
1001
ACAD
1010
0.0
1020
0.0
1030
0.0
  0
LINE
  5
1916
  8
SAPA_GLAS
 10
-82.550000017188694
 20
15.122968623509671
 30
0.0
 11
-82.153125017188685
 21
15.810376287763569
 31
0.0
1001
GRADIENTCOLOR1ACI
1070
     5
1001
GRADIENTCOLOR2ACI
1070
     2
1001
ACAD
1010
0.0
1020
0.0
1030
0.0
  0
LINE
  5
1917
  8
SAPA_GLAS
 10
-82.550000016892341
 20
12.373337966322969
 30
0.0
 11
-82.153125016892346
 21
13.06074563057687
 31
0.0
1001
GRADIENTCOLOR1ACI
1070
     5
1001
GRADIENTCOLOR2ACI
1070
     2
1001
ACAD
1010
0.0
1020
0.0
1030
0.0
  0
LINE
  5
1918
  8
SAPA_GLAS
 10
-85.000000000480597
 20
36.233457633952973
 30
0.0
 11
-84.647563746945977
 21
36.585893887487593
 31
0.0
1001
GRADIENTCOLOR1ACI
1070
     5
1001
GRADIENTCOLOR2ACI
1070
     2
1001
ACAD
1010
0.0
1020
0.0
1030
0.0
  0
LINE
  5
1919
  8
SAPA_GLAS
 10
-85.000000000480611
 20
35.11092561881933
 30
0.0
 11
-83.776228361374137
 21
36.334697257925782
 31
0.0
1001
GRADIENTCOLOR1ACI
1070
     5
1001
GRADIENTCOLOR2ACI
1070
     2
1001
ACAD
1010
0.0
1020
0.0
1030
0.0
  0
LINE
  5
191A
  8
SAPA_GLAS
 10
-85.000000000480611
 20
33.98839360368568
 30
0.0
 11
-82.815400762344737
 21
36.172992841821539
 31
0.0
1001
GRADIENTCOLOR1ACI
1070
     5
1001
GRADIENTCOLOR2ACI
1070
     2
1001
ACAD
1010
0.0
1020
0.0
1030
0.0
  0
LINE
  5
191B
  8
SAPA_GLAS
 10
-85.000000000480611
 20
32.865861588552043
 30
0.0
 11
-81.73857640929856
 21
36.127285179734073
 31
0.0
1001
GRADIENTCOLOR1ACI
1070
     5
1001
GRADIENTCOLOR2ACI
1070
     2
1001
ACAD
1010
0.0
1020
0.0
1030
0.0
  0
LINE
  5
191C
  8
SAPA_GLAS
 10
-85.000000000480611
 20
31.743329573418379
 30
0.0
 11
-80.492612168466863
 21
36.250717405432098
 31
0.0
1001
GRADIENTCOLOR1ACI
1070
     5
1001
GRADIENTCOLOR2ACI
1070
     2
1001
ACAD
1010
0.0
1020
0.0
1030
0.0
  0
LINE
  5
191D
  8
SAPA_GLAS
 10
-85.000000000480611
 20
30.620797558284739
 30
0.0
 11
-78.93417236301832
 21
36.686625195747027
 31
0.0
1001
GRADIENTCOLOR1ACI
1070
     5
1001
GRADIENTCOLOR2ACI
1070
     2
1001
ACAD
1010
0.0
1020
0.0
1030
0.0
  0
LINE
  5
191E
  8
SAPA_GLAS
 10
-85.000000000480611
 20
29.498265543151099
 30
0.0
 11
-78.900000001050401
 21
35.598265542581302
 31
0.0
1001
GRADIENTCOLOR1ACI
1070
     5
1001
GRADIENTCOLOR2ACI
1070
     2
1001
ACAD
1010
0.0
1020
0.0
1030
0.0
  0
LINE
  5
191F
  8
SAPA_GLAS
 10
-85.000000000480611
 20
28.375733528017449
 30
0.0
 11
-78.900000001119452
 21
34.475733527378608
 31
0.0
1001
GRADIENTCOLOR1ACI
1070
     5
1001
GRADIENTCOLOR2ACI
1070
     2
1001
ACAD
1010
0.0
1020
0.0
1030
0.0
  0
LINE
  5
1920
  8
SAPA_GLAS
 10
-85.000000000480611
 20
27.253201512883809
 30
0.0
 11
-78.900000001188502
 21
33.353201512175922
 31
0.0
1001
GRADIENTCOLOR1ACI
1070
     5
1001
GRADIENTCOLOR2ACI
1070
     2
1001
ACAD
1010
0.0
1020
0.0
1030
0.0
  0
LINE
  5
1921
  8
SAPA_GLAS
 10
-85.000000000480611
 20
26.130669497750169
 30
0.0
 11
-78.900000001257553
 21
32.230669496973221
 31
0.0
1001
GRADIENTCOLOR1ACI
1070
     5
1001
GRADIENTCOLOR2ACI
1070
     2
1001
ACAD
1010
0.0
1020
0.0
1030
0.0
  0
LINE
  5
1922
  8
SAPA_GLAS
 10
-85.000000000480611
 20
25.008137482616529
 30
0.0
 11
-78.900000001326603
 21
31.10813748177053
 31
0.0
1001
GRADIENTCOLOR1ACI
1070
     5
1001
GRADIENTCOLOR2ACI
1070
     2
1001
ACAD
1010
0.0
1020
0.0
1030
0.0
  0
LINE
  5
1923
  8
SAPA_GLAS
 10
-85.000000000480611
 20
23.885605467482868
 30
0.0
 11
-78.900000001395654
 21
29.985605466567819
 31
0.0
1001
GRADIENTCOLOR1ACI
1070
     5
1001
GRADIENTCOLOR2ACI
1070
     2
1001
ACAD
1010
0.0
1020
0.0
1030
0.0
  0
LINE
  5
1924
  8
SAPA_GLAS
 10
-85.000000000480597
 20
22.763073452349239
 30
0.0
 11
-78.900000001464704
 21
28.863073451365128
 31
0.0
1001
GRADIENTCOLOR1ACI
1070
     5
1001
GRADIENTCOLOR2ACI
1070
     2
1001
ACAD
1010
0.0
1020
0.0
1030
0.0
  0
LINE
  5
1925
  8
SAPA_GLAS
 10
-85.000000000480597
 20
21.640541437215589
 30
0.0
 11
-78.900000001533755
 21
27.740541436162431
 31
0.0
1001
GRADIENTCOLOR1ACI
1070
     5
1001
GRADIENTCOLOR2ACI
1070
     2
1001
ACAD
1010
0.0
1020
0.0
1030
0.0
  0
LINE
  5
1926
  8
SAPA_GLAS
 10
-85.000000000480597
 20
20.518009422081949
 30
0.0
 11
-78.90000000160282
 21
26.618009420959741
 31
0.0
1001
GRADIENTCOLOR1ACI
1070
     5
1001
GRADIENTCOLOR2ACI
1070
     2
1001
ACAD
1010
0.0
1020
0.0
1030
0.0
  0
LINE
  5
1927
  8
SAPA_GLAS
 10
-84.395476660352358
 20
20.000000747076559
 30
0.0
 11
-78.900000001671856
 21
25.49547740575705
 31
0.0
1001
GRADIENTCOLOR1ACI
1070
     5
1001
GRADIENTCOLOR2ACI
1070
     2
1001
ACAD
1010
0.0
1020
0.0
1030
0.0
  0
LINE
  5
1928
  8
SAPA_GLAS
 10
-83.272944645218701
 20
20.000000747076552
 30
0.0
 11
-78.900000001740921
 21
24.372945390554349
 31
0.0
1001
GRADIENTCOLOR1ACI
1070
     5
1001
GRADIENTCOLOR2ACI
1070
     2
1001
ACAD
1010
0.0
1020
0.0
1030
0.0
  0
LINE
  5
1929
  8
SAPA_GLAS
 10
-82.150412630085057
 20
20.000000747076559
 30
0.0
 11
-78.900000001809957
 21
23.250413375351659
 31
0.0
1001
GRADIENTCOLOR1ACI
1070
     5
1001
GRADIENTCOLOR2ACI
1070
     2
1001
ACAD
1010
0.0
1020
0.0
1030
0.0
  0
LINE
  5
192A
  8
SAPA_GLAS
 10
-81.027880614951798
 20
20.000000747076161
 30
0.0
 11
-78.900000001879022
 21
22.127881360148962
 31
0.0
1001
GRADIENTCOLOR1ACI
1070
     5
1001
GRADIENTCOLOR2ACI
1070
     2
1001
ACAD
1010
0.0
1020
0.0
1030
0.0
  0
LINE
  5
192B
  8
SAPA_GLAS
 10
-79.763702618352369
 20
20.141646728541961
 30
0.0
 11
-79.041645983383461
 21
20.863703363510879
 31
0.0
1001
GRADIENTCOLOR1ACI
1070
     5
1001
GRADIENTCOLOR2ACI
1070
     2
1001
ACAD
1010
0.0
1020
0.0
1030
0.0
  0
LINE
  5
192C
  8
SAPA_GLAS
 10
-83.984325609694253
 20
20.000000747076552
 30
0.0
 11
-85.000000000480625
 21
21.015675137862921
 31
0.0
1001
GRADIENTCOLOR1ACI
1070
     5
1001
GRADIENTCOLOR2ACI
1070
     2
1001
ACAD
1010
0.0
1020
0.0
1030
0.0
  0
LINE
  5
192D
  8
SAPA_GLAS
 10
-82.861793594560609
 20
20.000000747076552
 30
0.0
 11
-85.000000000480625
 21
22.138207152996561
 31
0.0
1001
GRADIENTCOLOR1ACI
1070
     5
1001
GRADIENTCOLOR2ACI
1070
     2
1001
ACAD
1010
0.0
1020
0.0
1030
0.0
  0
LINE
  5
192E
  8
SAPA_GLAS
 10
-81.715948873831465
 20
19.97668804148104
 30
0.0
 11
-85.000000000480625
 21
23.260739168130211
 31
0.0
1001
GRADIENTCOLOR1ACI
1070
     5
1001
GRADIENTCOLOR2ACI
1070
     2
1001
ACAD
1010
0.0
1020
0.0
1030
0.0
  0
LINE
  5
192F
  8
SAPA_GLAS
 10
-80.616729564292925
 20
20.00000074707615
 30
0.0
 11
-85.000000000480611
 21
24.38327118326384
 31
0.0
1001
GRADIENTCOLOR1ACI
1070
     5
1001
GRADIENTCOLOR2ACI
1070
     2
1001
ACAD
1010
0.0
1020
0.0
1030
0.0
  0
LINE
  5
1930
  8
SAPA_GLAS
 10
-79.678898245822921
 20
20.184701443739801
 30
0.0
 11
-85.000000000480611
 21
25.505803198397491
 31
0.0
1001
GRADIENTCOLOR1ACI
1070
     5
1001
GRADIENTCOLOR2ACI
1070
     2
1001
ACAD
1010
0.0
1020
0.0
1030
0.0
  0
LINE
  5
1931
  8
SAPA_GLAS
 10
-79.108595856393151
 20
20.73693106944366
 30
0.0
 11
-85.000000000480611
 21
26.628335213531141
 31
0.0
1001
GRADIENTCOLOR1ACI
1070
     5
1001
GRADIENTCOLOR2ACI
1070
     2
1001
ACAD
1010
0.0
1020
0.0
1030
0.0
  0
LINE
  5
1932
  8
SAPA_GLAS
 10
-78.900000001908353
 20
21.650867230092519
 30
0.0
 11
-85.000000000480611
 21
27.750867228664781
 31
0.0
1001
GRADIENTCOLOR1ACI
1070
     5
1001
GRADIENTCOLOR2ACI
1070
     2
1001
ACAD
1010
0.0
1020
0.0
1030
0.0
  0
LINE
  5
1933
  8
SAPA_GLAS
 10
-78.900000001839317
 20
22.773399245157119
 30
0.0
 11
-85.000000000480611
 21
28.873399243798431
 31
0.0
1001
GRADIENTCOLOR1ACI
1070
     5
1001
GRADIENTCOLOR2ACI
1070
     2
1001
ACAD
1010
0.0
1020
0.0
1030
0.0
  0
LINE
  5
1934
  8
SAPA_GLAS
 10
-78.900000001770252
 20
23.895931260221701
 30
0.0
 11
-85.000000000480611
 21
29.99593125893206
 31
0.0
1001
GRADIENTCOLOR1ACI
1070
     5
1001
GRADIENTCOLOR2ACI
1070
     2
1001
ACAD
1010
0.0
1020
0.0
1030
0.0
  0
LINE
  5
1935
  8
SAPA_GLAS
 10
-78.900000001701216
 20
25.018463275286312
 30
0.0
 11
-85.000000000480611
 21
31.118463274065711
 31
0.0
1001
GRADIENTCOLOR1ACI
1070
     5
1001
GRADIENTCOLOR2ACI
1070
     2
1001
ACAD
1010
0.0
1020
0.0
1030
0.0
  0
LINE
  5
1936
  8
SAPA_GLAS
 10
-78.900000001632165
 20
26.140995290350901
 30
0.0
 11
-85.000000000480611
 21
32.240995289199361
 31
0.0
1001
GRADIENTCOLOR1ACI
1070
     5
1001
GRADIENTCOLOR2ACI
1070
     2
1001
ACAD
1010
0.0
1020
0.0
1030
0.0
  0
LINE
  5
1937
  8
SAPA_GLAS
 10
-78.900000001563114
 20
27.26352730541549
 30
0.0
 11
-85.000000000480611
 21
33.363527304333012
 31
0.0
1001
GRADIENTCOLOR1ACI
1070
     5
1001
GRADIENTCOLOR2ACI
1070
     2
1001
ACAD
1010
0.0
1020
0.0
1030
0.0
  0
LINE
  5
1938
  8
SAPA_GLAS
 10
-78.90000000149405
 20
28.386059320480069
 30
0.0
 11
-85.000000000480625
 21
34.486059319466648
 31
0.0
1001
GRADIENTCOLOR1ACI
1070
     5
1001
GRADIENTCOLOR2ACI
1070
     2
1001
ACAD
1010
0.0
1020
0.0
1030
0.0
  0
LINE
  5
1939
  8
SAPA_GLAS
 10
-78.900000001424985
 20
29.508591335544661
 30
0.0
 11
-85.000000000480611
 21
35.608591334600291
 31
0.0
1001
GRADIENTCOLOR1ACI
1070
     5
1001
GRADIENTCOLOR2ACI
1070
     2
1001
ACAD
1010
0.0
1020
0.0
1030
0.0
  0
LINE
  5
193A
  8
SAPA_GLAS
 10
-78.900000001355949
 20
30.631123350609261
 30
0.0
 11
-84.978000524301393
 21
36.709123873554702
 31
0.0
1001
GRADIENTCOLOR1ACI
1070
     5
1001
GRADIENTCOLOR2ACI
1070
     2
1001
ACAD
1010
0.0
1020
0.0
1030
0.0
  0
LINE
  5
193B
  8
SAPA_GLAS
 10
-78.900000001286898
 20
31.753655365673861
 30
0.0
 11
-83.404638672388998
 21
36.258294036775958
 31
0.0
1001
GRADIENTCOLOR1ACI
1070
     5
1001
GRADIENTCOLOR2ACI
1070
     2
1001
ACAD
1010
0.0
1020
0.0
1030
0.0
  0
LINE
  5
193C
  8
SAPA_GLAS
 10
-78.900000001217833
 20
32.876187380738443
 30
0.0
 11
-82.151989562931973
 21
36.128176942452583
 31
0.0
1001
GRADIENTCOLOR1ACI
1070
     5
1001
GRADIENTCOLOR2ACI
1070
     2
1001
ACAD
1010
0.0
1020
0.0
1030
0.0
  0
LINE
  5
193D
  8
SAPA_GLAS
 10
-78.900000001148797
 20
33.998719395803043
 30
0.0
 11
-81.070939332733914
 21
36.169658727388168
 31
0.0
1001
GRADIENTCOLOR1ACI
1070
     5
1001
GRADIENTCOLOR2ACI
1070
     2
1001
ACAD
1010
0.0
1020
0.0
1030
0.0
  0
LINE
  5
193E
  8
SAPA_GLAS
 10
-78.900000001079746
 20
35.121251410867643
 30
0.0
 11
-80.107002006827713
 21
36.328253416615603
 31
0.0
1001
GRADIENTCOLOR1ACI
1070
     5
1001
GRADIENTCOLOR2ACI
1070
     2
1001
ACAD
1010
0.0
1020
0.0
1030
0.0
  0
LINE
  5
193F
  8
SAPA_GLAS
 10
-78.900000001010696
 20
36.243783425932229
 30
0.0
 11
-79.23316508769355
 21
36.57694851261509
 31
0.0
1001
GRADIENTCOLOR1ACI
1070
     5
1001
GRADIENTCOLOR2ACI
1070
     2
1001
ACAD
1010
0.0
1020
0.0
1030
0.0
  0
LINE
  5
1940
  8
SAPA_GLAS
 10
-50.910857607580233
 20
54.271211129458933
 30
0.0
 11
-50.910857607580233
 21
13.000000747072781
 31
0.0
  0
LINE
  5
1941
  8
SAPA_GLAS
 10
-50.910857607580233
 20
13.000000747072781
 30
0.0
 11
-42.910857607580219
 21
13.000000747072781
 31
0.0
  0
LINE
  5
1942
  8
SAPA_GLAS
 10
-42.910857607580219
 20
13.000000747072781
 30
0.0
 11
-42.910857607580219
 21
54.271211129458933
 31
0.0
  0
LINE
  5
1963
  8
SAPA_GLAS
 10
-91.000000000480597
 20
52.271211129458919
 30
0.0
 11
-91.000000000480597
 21
11.000000747072781
 31
0.0
  0
LINE
  5
1964
  8
SAPA_GLAS
 10
-91.000000000480597
 20
11.000000747072781
 30
0.0
 11
-85.000000000480611
 21
11.000000747072781
 31
0.0
  0
LINE
  5
1965
  8
SAPA_GLAS
 10
-85.000000000480611
 20
11.000000747072781
 30
0.0
 11
-85.000000000480611
 21
52.271211129458919
 31
0.0
  0
POLYLINE
  5
1C45
  8
SAPA_PROFIL
  6
CONTINUOUS
 62
     7
 66
     1
 10
0.0
 20
0.0
 30
0.0
 70
     1
  0
VERTEX
  5
2181
  8
SAPA_PROFIL
  6
CONTINUOUS
 62
     7
 10
-74.000000000957144
 20
-16.499999252921981
 30
0.0
  0
VERTEX
  5
2182
  8
SAPA_PROFIL
  6
CONTINUOUS
 62
     7
 10
-77.000000000003354
 20
-16.499999252921981
 30
0.0
 42
-0.4142135623732074
  0
VERTEX
  5
2183
  8
SAPA_PROFIL
  6
CONTINUOUS
 62
     7
 10
-77.500000000003368
 20
-15.99999925292178
 30
0.0
  0
VERTEX
  5
2184
  8
SAPA_PROFIL
  6
CONTINUOUS
 62
     7
 10
-77.499999999999545
 20
-7.3999992529216883
 30
0.0
 42
0.4142135623730951
  0
VERTEX
  5
2185
  8
SAPA_PROFIL
  6
CONTINUOUS
 62
     7
 10
-77.999999999999545
 20
-6.8999992529216883
 30
0.0
  0
VERTEX
  5
2186
  8
SAPA_PROFIL
  6
CONTINUOUS
 62
     7
 10
-80.300000000000196
 20
-6.8999992529216883
 30
0.0
 42
-0.4142135623730951
  0
VERTEX
  5
2187
  8
SAPA_PROFIL
  6
CONTINUOUS
 62
     7
 10
-81.300000000000225
 20
-5.8999992529216883
 30
0.0
  0
VERTEX
  5
2188
  8
SAPA_PROFIL
  6
CONTINUOUS
 62
     7
 10
-81.300000000000225
 20
-5.087368994746285
 30
0.0
 42
-0.2216946626429368
  0
VERTEX
  5
2189
  8
SAPA_PROFIL
  6
CONTINUOUS
 62
     7
 10
-81.192836282906171
 20
-4.8575556618105926
 30
0.0
  0
VERTEX
  5
218A
  8
SAPA_PROFIL
  6
CONTINUOUS
 62
     7
 10
-80.492836282905628
 20
-4.2701859199860399
 30
0.0
 42
-0.6370702608061857
  0
VERTEX
  5
218B
  8
SAPA_PROFIL
  6
CONTINUOUS
 62
     7
 10
-80.000000000000014
 20
-4.4999992529219801
 30
0.0
  0
VERTEX
  5
218C
  8
SAPA_PROFIL
  6
CONTINUOUS
 62
     7
 10
-80.000000000000014
 20
-5.2999992529221771
 30
0.0
 42
0.4142135623730951
  0
VERTEX
  5
218D
  8
SAPA_PROFIL
  6
CONTINUOUS
 62
     7
 10
-79.699999999999804
 20
-5.5999992529223732
 30
0.0
  0
VERTEX
  5
218E
  8
SAPA_PROFIL
  6
CONTINUOUS
 62
     7
 10
-75.299999999999272
 20
-5.5999992529214326
 30
0.0
 42
0.4142135623730504
  0
VERTEX
  5
218F
  8
SAPA_PROFIL
  6
CONTINUOUS
 62
     7
 10
-74.999999999999545
 20
-5.29999925292128
 30
0.0
  0
VERTEX
  5
2190
  8
SAPA_PROFIL
  6
CONTINUOUS
 62
     7
 10
-74.999999999999559
 20
5.3000007470781654
 30
0.0
 42
0.4142135623730878
  0
VERTEX
  5
2191
  8
SAPA_PROFIL
  6
CONTINUOUS
 62
     7
 10
-75.299999999999258
 20
5.6000007470783402
 30
0.0
  0
VERTEX
  5
2192
  8
SAPA_PROFIL
  6
CONTINUOUS
 62
     7
 10
-79.699999999999804
 20
5.6000007470782691
 30
0.0
 42
0.4142135623735842
  0
VERTEX
  5
2193
  8
SAPA_PROFIL
  6
CONTINUOUS
 62
     7
 10
-79.999999999999517
 20
5.3000007470790669
 30
0.0
  0
VERTEX
  5
2194
  8
SAPA_PROFIL
  6
CONTINUOUS
 62
     7
 10
-80.000000000000014
 20
4.5000007470770811
 30
0.0
 42
-0.6370702608069853
  0
VERTEX
  5
2195
  8
SAPA_PROFIL
  6
CONTINUOUS
 62
     7
 10
-80.492836282905628
 20
4.2701874141419927
 30
0.0
  0
VERTEX
  5
2196
  8
SAPA_PROFIL
  6
CONTINUOUS
 62
     7
 10
-81.192836282906171
 20
4.8575571559665534
 30
0.0
 42
-0.2216946626431
  0
VERTEX
  5
2197
  8
SAPA_PROFIL
  6
CONTINUOUS
 62
     7
 10
-81.300000000000225
 20
5.0873704889024358
 30
0.0
  0
VERTEX
  5
2198
  8
SAPA_PROFIL
  6
CONTINUOUS
 62
     7
 10
-81.299999999999713
 20
5.9000007470794307
 30
0.0
 42
-0.4142135623730951
  0
VERTEX
  5
2199
  8
SAPA_PROFIL
  6
CONTINUOUS
 62
     7
 10
-80.299999999999713
 20
6.9000007470794307
 30
0.0
  0
VERTEX
  5
219A
  8
SAPA_PROFIL
  6
CONTINUOUS
 62
     7
 10
-72.799999999999969
 20
6.9000007470785389
 30
0.0
 42
-0.3178372451964626
  0
VERTEX
  5
219B
  8
SAPA_PROFIL
  6
CONTINUOUS
 62
     7
 10
-72.517157287525123
 20
6.7000007470778122
 30
0.0
 42
0.3178372451966722
  0
VERTEX
  5
219C
  8
SAPA_PROFIL
  6
CONTINUOUS
 62
     7
 10
-72.23431457505005
 20
6.5000007470770838
 30
0.0
  0
VERTEX
  5
219D
  8
SAPA_PROFIL
  6
CONTINUOUS
 62
     7
 10
-70.799999999999727
 20
6.500000747077987
 30
0.0
 42
-0.4142135623726539
  0
VERTEX
  5
219E
  8
SAPA_PROFIL
  6
CONTINUOUS
 62
     7
 10
-70.5
 20
6.2000007470778051
 30
0.0
  0
VERTEX
  5
219F
  8
SAPA_PROFIL
  6
CONTINUOUS
 62
     7
 10
-70.500000000000014
 20
5.6000007470772557
 30
0.0
 42
-0.4142135623730836
  0
VERTEX
  5
21A0
  8
SAPA_PROFIL
  6
CONTINUOUS
 62
     7
 10
-70.799999999999727
 20
5.3000007470779913
 30
0.0
  0
VERTEX
  5
21A1
  8
SAPA_PROFIL
  6
CONTINUOUS
 62
     7
 10
-72.199999999999804
 20
5.3000007470779842
 30
0.0
 42
0.4142135623730951
  0
VERTEX
  5
21A2
  8
SAPA_PROFIL
  6
CONTINUOUS
 62
     7
 10
-72.499999999999986
 20
5.0000007470778094
 30
0.0
  0
VERTEX
  5
21A3
  8
SAPA_PROFIL
  6
CONTINUOUS
 62
     7
 10
-72.499999999999986
 20
-4.999999252922775
 30
0.0
 42
0.4142135623730743
  0
VERTEX
  5
21A4
  8
SAPA_PROFIL
  6
CONTINUOUS
 62
     7
 10
-72.199999999999804
 20
-5.2999992529219826
 30
0.0
  0
VERTEX
  5
21A5
  8
SAPA_PROFIL
  6
CONTINUOUS
 62
     7
 10
-70.799999999999727
 20
-5.2999992529228708
 30
0.0
 42
-0.4142135623721762
  0
VERTEX
  5
21A6
  8
SAPA_PROFIL
  6
CONTINUOUS
 62
     7
 10
-70.499999999999957
 20
-5.5999992529221787
 30
0.0
  0
VERTEX
  5
21A7
  8
SAPA_PROFIL
  6
CONTINUOUS
 62
     7
 10
-70.499999999999545
 20
-6.1999992529227921
 30
0.0
 42
-0.4142135623730534
  0
VERTEX
  5
21A8
  8
SAPA_PROFIL
  6
CONTINUOUS
 62
     7
 10
-70.799999999999713
 20
-6.4999992529220068
 30
0.0
  0
VERTEX
  5
21A9
  8
SAPA_PROFIL
  6
CONTINUOUS
 62
     7
 10
-72.234314575050433
 20
-6.4999992529228949
 30
0.0
 42
0.3178372451963242
  0
VERTEX
  5
21AA
  8
SAPA_PROFIL
  6
CONTINUOUS
 62
     7
 10
-72.517157287525123
 20
-6.6999992529218391
 30
0.0
 42
-0.3178372451964607
  0
VERTEX
  5
21AB
  8
SAPA_PROFIL
  6
CONTINUOUS
 62
     7
 10
-72.799999999999955
 20
-6.8999992529225533
 30
0.0
  0
VERTEX
  5
21AC
  8
SAPA_PROFIL
  6
CONTINUOUS
 62
     7
 10
-74.500000000000043
 20
-6.8999992529227727
 30
0.0
 42
0.4142135623730597
  0
VERTEX
  5
21AD
  8
SAPA_PROFIL
  6
CONTINUOUS
 62
     7
 10
-74.999999999999986
 20
-7.3999992529227727
 30
0.0
  0
VERTEX
  5
21AE
  8
SAPA_PROFIL
  6
CONTINUOUS
 62
     7
 10
-74.999999999999986
 20
-12.40192304212998
 30
0.0
 42
0.2679491923306345
  0
VERTEX
  5
21AF
  8
SAPA_PROFIL
  6
CONTINUOUS
 62
     7
 10
-74.750000000156874
 20
-12.83493574391928
 30
0.0
 42
-0.2679491923317589
  0
VERTEX
  5
21B0
  8
SAPA_PROFIL
  6
CONTINUOUS
 62
     7
 10
-73.500000000957129
 20
-14.99999925292197
 30
0.0
  0
VERTEX
  5
21B1
  8
SAPA_PROFIL
  6
CONTINUOUS
 62
     7
 10
-73.500000000957925
 20
-15.999999252921979
 30
0.0
 42
-0.4142135623730951
  0
SEQEND
  5
21B2
  8
SAPA_PROFIL
  6
CONTINUOUS
 62
     7
  0
POLYLINE
  5
1C46
  8
SAPA_PROFIL
 62
     4
 66
     1
 10
0.0
 20
0.0
 30
0.0
 70
     1
  0
VERTEX
  5
21B3
  8
SAPA_PROFIL
 62
     4
 10
-64.462221528366854
 20
-22.0267564479587
 30
0.0
 42
-0.3137019356282051
  0
VERTEX
  5
21B4
  8
SAPA_PROFIL
 62
     4
 10
-64.181271744820549
 20
-22.224382073492109
 30
0.0
  0
VERTEX
  5
21B5
  8
SAPA_PROFIL
 62
     4
 10
-63.295794031949349
 20
-24.65721209503614
 30
0.0
 42
0.3152987888779321
  0
VERTEX
  5
21B6
  8
SAPA_PROFIL
 62
     4
 10
-62.919916983632959
 20
-24.920404037705861
 30
0.0
  0
VERTEX
  5
21B7
  8
SAPA_PROFIL
 62
     4
 10
-52.499999998918831
 20
-24.920404037705829
 30
0.0
  0
VERTEX
  5
21B8
  8
SAPA_PROFIL
 62
     4
 10
-42.080083014200738
 20
-24.920404037705769
 30
0.0
 42
0.3152987888779395
  0
VERTEX
  5
21B9
  8
SAPA_PROFIL
 62
     4
 10
-41.70420596588837
 20
-24.657212095036041
 30
0.0
  0
VERTEX
  5
21BA
  8
SAPA_PROFIL
 62
     4
 10
-40.818728253020197
 20
-22.224382073500351
 30
0.0
 42
-0.3138982169096283
  0
VERTEX
  5
21BB
  8
SAPA_PROFIL
 62
     4
 10
-40.537778469506009
 20
-22.02675644796
 30
0.0
 42
-0.0157923906855865
  0
VERTEX
  5
21BC
  8
SAPA_PROFIL
 62
     4
 10
-40.186319937167163
 20
-22.0233533183204
 30
0.0
  0
VERTEX
  5
21BD
  8
SAPA_PROFIL
 62
     4
 10
-39.946136872384869
 20
-21.88468356121388
 30
0.0
 42
-0.5773502691889272
  0
VERTEX
  5
21BE
  8
SAPA_PROFIL
 62
     4
 10
-39.631136872385163
 20
-22.066548896008669
 30
0.0
  0
VERTEX
  5
21BF
  8
SAPA_PROFIL
 62
     4
 10
-39.631136872385042
 20
-22.33366342422158
 30
0.0
  0
VERTEX
  5
21C0
  8
SAPA_PROFIL
 62
     4
 10
-39.29999999891885
 20
-22.529885490005881
 30
0.0
  0
VERTEX
  5
21C1
  8
SAPA_PROFIL
 62
     4
 10
-38.316679860938329
 20
-23.097529653503329
 30
0.0
 42
0.1316524975869703
  0
VERTEX
  5
21C2
  8
SAPA_PROFIL
 62
     4
 10
-38.211679860939512
 20
-23.125664318707891
 30
0.0
  0
VERTEX
  5
21C3
  8
SAPA_PROFIL
 62
     4
 10
-37.89999999891694
 20
-23.125664318708001
 30
0.0
 42
0.4142135623775584
  0
VERTEX
  5
21C4
  8
SAPA_PROFIL
 62
     4
 10
-37.499999998918902
 20
-22.72566431870769
 30
0.0
  0
VERTEX
  5
21C5
  8
SAPA_PROFIL
 62
     4
 10
-37.499999998918838
 20
-19.325664318707929
 30
0.0
 42
0.4142135623773978
  0
VERTEX
  5
21C6
  8
SAPA_PROFIL
 62
     4
 10
-37.899999998918872
 20
-18.925664318707959
 30
0.0
  0
VERTEX
  5
21C7
  8
SAPA_PROFIL
 62
     4
 10
-38.211679860942517
 20
-18.925664318707959
 30
0.0
 42
0.1316524975869708
  0
VERTEX
  5
21C8
  8
SAPA_PROFIL
 62
     4
 10
-38.316679860939473
 20
-18.953798983913199
 30
0.0
  0
VERTEX
  5
21C9
  8
SAPA_PROFIL
 62
     4
 10
-39.29999999891885
 20
-19.521519130275241
 30
0.0
  0
VERTEX
  5
21CA
  8
SAPA_PROFIL
 62
     4
 10
-39.894744110589727
 20
-19.864894803247349
 30
0.0
 42
-0.1316524975869772
  0
VERTEX
  5
21CB
  8
SAPA_PROFIL
 62
     4
 10
-40.494744110593103
 20
-20.025664318707872
 30
0.0
  0
VERTEX
  5
21CC
  8
SAPA_PROFIL
 62
     4
 10
-41.446608443479533
 20
-20.025664318707641
 30
0.0
 42
0.3152987888780149
  0
VERTEX
  5
21CD
  8
SAPA_PROFIL
 62
     4
 10
-42.386301064251029
 20
-20.683644175382032
 30
0.0
  0
VERTEX
  5
21CE
  8
SAPA_PROFIL
 62
     4
 10
-43.177415089160881
 20
-22.85721209503572
 30
0.0
 42
-0.3152987888779391
  0
VERTEX
  5
21CF
  8
SAPA_PROFIL
 62
     4
 10
-43.553292137475403
 20
-23.120404037705839
 30
0.0
  0
VERTEX
  5
21D0
  8
SAPA_PROFIL
 62
     4
 10
-52.499999998918831
 20
-23.120404037705839
 30
0.0
  0
VERTEX
  5
21D1
  8
SAPA_PROFIL
 62
     4
 10
-61.446707860362331
 20
-23.120404037705899
 30
0.0
 42
-0.3152987888779318
  0
VERTEX
  5
21D2
  8
SAPA_PROFIL
 62
     4
 10
-61.822584908675481
 20
-22.857212095039479
 30
0.0
  0
VERTEX
  5
21D3
  8
SAPA_PROFIL
 62
     4
 10
-62.613698933586591
 20
-20.683644175382259
 30
0.0
 42
0.3152987888779361
  0
VERTEX
  5
21D4
  8
SAPA_PROFIL
 62
     4
 10
-63.55339155438719
 20
-20.025664318707928
 30
0.0
  0
VERTEX
  5
21D5
  8
SAPA_PROFIL
 62
     4
 10
-64.505255887244687
 20
-20.025664318707928
 30
0.0
 42
-0.1316524975869766
  0
VERTEX
  5
21D6
  8
SAPA_PROFIL
 62
     4
 10
-65.105255887237888
 20
-19.864894803253211
 30
0.0
  0
VERTEX
  5
21D7
  8
SAPA_PROFIL
 62
     4
 10
-65.692820321946385
 20
-19.525664318707989
 30
0.0
  0
VERTEX
  5
21D8
  8
SAPA_PROFIL
 62
     4
 10
-66.683320136898317
 20
-18.953798983913259
 30
0.0
 42
0.1316524975869832
  0
VERTEX
  5
21D9
  8
SAPA_PROFIL
 62
     4
 10
-66.788320136901405
 20
-18.925664318708019
 30
0.0
  0
VERTEX
  5
21DA
  8
SAPA_PROFIL
 62
     4
 10
-67.099999998918904
 20
-18.925664318707959
 30
0.0
 42
0.414213562371655
  0
VERTEX
  5
21DB
  8
SAPA_PROFIL
 62
     4
 10
-67.499999998918895
 20
-19.325664318711919
 30
0.0
  0
VERTEX
  5
21DC
  8
SAPA_PROFIL
 62
     4
 10
-67.499999998918895
 20
-22.725664318707981
 30
0.0
 42
0.4142135623716633
  0
VERTEX
  5
21DD
  8
SAPA_PROFIL
 62
     4
 10
-67.099999998916871
 20
-23.125664318707951
 30
0.0
  0
VERTEX
  5
21DE
  8
SAPA_PROFIL
 62
     4
 10
-66.788320136898221
 20
-23.125664318707951
 30
0.0
 42
0.1316524975869709
  0
VERTEX
  5
21DF
  8
SAPA_PROFIL
 62
     4
 10
-66.683320136897635
 20
-23.09752965350237
 30
0.0
  0
VERTEX
  5
21E0
  8
SAPA_PROFIL
 62
     4
 10
-65.368863125452634
 20
-22.333663424221591
 30
0.0
  0
VERTEX
  5
21E1
  8
SAPA_PROFIL
 62
     4
 10
-65.368863125452521
 20
-22.066548896008669
 30
0.0
 42
-0.5773502691889269
  0
VERTEX
  5
21E2
  8
SAPA_PROFIL
 62
     4
 10
-65.053863125452807
 20
-21.88468356121388
 30
0.0
  0
VERTEX
  5
21E3
  8
SAPA_PROFIL
 62
     4
 10
-64.813680060670507
 20
-22.02335331832041
 30
0.0
 42
-0.015792390685586
  0
SEQEND
  5
21E4
  8
SAPA_PROFIL
 62
     4
  0
POLYLINE
  5
1C47
  8
SAPA_PROFIL
 66
     1
 10
0.0
 20
0.0
 30
0.0
 70
     1
  0
VERTEX
  5
21E5
  8
SAPA_PROFIL
 10
-37.499999998918867
 20
-22.952057520989069
 30
0.0
 42
0.2134217652834366
  0
VERTEX
  5
21E6
  8
SAPA_PROFIL
 10
-37.39999999891868
 20
-23.17566431873918
 30
0.0
 42
-0.7625858545243175
  0
VERTEX
  5
21E7
  8
SAPA_PROFIL
 10
-37.584579201116171
 20
-23.505990399756179
 30
0.0
  0
VERTEX
  5
21E8
  8
SAPA_PROFIL
 10
-37.775962201109877
 20
-23.44791676276709
 30
0.0
  0
VERTEX
  5
21E9
  8
SAPA_PROFIL
 10
-39.661805892970939
 20
-22.36335231579535
 30
0.0
  0
VERTEX
  5
21EA
  8
SAPA_PROFIL
 10
-39.651244526743973
 20
-22.041594587577109
 30
0.0
 42
0.5773502691897529
  0
VERTEX
  5
21EB
  8
SAPA_PROFIL
 10
-39.945400826998799
 20
-21.85864084746693
 30
0.0
  0
VERTEX
  5
21EC
  8
SAPA_PROFIL
 10
-40.230083110230488
 20
-22.010774758575689
 30
0.0
 42
0.2216946626430025
  0
VERTEX
  5
21ED
  8
SAPA_PROFIL
 10
-40.635892015385231
 20
-22.551654590052468
 30
0.0
  0
VERTEX
  5
21EE
  8
SAPA_PROFIL
 10
-41.01733861151294
 20
-24.36488506071073
 30
0.0
 42
0.4769755326981438
  0
VERTEX
  5
21EF
  8
SAPA_PROFIL
 10
-40.715085787006473
 20
-24.7365419356566
 30
0.0
  0
VERTEX
  5
21F0
  8
SAPA_PROFIL
 10
-39.211984706244472
 20
-24.736458327772951
 30
0.0
  0
VERTEX
  5
21F1
  8
SAPA_PROFIL
 10
-39.197466296997369
 20
-24.68861257777446
 30
0.0
 42
-0.4142135623731001
  0
VERTEX
  5
21F2
  8
SAPA_PROFIL
 10
-38.823281341521557
 20
-24.488648533267071
 30
0.0
  0
VERTEX
  5
21F3
  8
SAPA_PROFIL
 10
-37.500280500000287
 20
-24.999999252924521
 30
0.0
  0
VERTEX
  5
21F4
  8
SAPA_PROFIL
 10
-35.800000000001809
 20
-24.999999252924521
 30
0.0
 42
0.4142135623730951
  0
VERTEX
  5
21F5
  8
SAPA_PROFIL
 10
-35.500000000001847
 20
-24.699999252924339
 30
0.0
  0
VERTEX
  5
21F6
  8
SAPA_PROFIL
 10
-35.500000000001741
 20
-21.699999252923661
 30
0.0
 42
-0.4142135623730951
  0
VERTEX
  5
21F7
  8
SAPA_PROFIL
 10
-35.200000000001793
 20
-21.399999252923699
 30
0.0
  0
VERTEX
  5
21F8
  8
SAPA_PROFIL
 10
-34.80000000000198
 20
-21.399999252923699
 30
0.0
 42
0.4142135623731506
  0
VERTEX
  5
21F9
  8
SAPA_PROFIL
 10
-34.500000000001968
 20
-21.099999252923741
 30
0.0
  0
VERTEX
  5
21FA
  8
SAPA_PROFIL
 10
-34.500000000002082
 20
-19.699999252923991
 30
0.0
 42
0.4142135623731505
  0
VERTEX
  5
21FB
  8
SAPA_PROFIL
 10
-34.8000000000021
 20
-19.39999925292404
 30
0.0
  0
VERTEX
  5
21FC
  8
SAPA_PROFIL
 10
-35.200000000001843
 20
-19.39999925292404
 30
0.0
 42
-0.4142135623731506
  0
VERTEX
  5
21FD
  8
SAPA_PROFIL
 10
-35.500000000001847
 20
-19.099999252924079
 30
0.0
  0
VERTEX
  5
21FE
  8
SAPA_PROFIL
 10
-35.500000000001862
 20
-10.89999925291767
 30
0.0
 42
-0.4142135623731506
  0
VERTEX
  5
21FF
  8
SAPA_PROFIL
 10
-35.20000000000185
 20
-10.599999252917719
 30
0.0
  0
VERTEX
  5
2200
  8
SAPA_PROFIL
 10
-34.800000000002051
 20
-10.599999252917661
 30
0.0
 42
0.4142135623730951
  0
VERTEX
  5
2201
  8
SAPA_PROFIL
 10
-34.500000000002039
 20
-10.299999252917759
 30
0.0
  0
VERTEX
  5
2202
  8
SAPA_PROFIL
 10
-34.500000000001862
 20
-8.8999992529180147
 30
0.0
 42
0.4142135623731505
  0
VERTEX
  5
2203
  8
SAPA_PROFIL
 10
-34.800000000001873
 20
-8.5999992529180602
 30
0.0
  0
VERTEX
  5
2204
  8
SAPA_PROFIL
 10
-35.200000000001793
 20
-8.5999992529180034
 30
0.0
 42
-0.4142135623730951
  0
VERTEX
  5
2205
  8
SAPA_PROFIL
 10
-35.500000000001812
 20
-8.2999992529181057
 30
0.0
  0
VERTEX
  5
2206
  8
SAPA_PROFIL
 10
-35.500000000001918
 20
-5.2999992529173658
 30
0.0
 42
0.4142135623743715
  0
VERTEX
  5
2207
  8
SAPA_PROFIL
 10
-35.800000000001823
 20
-4.9999992529171839
 30
0.0
  0
VERTEX
  5
2208
  8
SAPA_PROFIL
 10
-37.500280500035089
 20
-4.9999992529171884
 30
0.0
  0
VERTEX
  5
2209
  8
SAPA_PROFIL
 10
-38.823281341521572
 20
-5.511349972561117
 30
0.0
 42
-0.4142135623730744
  0
VERTEX
  5
220A
  8
SAPA_PROFIL
 10
-39.197466296997369
 20
-5.3113859280537197
 30
0.0
  0
VERTEX
  5
220B
  8
SAPA_PROFIL
 10
-39.211984706244479
 20
-5.2635401780552327
 30
0.0
  0
VERTEX
  5
220C
  8
SAPA_PROFIL
 10
-40.71508578700648
 20
-5.2634565701715799
 30
0.0
 42
0.4769755326981443
  0
VERTEX
  5
220D
  8
SAPA_PROFIL
 10
-41.017338611512947
 20
-5.63511344511745
 30
0.0
  0
VERTEX
  5
220E
  8
SAPA_PROFIL
 10
-40.635892015385288
 20
-7.4483439157757054
 30
0.0
 42
0.2216946626430325
  0
VERTEX
  5
220F
  8
SAPA_PROFIL
 10
-40.230083110230431
 20
-7.989223747252491
 30
0.0
  0
VERTEX
  5
2210
  8
SAPA_PROFIL
 10
-39.945400826998807
 20
-8.1413576583612546
 30
0.0
 42
0.5773502691897529
  0
VERTEX
  5
2211
  8
SAPA_PROFIL
 10
-39.65124452674398
 20
-7.9584039182510748
 30
0.0
  0
VERTEX
  5
2212
  8
SAPA_PROFIL
 10
-39.661805892970953
 20
-7.6366461900328311
 30
0.0
  0
VERTEX
  5
2213
  8
SAPA_PROFIL
 10
-37.775962201109891
 20
-6.5520817430610911
 30
0.0
  0
VERTEX
  5
2214
  8
SAPA_PROFIL
 10
-37.584579201116171
 20
-6.4940081060721111
 30
0.0
 42
-0.7625858545243173
  0
VERTEX
  5
2215
  8
SAPA_PROFIL
 10
-37.399999998918751
 20
-6.8243341870890042
 30
0.0
 42
0.2134217652834366
  0
VERTEX
  5
2216
  8
SAPA_PROFIL
 10
-37.499999998918881
 20
-7.0479409848391121
 30
0.0
  0
VERTEX
  5
2217
  8
SAPA_PROFIL
 10
-37.499999998918881
 20
-10.900727389415129
 30
0.0
 42
-0.4142135623730951
  0
VERTEX
  5
2218
  8
SAPA_PROFIL
 10
-37.799999998918842
 20
-11.200727389415089
 30
0.0
  0
VERTEX
  5
2219
  8
SAPA_PROFIL
 10
-38.099999998919252
 20
-11.200727389415089
 30
0.0
  0
VERTEX
  5
221A
  8
SAPA_PROFIL
 10
-39.699999998918699
 20
-10.27696695871146
 30
0.0
 42
0.577350269189529
  0
VERTEX
  5
221B
  8
SAPA_PROFIL
 10
-39.999999998918881
 20
-10.45017203946851
 30
0.0
  0
VERTEX
  5
221C
  8
SAPA_PROFIL
 10
-39.999999998918867
 20
-19.549826466373201
 30
0.0
 42
0.577350269189529
  0
VERTEX
  5
221D
  8
SAPA_PROFIL
 10
-39.699999998918692
 20
-19.72303154713024
 30
0.0
  0
VERTEX
  5
221E
  8
SAPA_PROFIL
 10
-38.099999998919237
 20
-18.79927111642662
 30
0.0
  0
VERTEX
  5
221F
  8
SAPA_PROFIL
 10
-37.799999998918828
 20
-18.79927111642661
 30
0.0
 42
-0.4142135623730951
  0
VERTEX
  5
2220
  8
SAPA_PROFIL
 10
-37.499999998918867
 20
-19.099271116426571
 30
0.0
  0
SEQEND
  5
2221
  8
SAPA_PROFIL
  0
POLYLINE
  5
1C48
  8
SAPA_PROFIL
  6
CONTINUOUS
 62
     7
 66
     1
 10
0.0
 20
0.0
 30
0.0
 70
     1
  0
VERTEX
  5
2222
  8
SAPA_PROFIL
  6
CONTINUOUS
 62
     7
 10
-87.300003047092844
 20
-22.99999925295927
 30
0.0
  0
VERTEX
  5
2223
  8
SAPA_PROFIL
  6
CONTINUOUS
 62
     7
 10
-87.300003047092844
 20
-21.34999925296691
 30
0.0
 42
-0.4142135623729003
  0
VERTEX
  5
2224
  8
SAPA_PROFIL
  6
CONTINUOUS
 62
     7
 10
-87.000003047092889
 20
-21.049999252966732
 30
0.0
  0
VERTEX
  5
2225
  8
SAPA_PROFIL
  6
CONTINUOUS
 62
     7
 10
-85.400000001070865
 20
-21.049999252966732
 30
0.0
 42
0.1806877882261281
  0
VERTEX
  5
2226
  8
SAPA_PROFIL
  6
CONTINUOUS
 62
     7
 10
-83.400283406662723
 20
-20.302961159049062
 30
0.0
 42
0.9538213995949648
  0
VERTEX
  5
2227
  8
SAPA_PROFIL
  6
CONTINUOUS
 62
     7
 10
-84.328106923347434
 20
-19.126474181824079
 30
0.0
  0
VERTEX
  5
2228
  8
SAPA_PROFIL
  6
CONTINUOUS
 62
     7
 10
-84.585303985957879
 20
-19.057558436602481
 30
0.0
 42
0.4142135623719595
  0
VERTEX
  5
2229
  8
SAPA_PROFIL
  6
CONTINUOUS
 62
     7
 10
-84.891481088747057
 20
-19.234329869317691
 30
0.0
  0
VERTEX
  5
222A
  8
SAPA_PROFIL
  6
CONTINUOUS
 62
     7
 10
-84.958891075394575
 20
-19.48590736442209
 30
0.0
 42
-0.4299878773908156
  0
VERTEX
  5
222B
  8
SAPA_PROFIL
  6
CONTINUOUS
 62
     7
 10
-86.907390018256649
 20
-18.360936001005062
 30
0.0
  0
VERTEX
  5
222C
  8
SAPA_PROFIL
  6
CONTINUOUS
 62
     7
 10
-86.723221125915671
 20
-18.176767108663618
 30
0.0
 42
0.4142135623718706
  0
VERTEX
  5
222D
  8
SAPA_PROFIL
  6
CONTINUOUS
 62
     7
 10
-86.723221125915714
 20
-17.823224243233231
 30
0.0
  0
VERTEX
  5
222E
  8
SAPA_PROFIL
  6
CONTINUOUS
 62
     7
 10
-86.907388636179277
 20
-17.639056732968552
 30
0.0
 42
-0.429987877699598
  0
VERTEX
  5
222F
  8
SAPA_PROFIL
  6
CONTINUOUS
 62
     7
 10
-84.958885384142661
 20
-16.514092831036599
 30
0.0
  0
VERTEX
  5
2230
  8
SAPA_PROFIL
  6
CONTINUOUS
 62
     7
 10
-84.891474890507965
 20
-16.76567221824271
 30
0.0
 42
0.4142135623733942
  0
VERTEX
  5
2231
  8
SAPA_PROFIL
  6
CONTINUOUS
 62
     7
 10
-84.585297787718744
 20
-16.94244365095804
 30
0.0
  0
VERTEX
  5
2232
  8
SAPA_PROFIL
  6
CONTINUOUS
 62
     7
 10
-84.328101588455098
 20
-16.873528137070149
 30
0.0
 42
0.9538172250823233
  0
VERTEX
  5
2233
  8
SAPA_PROFIL
  6
CONTINUOUS
 62
     7
 10
-83.400283406534726
 20
-15.69703734673851
 30
0.0
 42
0.1806877881352354
  0
VERTEX
  5
2234
  8
SAPA_PROFIL
  6
CONTINUOUS
 62
     7
 10
-85.40000000107085
 20
-14.94999925296727
 30
0.0
  0
VERTEX
  5
2235
  8
SAPA_PROFIL
  6
CONTINUOUS
 62
     7
 10
-87.300000003219836
 20
-14.94999925296727
 30
0.0
 42
-0.4142135623728949
  0
VERTEX
  5
2236
  8
SAPA_PROFIL
  6
CONTINUOUS
 62
     7
 10
-87.600000003220714
 20
-14.649999252966181
 30
0.0
  0
VERTEX
  5
2237
  8
SAPA_PROFIL
  6
CONTINUOUS
 62
     7
 10
-87.600000003219805
 20
-12.999999252969181
 30
0.0
 42
-0.4142135623747599
  0
VERTEX
  5
2238
  8
SAPA_PROFIL
  6
CONTINUOUS
 62
     7
 10
-87.300000003218699
 20
-12.699999252969089
 30
0.0
  0
VERTEX
  5
2239
  8
SAPA_PROFIL
  6
CONTINUOUS
 62
     7
 10
-82.599999998920154
 20
-12.699999252980319
 30
0.0
 42
0.414213562374087
  0
VERTEX
  5
223A
  8
SAPA_PROFIL
  6
CONTINUOUS
 62
     7
 10
-82.299999998920214
 20
-12.39999925298013
 30
0.0
  0
VERTEX
  5
223B
  8
SAPA_PROFIL
  6
CONTINUOUS
 62
     7
 10
-82.299999998919077
 20
-11.29999925294876
 30
0.0
 42
0.4142135623632305
  0
VERTEX
  5
223C
  8
SAPA_PROFIL
  6
CONTINUOUS
 62
     7
 10
-82.599999998918165
 20
-10.999999252955559
 30
0.0
  0
VERTEX
  5
223D
  8
SAPA_PROFIL
  6
CONTINUOUS
 62
     7
 10
-92.700000003219714
 20
-10.99999925293835
 30
0.0
 42
0.4142135623563092
  0
VERTEX
  5
223E
  8
SAPA_PROFIL
  6
CONTINUOUS
 62
     7
 10
-93.000000003220805
 20
-11.29999925293853
 30
0.0
  0
VERTEX
  5
223F
  8
SAPA_PROFIL
  6
CONTINUOUS
 62
     7
 10
-93.000000003221714
 20
-19.199999252937172
 30
0.0
 42
0.414213562392466
  0
VERTEX
  5
2240
  8
SAPA_PROFIL
  6
CONTINUOUS
 62
     7
 10
-92.70000000322085
 20
-19.499999252938348
 30
0.0
  0
VERTEX
  5
2241
  8
SAPA_PROFIL
  6
CONTINUOUS
 62
     7
 10
-91.600000003220714
 20
-19.49999925295927
 30
0.0
 42
0.4142135623952085
  0
VERTEX
  5
2242
  8
SAPA_PROFIL
  6
CONTINUOUS
 62
     7
 10
-91.300000003220745
 20
-19.199999252937261
 30
0.0
  0
VERTEX
  5
2243
  8
SAPA_PROFIL
  6
CONTINUOUS
 62
     7
 10
-91.300000003219836
 20
-13.69999925296182
 30
0.0
 42
-0.9999999999999998
  0
VERTEX
  5
2244
  8
SAPA_PROFIL
  6
CONTINUOUS
 62
     7
 10
-89.30000000321985
 20
-13.69999925296182
 30
0.0
  0
VERTEX
  5
2245
  8
SAPA_PROFIL
  6
CONTINUOUS
 62
     7
 10
-89.30000000321985
 20
-15.605409616297971
 30
0.0
 42
0.1539147210606419
  0
VERTEX
  5
2246
  8
SAPA_PROFIL
  6
CONTINUOUS
 62
     7
 10
-89.245745616505758
 20
-15.777482547204301
 30
0.0
  0
VERTEX
  5
2247
  8
SAPA_PROFIL
  6
CONTINUOUS
 62
     7
 10
-88.354254389933772
 20
-17.050663965462221
 30
0.0
 42
-0.1539147210594121
  0
VERTEX
  5
2248
  8
SAPA_PROFIL
  6
CONTINUOUS
 62
     7
 10
-88.300000003220305
 20
-17.22273689636679
 30
0.0
  0
VERTEX
  5
2249
  8
SAPA_PROFIL
  6
CONTINUOUS
 62
     7
 10
-88.300000003219864
 20
-19.989340879446932
 30
0.0
 42
-0.1872522264746358
  0
VERTEX
  5
224A
  8
SAPA_PROFIL
  6
CONTINUOUS
 62
     7
 10
-88.378547314063383
 20
-20.191723453957849
 30
0.0
  0
VERTEX
  5
224B
  8
SAPA_PROFIL
  6
CONTINUOUS
 62
     7
 10
-89.221452692375919
 20
-21.114054159475099
 30
0.0
 42
0.1872522264746339
  0
VERTEX
  5
224C
  8
SAPA_PROFIL
  6
CONTINUOUS
 62
     7
 10
-89.30000000321985
 20
-21.316436733985061
 30
0.0
  0
VERTEX
  5
224D
  8
SAPA_PROFIL
  6
CONTINUOUS
 62
     7
 10
-89.30000000321985
 20
-24.699999252937349
 30
0.0
 42
0.4142135623952092
  0
VERTEX
  5
224E
  8
SAPA_PROFIL
  6
CONTINUOUS
 62
     7
 10
-89.000000003219967
 20
-24.99999925295711
 30
0.0
  0
VERTEX
  5
224F
  8
SAPA_PROFIL
  6
CONTINUOUS
 62
     7
 10
-86.08038780482218
 20
-24.999999252957132
 30
0.0
 42
0.131652497587394
  0
VERTEX
  5
2250
  8
SAPA_PROFIL
  6
CONTINUOUS
 62
     7
 10
-85.930387804822189
 20
-24.95980687409245
 30
0.0
  0
VERTEX
  5
2251
  8
SAPA_PROFIL
  6
CONTINUOUS
 62
     7
 10
-85.550003047092858
 20
-24.740191631821791
 30
0.0
 42
-0.2679491924311264
  0
VERTEX
  5
2252
  8
SAPA_PROFIL
  6
CONTINUOUS
 62
     7
 10
-85.250003047092846
 20
-24.740191631821801
 30
0.0
  0
VERTEX
  5
2253
  8
SAPA_PROFIL
  6
CONTINUOUS
 62
     7
 10
-84.869618289367963
 20
-24.95980687408991
 30
0.0
 42
0.1316524975876173
  0
VERTEX
  5
2254
  8
SAPA_PROFIL
  6
CONTINUOUS
 62
     7
 10
-84.719618289367716
 20
-24.99999925295457
 30
0.0
  0
VERTEX
  5
2255
  8
SAPA_PROFIL
  6
CONTINUOUS
 62
     7
 10
-67.499719497750803
 20
-24.99999925293924
 30
0.0
  0
VERTEX
  5
2256
  8
SAPA_PROFIL
  6
CONTINUOUS
 62
     7
 10
-66.176718656316211
 20
-24.488648533315359
 30
0.0
 42
-0.4142135623730732
  0
VERTEX
  5
2257
  8
SAPA_PROFIL
  6
CONTINUOUS
 62
     7
 10
-65.802533700840399
 20
-24.688612577822759
 30
0.0
  0
VERTEX
  5
2258
  8
SAPA_PROFIL
  6
CONTINUOUS
 62
     7
 10
-65.788015291593297
 20
-24.73645832782125
 30
0.0
  0
VERTEX
  5
2259
  8
SAPA_PROFIL
  6
CONTINUOUS
 62
     7
 10
-64.284914210831289
 20
-24.736541935704899
 30
0.0
 42
0.4769755326981473
  0
VERTEX
  5
225A
  8
SAPA_PROFIL
  6
CONTINUOUS
 62
     7
 10
-63.982661386324821
 20
-24.364885060759029
 30
0.0
  0
VERTEX
  5
225B
  8
SAPA_PROFIL
  6
CONTINUOUS
 62
     7
 10
-64.364107982452481
 20
-22.551654590100771
 30
0.0
 42
0.2216946626430328
  0
VERTEX
  5
225C
  8
SAPA_PROFIL
  6
CONTINUOUS
 62
     7
 10
-64.769916887607323
 20
-22.010774758623992
 30
0.0
  0
VERTEX
  5
225D
  8
SAPA_PROFIL
  6
CONTINUOUS
 62
     7
 10
-65.054599170838955
 20
-21.858640847515229
 30
0.0
 42
0.5773502691897292
  0
VERTEX
  5
225E
  8
SAPA_PROFIL
  6
CONTINUOUS
 62
     7
 10
-65.348755471093796
 20
-22.041594587625411
 30
0.0
  0
VERTEX
  5
225F
  8
SAPA_PROFIL
  6
CONTINUOUS
 62
     7
 10
-65.33819410486683
 20
-22.363352315843649
 30
0.0
  0
VERTEX
  5
2260
  8
SAPA_PROFIL
  6
CONTINUOUS
 62
     7
 10
-67.224037796727885
 20
-23.447916762815389
 30
0.0
  0
VERTEX
  5
2261
  8
SAPA_PROFIL
  6
CONTINUOUS
 62
     7
 10
-67.415420796721605
 20
-23.505990399804372
 30
0.0
 42
-0.7625858545243111
  0
VERTEX
  5
2262
  8
SAPA_PROFIL
  6
CONTINUOUS
 62
     7
 10
-67.599999998919031
 20
-23.175664318787479
 30
0.0
 42
0.2134217652834384
  0
VERTEX
  5
2263
  8
SAPA_PROFIL
  6
CONTINUOUS
 62
     7
 10
-67.499999998918895
 20
-22.952057521001759
 30
0.0
  0
VERTEX
  5
2264
  8
SAPA_PROFIL
  6
CONTINUOUS
 62
     7
 10
-67.499999998918895
 20
-19.099271116418109
 30
0.0
 42
-0.4142135623719642
  0
VERTEX
  5
2265
  8
SAPA_PROFIL
  6
CONTINUOUS
 62
     7
 10
-67.199999998918955
 20
-18.799271116417021
 30
0.0
  0
VERTEX
  5
2266
  8
SAPA_PROFIL
  6
CONTINUOUS
 62
     7
 10
-66.899999998918759
 20
-18.79927111641793
 30
0.0
  0
VERTEX
  5
2267
  8
SAPA_PROFIL
  6
CONTINUOUS
 62
     7
 10
-65.299999998918878
 20
-19.723031547122449
 30
0.0
 42
0.5773502691885648
  0
VERTEX
  5
2268
  8
SAPA_PROFIL
  6
CONTINUOUS
 62
     7
 10
-64.999999998918895
 20
-19.549826466364738
 30
0.0
  0
VERTEX
  5
2269
  8
SAPA_PROFIL
  6
CONTINUOUS
 62
     7
 10
-64.999999998918895
 20
-10.45017203954651
 30
0.0
 42
0.5773502691885171
  0
VERTEX
  5
226A
  8
SAPA_PROFIL
  6
CONTINUOUS
 62
     7
 10
-65.299999998918835
 20
-10.27696695878878
 30
0.0
  0
VERTEX
  5
226B
  8
SAPA_PROFIL
  6
CONTINUOUS
 62
     7
 10
-66.899999998918759
 20
-11.20072738949332
 30
0.0
  0
VERTEX
  5
226C
  8
SAPA_PROFIL
  6
CONTINUOUS
 62
     7
 10
-67.199999998918955
 20
-11.20072738949332
 30
0.0
 42
-0.4142135623719644
  0
VERTEX
  5
226D
  8
SAPA_PROFIL
  6
CONTINUOUS
 62
     7
 10
-67.499999998917986
 20
-10.900727389493129
 30
0.0
  0
VERTEX
  5
226E
  8
SAPA_PROFIL
  6
CONTINUOUS
 62
     7
 10
-67.499999998918895
 20
-7.0479409848874113
 30
0.0
 42
0.2134217652834359
  0
VERTEX
  5
226F
  8
SAPA_PROFIL
  6
CONTINUOUS
 62
     7
 10
-67.599999998919088
 20
-6.8243341871373033
 30
0.0
 42
-0.7625858545243172
  0
VERTEX
  5
2270
  8
SAPA_PROFIL
  6
CONTINUOUS
 62
     7
 10
-67.415420796721605
 20
-6.4940081061202974
 30
0.0
  0
VERTEX
  5
2271
  8
SAPA_PROFIL
  6
CONTINUOUS
 62
     7
 10
-67.224037796727885
 20
-6.5520817431093903
 30
0.0
  0
VERTEX
  5
2272
  8
SAPA_PROFIL
  6
CONTINUOUS
 62
     7
 10
-65.33819410486683
 20
-7.6366461900811302
 30
0.0
  0
VERTEX
  5
2273
  8
SAPA_PROFIL
  6
CONTINUOUS
 62
     7
 10
-65.348755471093796
 20
-7.958403918299374
 30
0.0
 42
0.5773502691897293
  0
VERTEX
  5
2274
  8
SAPA_PROFIL
  6
CONTINUOUS
 62
     7
 10
-65.054599170838955
 20
-8.1413576584095537
 30
0.0
  0
VERTEX
  5
2275
  8
SAPA_PROFIL
  6
CONTINUOUS
 62
     7
 10
-64.76991688760728
 20
-7.9892237473007901
 30
0.0
 42
0.2216946626430043
  0
VERTEX
  5
2276
  8
SAPA_PROFIL
  6
CONTINUOUS
 62
     7
 10
-64.364107982452538
 20
-7.4483439158240037
 30
0.0
  0
VERTEX
  5
2277
  8
SAPA_PROFIL
  6
CONTINUOUS
 62
     7
 10
-63.982661386324821
 20
-5.6351134451657501
 30
0.0
 42
0.4769755326981317
  0
VERTEX
  5
2278
  8
SAPA_PROFIL
  6
CONTINUOUS
 62
     7
 10
-64.284914210831289
 20
-5.263456570219879
 30
0.0
  0
VERTEX
  5
2279
  8
SAPA_PROFIL
  6
CONTINUOUS
 62
     7
 10
-65.788015291593297
 20
-5.2635401781035318
 30
0.0
  0
VERTEX
  5
227A
  8
SAPA_PROFIL
  6
CONTINUOUS
 62
     7
 10
-65.802533700840399
 20
-5.3113859281020188
 30
0.0
 42
-0.4142135623730951
  0
VERTEX
  5
227B
  8
SAPA_PROFIL
  6
CONTINUOUS
 62
     7
 10
-66.176718656316211
 20
-5.5113499726094162
 30
0.0
  0
VERTEX
  5
227C
  8
SAPA_PROFIL
  6
CONTINUOUS
 62
     7
 10
-67.499719497766961
 20
-4.9999992529792152
 30
0.0
  0
VERTEX
  5
227D
  8
SAPA_PROFIL
  6
CONTINUOUS
 62
     7
 10
-69.699999998919864
 20
-4.9999992529909854
 30
0.0
 42
0.4142135623531162
  0
VERTEX
  5
227E
  8
SAPA_PROFIL
  6
CONTINUOUS
 62
     7
 10
-69.999999998919108
 20
-5.2999992529706752
 30
0.0
  0
VERTEX
  5
227F
  8
SAPA_PROFIL
  6
CONTINUOUS
 62
     7
 10
-69.999999998919108
 20
-9.9999992529549733
 30
0.0
 42
-0.4142135623737027
  0
VERTEX
  5
2280
  8
SAPA_PROFIL
  6
CONTINUOUS
 62
     7
 10
-70.999999998921183
 20
-10.99999925295497
 30
0.0
  0
VERTEX
  5
2281
  8
SAPA_PROFIL
  6
CONTINUOUS
 62
     7
 10
-73.99999999891844
 20
-10.999999252948751
 30
0.0
 42
0.4142135623737057
  0
VERTEX
  5
2282
  8
SAPA_PROFIL
  6
CONTINUOUS
 62
     7
 10
-74.299999998919063
 20
-11.29999925294876
 30
0.0
  0
VERTEX
  5
2283
  8
SAPA_PROFIL
  6
CONTINUOUS
 62
     7
 10
-74.299999998919063
 20
-12.573437736726611
 30
0.0
 42
0.1962615682814401
  0
VERTEX
  5
2284
  8
SAPA_PROFIL
  6
CONTINUOUS
 62
     7
 10
-74.214285713204774
 20
-12.78339400039431
 30
0.0
 42
-0.1962615682813938
  0
VERTEX
  5
2285
  8
SAPA_PROFIL
  6
CONTINUOUS
 62
     7
 10
-73.499999998919094
 20
-14.53302953095351
 30
0.0
  0
VERTEX
  5
2286
  8
SAPA_PROFIL
  6
CONTINUOUS
 62
     7
 10
-73.499999998919094
 20
-22.999999252958759
 30
0.0
 42
-0.414213562373709
  0
VERTEX
  5
2287
  8
SAPA_PROFIL
  6
CONTINUOUS
 62
     7
 10
-73.799999998919063
 20
-23.29999925295979
 30
0.0
  0
VERTEX
  5
2288
  8
SAPA_PROFIL
  6
CONTINUOUS
 62
     7
 10
-87.000003047092875
 20
-23.299999252959449
 30
0.0
 42
-0.4142135623728949
  0
SEQEND
  5
2289
  8
SAPA_PROFIL
  6
CONTINUOUS
 62
     7
  0
POLYLINE
  5
1C49
  8
SAPA_PROFIL
 62
     4
 66
     1
 10
0.0
 20
0.0
 30
0.0
 70
     1
  0
VERTEX
  5
228A
  8
SAPA_PROFIL
 62
     4
 10
-64.462221528366854
 20
-7.9732420578830041
 30
0.0
 42
0.3137019356282051
  0
VERTEX
  5
228B
  8
SAPA_PROFIL
 62
     4
 10
-64.181271744820549
 20
-7.775616432349584
 30
0.0
  0
VERTEX
  5
228C
  8
SAPA_PROFIL
 62
     4
 10
-63.295794031949349
 20
-5.342786410805564
 30
0.0
 42
-0.3152987888779321
  0
VERTEX
  5
228D
  8
SAPA_PROFIL
 62
     4
 10
-62.919916983632959
 20
-5.0795944681358431
 30
0.0
  0
VERTEX
  5
228E
  8
SAPA_PROFIL
 62
     4
 10
-52.499999998918831
 20
-5.0795944681358733
 30
0.0
  0
VERTEX
  5
228F
  8
SAPA_PROFIL
 62
     4
 10
-42.080083014200738
 20
-5.0795944681359311
 30
0.0
 42
-0.3152987888779395
  0
VERTEX
  5
2290
  8
SAPA_PROFIL
 62
     4
 10
-41.70420596588837
 20
-5.342786410805652
 30
0.0
  0
VERTEX
  5
2291
  8
SAPA_PROFIL
 62
     4
 10
-40.818728253020197
 20
-7.7756164323413461
 30
0.0
 42
0.3138982169096283
  0
VERTEX
  5
2292
  8
SAPA_PROFIL
 62
     4
 10
-40.537778469506009
 20
-7.9732420578817003
 30
0.0
 42
0.0157923906855865
  0
VERTEX
  5
2293
  8
SAPA_PROFIL
 62
     4
 10
-40.186319937167163
 20
-7.9766451875212949
 30
0.0
  0
VERTEX
  5
2294
  8
SAPA_PROFIL
 62
     4
 10
-39.946136872384869
 20
-8.1153149446278192
 30
0.0
 42
0.5773502691889272
  0
VERTEX
  5
2295
  8
SAPA_PROFIL
 62
     4
 10
-39.631136872385163
 20
-7.933449609833028
 30
0.0
  0
VERTEX
  5
2296
  8
SAPA_PROFIL
 62
     4
 10
-39.631136872385042
 20
-7.6663350816201143
 30
0.0
  0
VERTEX
  5
2297
  8
SAPA_PROFIL
 62
     4
 10
-39.29999999891885
 20
-7.4701130158358158
 30
0.0
  0
VERTEX
  5
2298
  8
SAPA_PROFIL
 62
     4
 10
-38.316679860938329
 20
-6.9024688523383677
 30
0.0
 42
-0.1316524975869703
  0
VERTEX
  5
2299
  8
SAPA_PROFIL
 62
     4
 10
-38.211679860939512
 20
-6.8743341871338073
 30
0.0
  0
VERTEX
  5
229A
  8
SAPA_PROFIL
 62
     4
 10
-37.89999999891694
 20
-6.8743341871336927
 30
0.0
 42
-0.4142135623775584
  0
VERTEX
  5
229B
  8
SAPA_PROFIL
 62
     4
 10
-37.499999998918902
 20
-7.274334187134011
 30
0.0
  0
VERTEX
  5
229C
  8
SAPA_PROFIL
 62
     4
 10
-37.499999998918838
 20
-10.674334187133759
 30
0.0
 42
-0.4142135623773978
  0
VERTEX
  5
229D
  8
SAPA_PROFIL
 62
     4
 10
-37.899999998918872
 20
-11.07433418713374
 30
0.0
  0
VERTEX
  5
229E
  8
SAPA_PROFIL
 62
     4
 10
-38.211679860942517
 20
-11.07433418713374
 30
0.0
 42
-0.1316524975869708
  0
VERTEX
  5
229F
  8
SAPA_PROFIL
 62
     4
 10
-38.316679860939473
 20
-11.046199521928489
 30
0.0
  0
VERTEX
  5
22A0
  8
SAPA_PROFIL
 62
     4
 10
-39.29999999891885
 20
-10.47847937556646
 30
0.0
  0
VERTEX
  5
22A1
  8
SAPA_PROFIL
 62
     4
 10
-39.894744110589727
 20
-10.135103702594339
 30
0.0
 42
0.1316524975869772
  0
VERTEX
  5
22A2
  8
SAPA_PROFIL
 62
     4
 10
-40.494744110593103
 20
-9.9743341871338291
 30
0.0
  0
VERTEX
  5
22A3
  8
SAPA_PROFIL
 62
     4
 10
-41.446608443479533
 20
-9.9743341871340565
 30
0.0
 42
-0.3152987888780149
  0
VERTEX
  5
22A4
  8
SAPA_PROFIL
 62
     4
 10
-42.386301064251029
 20
-9.3163543304596672
 30
0.0
  0
VERTEX
  5
22A5
  8
SAPA_PROFIL
 62
     4
 10
-43.177415089160881
 20
-7.142786410805976
 30
0.0
 42
0.3152987888779391
  0
VERTEX
  5
22A6
  8
SAPA_PROFIL
 62
     4
 10
-43.553292137475403
 20
-6.8795944681358581
 30
0.0
  0
VERTEX
  5
22A7
  8
SAPA_PROFIL
 62
     4
 10
-52.499999998918831
 20
-6.8795944681358563
 30
0.0
  0
VERTEX
  5
22A8
  8
SAPA_PROFIL
 62
     4
 10
-61.446707860362331
 20
-6.8795944681357968
 30
0.0
 42
0.3152987888779318
  0
VERTEX
  5
22A9
  8
SAPA_PROFIL
 62
     4
 10
-61.822584908675481
 20
-7.1427864108022208
 30
0.0
  0
VERTEX
  5
22AA
  8
SAPA_PROFIL
 62
     4
 10
-62.613698933586591
 20
-9.3163543304594381
 30
0.0
 42
-0.3152987888779361
  0
VERTEX
  5
22AB
  8
SAPA_PROFIL
 62
     4
 10
-63.55339155438719
 20
-9.9743341871337687
 30
0.0
  0
VERTEX
  5
22AC
  8
SAPA_PROFIL
 62
     4
 10
-64.505255887244687
 20
-9.9743341871337687
 30
0.0
 42
0.1316524975869766
  0
VERTEX
  5
22AD
  8
SAPA_PROFIL
 62
     4
 10
-65.105255887237888
 20
-10.135103702588481
 30
0.0
  0
VERTEX
  5
22AE
  8
SAPA_PROFIL
 62
     4
 10
-65.692820321946385
 20
-10.47433418713371
 30
0.0
  0
VERTEX
  5
22AF
  8
SAPA_PROFIL
 62
     4
 10
-66.683320136898317
 20
-11.046199521928431
 30
0.0
 42
-0.1316524975869832
  0
VERTEX
  5
22B0
  8
SAPA_PROFIL
 62
     4
 10
-66.788320136901405
 20
-11.074334187133671
 30
0.0
  0
VERTEX
  5
22B1
  8
SAPA_PROFIL
 62
     4
 10
-67.099999998918904
 20
-11.074334187133729
 30
0.0
 42
-0.414213562371655
  0
VERTEX
  5
22B2
  8
SAPA_PROFIL
 62
     4
 10
-67.499999998918895
 20
-10.674334187129769
 30
0.0
  0
VERTEX
  5
22B3
  8
SAPA_PROFIL
 62
     4
 10
-67.499999998918895
 20
-7.2743341871337224
 30
0.0
 42
-0.4142135623716633
  0
VERTEX
  5
22B4
  8
SAPA_PROFIL
 62
     4
 10
-67.099999998916871
 20
-6.8743341871337451
 30
0.0
  0
VERTEX
  5
22B5
  8
SAPA_PROFIL
 62
     4
 10
-66.788320136898221
 20
-6.8743341871337451
 30
0.0
 42
-0.1316524975869709
  0
VERTEX
  5
22B6
  8
SAPA_PROFIL
 62
     4
 10
-66.683320136897635
 20
-6.9024688523393287
 30
0.0
  0
VERTEX
  5
22B7
  8
SAPA_PROFIL
 62
     4
 10
-65.368863125452634
 20
-7.666335081620109
 30
0.0
  0
VERTEX
  5
22B8
  8
SAPA_PROFIL
 62
     4
 10
-65.368863125452521
 20
-7.9334496098330236
 30
0.0
 42
0.5773502691889269
  0
VERTEX
  5
22B9
  8
SAPA_PROFIL
 62
     4
 10
-65.053863125452807
 20
-8.1153149446278174
 30
0.0
  0
VERTEX
  5
22BA
  8
SAPA_PROFIL
 62
     4
 10
-64.813680060670507
 20
-7.976645187521294
 30
0.0
 42
0.015792390685586
  0
SEQEND
  5
22BB
  8
SAPA_PROFIL
 62
     4
  0
ARC
  5
1C4A
  8
SAPA_PROFIL
 10
-33.900000000001491
 20
12.288211253246001
 30
0.0
 40
0.2999999999998626
 50
45.784666420770662
 51
181.55442622518859
  0
LINE
  5
1C4B
  8
SAPA_PROFIL
 10
-31.430030478057692
 20
10.30355555189516
 30
0.0
 11
-33.690792918440138
 21
12.50322845494042
 31
0.0
  0
ARC
  5
1C4C
  8
SAPA_PROFIL
 10
-31.591879883392519
 20
10.050959490974259
 30
0.0
 40
0.2999999999999829
 50
359.9999999999888
 51
57.350526721836623
  0
LINE
  5
1C4D
  8
SAPA_PROFIL
 10
-31.291879883392539
 20
9.50000037353783
 30
0.0
 11
-31.291879883392539
 21
10.050959490974201
 31
0.0
  0
ARC
  5
1C4E
  8
SAPA_PROFIL
 10
-31.59187988339238
 20
9.5000003735379437
 30
0.0
 40
0.2999999999998408
 50
269.99999999997829
 51
359.99999999997829
  0
LINE
  5
1C4F
  8
SAPA_PROFIL
 10
-56.693485944234617
 20
9.2000003735381597
 30
0.0
 11
-31.591879883392501
 21
9.2000003735381028
 31
0.0
  0
ARC
  5
1C50
  8
SAPA_PROFIL
 10
-56.693485944234602
 20
8.7000003735381473
 30
0.0
 40
0.5000000000000142
 50
90.000000000001606
 51
179.99999999999861
  0
LINE
  5
1C51
  8
SAPA_PROFIL
 10
-57.193485944234617
 20
7.0000003735381142
 30
0.0
 11
-57.193485944234617
 21
8.7000003735381597
 31
0.0
  0
ARC
  5
1C52
  8
SAPA_PROFIL
 10
-56.693485944234638
 20
7.0000003735380911
 30
0.0
 40
0.4999999999999769
 50
179.9999999999973
 51
270.0000000000025
  0
LINE
  5
1C53
  8
SAPA_PROFIL
 10
-43.991879883392073
 20
6.5000003735385681
 30
0.0
 11
-56.693485944234617
 21
6.5000003735381142
 31
0.0
  0
ARC
  5
1C54
  8
SAPA_PROFIL
 10
-43.991879883392073
 20
6.2000003735386144
 30
0.0
 40
0.2999999999999545
 50
359.99999999995657
 51
90.0
  0
LINE
  5
1C55
  8
SAPA_PROFIL
 10
-43.691879883392119
 20
5.3000003735382961
 30
0.0
 11
-43.691879883392119
 21
6.2000003735383871
 31
0.0
  0
ARC
  5
1C56
  8
SAPA_PROFIL
 10
-43.991879883392301
 20
5.3000003735382961
 30
0.0
 40
0.3000000000001819
 50
270.0
 51
0.0
  0
LINE
  5
1C57
  8
SAPA_PROFIL
 10
-58.393485944234897
 20
5.0000003735390228
 30
0.0
 11
-43.991879883392301
 21
5.0000003735381142
 31
0.0
  0
ARC
  5
1C58
  8
SAPA_PROFIL
 10
-58.393485944234911
 20
5.3000003735387429
 30
0.0
 40
0.29999999999972
 50
179.99999999999861
 51
270.00000000000131
  0
LINE
  5
1C59
  8
SAPA_PROFIL
 10
-58.693485944234169
 20
14.400000373537519
 30
0.0
 11
-58.693485944234617
 21
5.30000037353875
 31
0.0
  0
ARC
  5
1C5A
  8
SAPA_PROFIL
 10
-71.4542055070591
 20
14.550000373547061
 30
0.0
 40
12.76160114409887
 50
359.32652927028761
 51
0.6734707296255361
  0
ARC
  5
1C5B
  8
SAPA_PROFIL
 10
-48.309870737645561
 20
14.85000037352947
 30
0.0
 40
10.38469858775357
 50
179.17237214583739
 51
180.82762785407559
  0
LINE
  5
1C5C
  8
SAPA_PROFIL
 10
-58.693485944233707
 20
17.800000373537159
 30
0.0
 11
-58.693485944233707
 21
15.00000037353743
 31
0.0
  0
LINE
  5
1C5D
  8
SAPA_PROFIL
 10
-58.228562524668341
 20
18.386384389297969
 30
0.0
 11
-58.693485944233707
 21
17.800000373537159
 31
0.0
  0
ARC
  5
1C5E
  8
SAPA_PROFIL
 10
-57.993485944233527
 20
18.20000037353724
 30
0.0
 40
0.3000000000000398
 50
0.000000000001357
 51
141.5903289366027
  0
LINE
  5
1C5F
  8
SAPA_PROFIL
 10
-57.693485944233707
 20
16.500000373537429
 30
0.0
 11
-57.69348594423348
 21
18.20000037353725
 31
0.0
  0
ARC
  5
1C60
  8
SAPA_PROFIL
 10
-57.393485944233532
 20
16.500000373537429
 30
0.0
 40
0.3000000000001819
 50
180.0
 51
270.0
  0
LINE
  5
1C61
  8
SAPA_PROFIL
 10
-53.193485944233707
 20
16.20000037353725
 30
0.0
 11
-57.393485944233532
 21
16.20000037353725
 31
0.0
  0
ARC
  5
1C62
  8
SAPA_PROFIL
 10
-53.193485944233942
 20
16.500000373537201
 30
0.0
 40
0.2999999999999545
 50
270.00000000004343
 51
0.0000000000434252
  0
LINE
  5
1C63
  8
SAPA_PROFIL
 10
-52.89348594423376
 20
23.000000373537429
 30
0.0
 11
-52.89348594423398
 21
16.500000373537429
 31
0.0
  0
ARC
  5
1C64
  8
SAPA_PROFIL
 10
-53.193485944233487
 20
23.000000373537429
 30
0.0
 40
0.2999999999997271
 50
0.0
 51
90.000000000043414
  0
LINE
  5
1C65
  8
SAPA_PROFIL
 10
-57.393485944233753
 20
23.300000373537159
 30
0.0
 11
-53.193485944233707
 21
23.300000373537159
 31
0.0
  0
ARC
  5
1C66
  8
SAPA_PROFIL
 10
-57.393485944233817
 20
23.000000373537489
 30
0.0
 40
0.2999999999996703
 50
89.999999999989143
 51
180.0000000000108
  0
LINE
  5
1C67
  8
SAPA_PROFIL
 10
-57.693485944233707
 20
21.800000373537159
 30
0.0
 11
-57.69348594423348
 21
23.000000373537429
 31
0.0
  0
ARC
  5
1C68
  8
SAPA_PROFIL
 10
-57.993485944233647
 20
21.80000037353717
 30
0.0
 40
0.2999999999999416
 50
218.4096710634125
 51
359.99999999999858
  0
LINE
  5
1C69
  8
SAPA_PROFIL
 10
-58.693485944233707
 20
22.20000037353725
 30
0.0
 11
-58.228562524668341
 21
21.61361635777644
 31
0.0
  0
LINE
  5
1C6A
  8
SAPA_PROFIL
 10
-58.693485944233707
 20
24.500000373537429
 30
0.0
 11
-58.693485944233707
 21
22.20000037353725
 31
0.0
  0
ARC
  5
1C6B
  8
SAPA_PROFIL
 10
-58.39348594423376
 20
24.500000373537208
 30
0.0
 40
0.2999999999999545
 50
89.999999999956557
 51
179.99999999995649
  0
LINE
  5
1C6C
  8
SAPA_PROFIL
 10
-51.193485944233707
 20
24.800000373537159
 30
0.0
 11
-58.393485944233532
 21
24.800000373537159
 31
0.0
  0
ARC
  5
1C6D
  8
SAPA_PROFIL
 10
-51.193485944233707
 20
24.500000373537208
 30
0.0
 40
0.2999999999999545
 50
359.99999999995657
 51
90.0
  0
LINE
  5
1C6E
  8
SAPA_PROFIL
 10
-50.89348594423376
 20
22.70000037353725
 30
0.0
 11
-50.89348594423376
 21
24.500000373536981
 31
0.0
  0
LINE
  5
1C6F
  8
SAPA_PROFIL
 10
-51.093485944233578
 20
22.70000037353725
 30
0.0
 11
-50.89348594423376
 21
22.70000037353725
 31
0.0
  0
ARC
  5
1C70
  8
SAPA_PROFIL
 10
-51.093485944233798
 20
22.400000373537519
 30
0.0
 40
0.2999999999997271
 50
89.999999999956557
 51
180.0
  0
LINE
  5
1C71
  8
SAPA_PROFIL
 10
-51.393485944233532
 20
15.00000037353743
 30
0.0
 11
-51.393485944233532
 21
22.400000373537519
 31
0.0
  0
ARC
  5
1C72
  8
SAPA_PROFIL
 10
-51.693485944233721
 20
15.00000037353743
 30
0.0
 40
0.3000000000001819
 50
270.0
 51
0.0
  0
LINE
  5
1C73
  8
SAPA_PROFIL
 10
-56.693485944234169
 20
14.70000037353725
 30
0.0
 11
-51.693485944233721
 21
14.70000037353725
 31
0.0
  0
ARC
  5
1C74
  8
SAPA_PROFIL
 10
-56.693485944234148
 20
14.20000037353724
 30
0.0
 40
0.5000000000000142
 50
90.000000000001606
 51
179.99999999999861
  0
LINE
  5
1C75
  8
SAPA_PROFIL
 10
-57.193485944234403
 20
11.20000037353725
 30
0.0
 11
-57.193485944234169
 21
14.20000037353725
 31
0.0
  0
ARC
  5
1C76
  8
SAPA_PROFIL
 10
-56.693485944234311
 20
11.20000037353711
 30
0.0
 40
0.5000000000000853
 50
179.99999999998369
 51
269.99999999999022
  0
LINE
  5
1C77
  8
SAPA_PROFIL
 10
-34.500000000001357
 20
10.70000037353816
 30
0.0
 11
-56.693485944234389
 21
10.700000373537019
 31
0.0
  0
ARC
  5
1C78
  8
SAPA_PROFIL
 10
-34.500000000001378
 20
11.00000037353812
 30
0.0
 40
0.2999999999999687
 50
270.00000000000267
 51
359.99999999999801
  0
LINE
  5
1C79
  8
SAPA_PROFIL
 10
-34.20000000000141
 20
12.28821125324612
 30
0.0
 11
-34.20000000000141
 21
11.000000373538111
 31
0.0
  0
ARC
  5
1C7A
  8
SAPA_PROFIL
  6
CONTINUOUS
 62
     7
 10
-74.000000000957129
 20
16.000000747073369
 30
0.0
 40
0.4999999999996021
 50
359.99999999995521
 51
89.999999999956032
  0
LINE
  5
1C7B
  8
SAPA_PROFIL
  6
CONTINUOUS
 62
     7
 10
-73.500000000956732
 20
15.000000747072971
 30
0.0
 11
-73.500000000957527
 21
16.000000747072981
 31
0.0
  0
ARC
  5
1C7C
  8
SAPA_PROFIL
  6
CONTINUOUS
 62
     7
 10
-76.000000000962487
 20
15.00000074707267
 30
0.0
 40
2.5000000000057541
 50
300.00000002125398
 51
0.0000000000069209
  0
ARC
  5
1C7D
  8
SAPA_PROFIL
  6
CONTINUOUS
 62
     7
 10
-74.500000000004775
 20
12.40192453627164
 30
0.0
 40
0.4999999999948131
 50
120.0000000204161
 51
179.9999999989285
  0
LINE
  5
1C7E
  8
SAPA_PROFIL
  6
CONTINUOUS
 62
     7
 10
-74.999999999999588
 20
7.400000747073773
 30
0.0
 11
-74.999999999999588
 21
12.40192453628099
 31
0.0
  0
ARC
  5
1C7F
  8
SAPA_PROFIL
  6
CONTINUOUS
 62
     7
 10
-74.499999999999588
 20
7.4000007470737748
 30
0.0
 40
0.5000000000000018
 50
180.0000000000002
 51
269.99999999999352
  0
LINE
  5
1C80
  8
SAPA_PROFIL
  6
CONTINUOUS
 62
     7
 10
-72.799999999999557
 20
6.9000007470735527
 30
0.0
 11
-74.499999999999645
 21
6.900000747073773
 31
0.0
  0
ARC
  5
1C81
  8
SAPA_PROFIL
  6
CONTINUOUS
 62
     7
 10
-72.799999999999585
 20
6.6000007470735689
 30
0.0
 40
0.2999999999999841
 50
19.471220634343979
 51
89.999999999994586
  0
ARC
  5
1C82
  8
SAPA_PROFIL
  6
CONTINUOUS
 62
     7
 10
-72.234314575051116
 20
6.8000007470729997
 30
0.0
 40
0.2999999999991045
 50
199.4712206345838
 51
270.00000000020623
  0
LINE
  5
1C83
  8
SAPA_PROFIL
  6
CONTINUOUS
 62
     7
 10
-70.799999999999315
 20
6.500000747073007
 30
0.0
 11
-72.234314575050036
 21
6.5000007470738961
 31
0.0
  0
ARC
  5
1C84
  8
SAPA_PROFIL
  6
CONTINUOUS
 62
     7
 10
-70.799999999998875
 20
6.2000007470732941
 30
0.0
 40
0.2999999999997271
 50
0.0000000000949926
 51
90.000000000084114
  0
LINE
  5
1C85
  8
SAPA_PROFIL
  6
CONTINUOUS
 62
     7
 10
-70.499999999999559
 20
5.600000747073179
 30
0.0
 11
-70.499999999999147
 21
6.2000007470737923
 31
0.0
  0
ARC
  5
1C86
  8
SAPA_PROFIL
  6
CONTINUOUS
 62
     7
 10
-70.799999999999557
 20
5.6000007470738806
 30
0.0
 40
0.3000000000000096
 50
270.00000000004343
 51
359.99999999986602
  0
LINE
  5
1C87
  8
SAPA_PROFIL
  6
CONTINUOUS
 62
     7
 10
-72.19999999999942
 20
5.3000007470729829
 30
0.0
 11
-70.799999999999329
 21
5.300000747073871
 31
0.0
  0
ARC
  5
1C88
  8
SAPA_PROFIL
  6
CONTINUOUS
 62
     7
 10
-72.199999999999889
 20
5.000000747073285
 30
0.0
 40
0.2999999999996987
 50
89.999999999910429
 51
179.99999999990629
  0
LINE
  5
1C89
  8
SAPA_PROFIL
  6
CONTINUOUS
 62
     7
 10
-72.499999999999588
 20
-4.9999992529268047
 30
0.0
 11
-72.499999999999588
 21
5.0000007470737753
 31
0.0
  0
ARC
  5
1C8A
  8
SAPA_PROFIL
  6
CONTINUOUS
 62
     7
 10
-72.19999999999942
 20
-4.9999992529268091
 30
0.0
 40
0.3000000000001712
 50
179.99999999999929
 51
270.0
  0
LINE
  5
1C8B
  8
SAPA_PROFIL
  6
CONTINUOUS
 62
     7
 10
-70.799999999999329
 20
-5.299999252926991
 30
0.0
 11
-72.19999999999942
 21
-5.2999992529269804
 31
0.0
  0
ARC
  5
1C8C
  8
SAPA_PROFIL
  6
CONTINUOUS
 62
     7
 10
-70.799999999999102
 20
-5.5999992529264864
 30
0.0
 40
0.2999999999994856
 50
0.0000000000439341
 51
90.000000000043414
  0
LINE
  5
1C8D
  8
SAPA_PROFIL
  6
CONTINUOUS
 62
     7
 10
-70.499999999999602
 20
-6.199999252926804
 30
0.0
 11
-70.499999999999616
 21
-5.5999992529262563
 31
0.0
  0
ARC
  5
1C8E
  8
SAPA_PROFIL
  6
CONTINUOUS
 62
     7
 10
-70.799999999999784
 20
-6.1999992529268058
 30
0.0
 40
0.3000000000001801
 50
270.0000000000868
 51
0.0000000000003393
  0
LINE
  5
1C8F
  8
SAPA_PROFIL
  6
CONTINUOUS
 62
     7
 10
-72.234314575049652
 20
-6.4999992529260799
 30
0.0
 11
-70.799999999999329
 21
-6.4999992529269859
 31
0.0
  0
ARC
  5
1C90
  8
SAPA_PROFIL
  6
CONTINUOUS
 62
     7
 10
-72.234314575049837
 20
-6.7999992529260789
 30
0.0
 40
0.3000000000000111
 50
89.999999999964714
 51
160.52877936565761
  0
ARC
  5
1C91
  8
SAPA_PROFIL
  6
CONTINUOUS
 62
     7
 10
-72.799999999999613
 20
-6.5999992529275362
 30
0.0
 40
0.2999999999999998
 50
270.00000000000807
 51
340.5287793656575
  0
LINE
  5
1C92
  8
SAPA_PROFIL
  6
CONTINUOUS
 62
     7
 10
-80.299999999999329
 20
-6.8999992529284313
 30
0.0
 11
-72.799999999999571
 21
-6.899999252927536
 31
0.0
  0
ARC
  5
1C93
  8
SAPA_PROFIL
  6
CONTINUOUS
 62
     7
 10
-80.299999999999329
 20
-5.8999992529284313
 30
0.0
 40
1.0
 50
180.0
 51
270.0
  0
LINE
  5
1C94
  8
SAPA_PROFIL
  6
CONTINUOUS
 62
     7
 10
-81.299999999999812
 20
-5.0873689947514356
 30
0.0
 11
-81.299999999999329
 21
-5.8999992529284313
 31
0.0
  0
ARC
  5
1C95
  8
SAPA_PROFIL
  6
CONTINUOUS
 62
     7
 10
-80.999999999999801
 20
-5.0873689947512499
 30
0.0
 40
0.30000000000001
 50
130.00000000000099
 51
180.00000000003541
  0
LINE
  5
1C96
  8
SAPA_PROFIL
  6
CONTINUOUS
 62
     7
 10
-80.492836282905216
 20
-4.2701859199909933
 30
0.0
 11
-81.192836282905773
 21
-4.8575556618155531
 31
0.0
  0
ARC
  5
1C97
  8
SAPA_PROFIL
  6
CONTINUOUS
 62
     7
 10
-80.2999999999994
 20
-4.4999992529265187
 30
0.0
 40
0.299999999999784
 50
0.000000000083797
 51
130.00000000000119
  0
LINE
  5
1C98
  8
SAPA_PROFIL
  6
CONTINUOUS
 62
     7
 10
-79.999999999999119
 20
-5.2999992529280666
 30
0.0
 11
-79.999999999999616
 21
-4.4999992529260799
 31
0.0
  0
ARC
  5
1C99
  8
SAPA_PROFIL
  6
CONTINUOUS
 62
     7
 10
-79.699999999999903
 20
-5.2999992529280693
 30
0.0
 40
0.2999999999991996
 50
179.9999999999996
 51
270.00000000009499
  0
LINE
  5
1C9A
  8
SAPA_PROFIL
  6
CONTINUOUS
 62
     7
 10
-75.29999999999886
 20
-5.599999252927339
 30
0.0
 11
-79.69999999999942
 21
-5.599999252927268
 31
0.0
  0
ARC
  5
1C9B
  8
SAPA_PROFIL
  6
CONTINUOUS
 62
     7
 10
-75.299999999999102
 20
-5.2999992529273987
 30
0.0
 40
0.2999999999999403
 50
270.0000000000461
 51
0.0000000000447822
  0
LINE
  5
1C9C
  8
SAPA_PROFIL
  6
CONTINUOUS
 62
     7
 10
-74.999999999999133
 20
5.3000007470722803
 30
0.0
 11
-74.999999999999162
 21
-5.2999992529271651
 31
0.0
  0
ARC
  5
1C9D
  8
SAPA_PROFIL
  6
CONTINUOUS
 62
     7
 10
-75.299999999999116
 20
5.3000007470724704
 30
0.0
 40
0.2999999999999634
 50
359.99999999996368
 51
89.999999999953857
  0
LINE
  5
1C9E
  8
SAPA_PROFIL
  6
CONTINUOUS
 62
     7
 10
-79.699999999999406
 20
5.6000007470733726
 30
0.0
 11
-75.299999999998875
 21
5.6000007470724329
 31
0.0
  0
ARC
  5
1C9F
  8
SAPA_PROFIL
  6
CONTINUOUS
 62
     7
 10
-79.69999999999942
 20
5.3000007470731703
 30
0.0
 40
0.3000000000001961
 50
89.999999999997286
 51
179.99999999999861
  0
LINE
  5
1CA0
  8
SAPA_PROFIL
  6
CONTINUOUS
 62
     7
 10
-79.999999999999616
 20
4.5000007470729813
 30
0.0
 11
-79.999999999999616
 21
5.3000007470731774
 31
0.0
  0
ARC
  5
1CA1
  8
SAPA_PROFIL
  6
CONTINUOUS
 62
     7
 10
-80.299999999999756
 20
4.5000007470733339
 30
0.0
 40
0.3000000000001468
 50
230.00000000014489
 51
359.99999999993253
  0
LINE
  5
1CA2
  8
SAPA_PROFIL
  6
CONTINUOUS
 62
     7
 10
-81.192836282905773
 20
4.8575571559615929
 30
0.0
 11
-80.492836282905216
 21
4.2701874141370411
 31
0.0
  0
ARC
  5
1CA3
  8
SAPA_PROFIL
  6
CONTINUOUS
 62
     7
 10
-80.999999999999815
 20
5.0873704888972879
 30
0.0
 40
0.2999999999999971
 50
180.00000000000071
 51
230.0000000000008
  0
LINE
  5
1CA4
  8
SAPA_PROFIL
  6
CONTINUOUS
 62
     7
 10
-81.299999999999812
 20
5.9000007470726876
 30
0.0
 11
-81.299999999999812
 21
5.0873704888972853
 31
0.0
  0
ARC
  5
1CA5
  8
SAPA_PROFIL
  6
CONTINUOUS
 62
     7
 10
-80.299999999999812
 20
5.9000007470726876
 30
0.0
 40
1.0
 50
90.0
 51
180.0
  0
LINE
  5
1CA6
  8
SAPA_PROFIL
  6
CONTINUOUS
 62
     7
 10
-77.999999999999147
 20
6.9000007470726876
 30
0.0
 11
-80.299999999999812
 21
6.9000007470726876
 31
0.0
  0
ARC
  5
1CA7
  8
SAPA_PROFIL
  6
CONTINUOUS
 62
     7
 10
-77.999999999999147
 20
7.4000007470726876
 30
0.0
 40
0.5
 50
270.0
 51
0.0
  0
LINE
  5
1CA8
  8
SAPA_PROFIL
  6
CONTINUOUS
 62
     7
 10
-77.50000000000297
 20
16.000000747072779
 30
0.0
 11
-77.499999999999133
 21
7.4000007470726876
 31
0.0
  0
ARC
  5
1CA9
  8
SAPA_PROFIL
  6
CONTINUOUS
 62
     7
 10
-77.00000000000297
 20
16.000000747072971
 30
0.0
 40
0.5000000000000036
 50
90.0
 51
180.0000000000224
  0
LINE
  5
1CAA
  8
SAPA_PROFIL
  6
CONTINUOUS
 62
     7
 10
-74.000000000956746
 20
16.500000747072981
 30
0.0
 11
-77.00000000000297
 21
16.500000747072981
 31
0.0
  0
LINE
  5
1CAB
  8
SAPA_PROFIL
 10
-70.999999999999886
 20
24.10000074707629
 30
0.0
 11
-70.20000000095672
 21
24.10000074707629
 31
0.0
  0
ARC
  5
1CAC
  8
SAPA_PROFIL
 10
-70.999999999999915
 20
23.800000747076311
 30
0.0
 40
0.2999999999999829
 50
89.999999999994586
 51
179.9999999999952
  0
LINE
  5
1CAD
  8
SAPA_PROFIL
 10
-71.299999999999898
 20
22.400000747076241
 30
0.0
 11
-71.299999999999898
 21
23.800000747076329
 31
0.0
  0
ARC
  5
1CAE
  8
SAPA_PROFIL
 10
-71.600000000000023
 20
22.400000747076302
 30
0.0
 40
0.3000000000001286
 50
270.0000000000108
 51
359.99999999998909
  0
LINE
  5
1CAF
  8
SAPA_PROFIL
 10
-76.89999999999992
 20
22.10000074707629
 30
0.0
 11
-71.599999999999966
 21
22.100000747076169
 31
0.0
  0
ARC
  5
1CB0
  8
SAPA_PROFIL
 10
-76.89999999999992
 20
22.400000747076241
 30
0.0
 40
0.2999999999999545
 50
180.0
 51
270.0
  0
LINE
  5
1CB1
  8
SAPA_PROFIL
 10
-77.199999999999875
 20
33.200000747076203
 30
0.0
 11
-77.199999999999875
 21
22.400000747076241
 31
0.0
  0
ARC
  5
1CB2
  8
SAPA_PROFIL
 10
-76.899999999999835
 20
33.200000747076231
 30
0.0
 40
0.3000000000000398
 50
90.000000000016271
 51
180.0000000000054
  0
LINE
  5
1CB3
  8
SAPA_PROFIL
 10
-71.599999999999966
 20
33.500000747076257
 30
0.0
 11
-76.89999999999992
 21
33.500000747076257
 31
0.0
  0
ARC
  5
1CB4
  8
SAPA_PROFIL
 10
-71.600000000000023
 20
33.200000747076139
 30
0.0
 40
0.300000000000125
 50
0.0000000000108563
 51
89.999999999989143
  0
LINE
  5
1CB5
  8
SAPA_PROFIL
 10
-71.299999999999898
 20
31.800000747076218
 30
0.0
 11
-71.299999999999898
 21
33.200000747076203
 31
0.0
  0
ARC
  5
1CB6
  8
SAPA_PROFIL
 10
-70.999999999999915
 20
31.80000074707625
 30
0.0
 40
0.2999999999999829
 50
180.0000000000054
 51
270.0000000000054
  0
LINE
  5
1CB7
  8
SAPA_PROFIL
 10
-70.20000000095672
 20
31.500000747076271
 30
0.0
 11
-70.999999999999886
 21
31.500000747076271
 31
0.0
  0
ARC
  5
1CB8
  8
SAPA_PROFIL
 10
-70.200000000956692
 20
31.80000074707625
 30
0.0
 40
0.2999999999999829
 50
269.9999999999946
 51
359.99999999999449
  0
LINE
  5
1CB9
  8
SAPA_PROFIL
 10
-69.900000000956709
 20
33.200000747076309
 30
0.0
 11
-69.900000000956709
 21
31.800000747076218
 31
0.0
  0
ARC
  5
1CBA
  8
SAPA_PROFIL
 10
-69.600000000956726
 20
33.200000747076281
 30
0.0
 40
0.2999999999999829
 50
89.999999999994586
 51
179.99999999999449
  0
LINE
  5
1CBB
  8
SAPA_PROFIL
 10
-67.600000000956683
 20
33.500000747076257
 30
0.0
 11
-69.600000000956697
 21
33.500000747076257
 31
0.0
  0
ARC
  5
1CBC
  8
SAPA_PROFIL
 10
-67.600000000956669
 20
33.200000747076281
 30
0.0
 40
0.2999999999999829
 50
0.0000000000054281
 51
90.000000000005414
  0
LINE
  5
1CBD
  8
SAPA_PROFIL
 10
-67.300000000956686
 20
22.40000074707612
 30
0.0
 11
-67.300000000956686
 21
33.200000747076309
 31
0.0
  0
ARC
  5
1CBE
  8
SAPA_PROFIL
 10
-67.600000000956669
 20
22.400000747076149
 30
0.0
 40
0.2999999999999829
 50
269.9999999999946
 51
359.99999999999449
  0
LINE
  5
1CBF
  8
SAPA_PROFIL
 10
-69.600000000956697
 20
22.100000747076169
 30
0.0
 11
-67.600000000956683
 21
22.100000747076169
 31
0.0
  0
ARC
  5
1CC0
  8
SAPA_PROFIL
 10
-69.600000000956726
 20
22.40000074707616
 30
0.0
 40
0.2999999999999829
 50
180.00000000000611
 51
270.0000000000054
  0
LINE
  5
1CC1
  8
SAPA_PROFIL
 10
-69.900000000956709
 20
23.800000747076329
 30
0.0
 11
-69.900000000956709
 21
22.400000747076131
 31
0.0
  0
ARC
  5
1CC2
  8
SAPA_PROFIL
 10
-70.200000000956692
 20
23.8000007470763
 30
0.0
 40
0.2999999999999865
 50
0.0000000000061067
 51
90.000000000005414
  0
ARC
  5
1CC3
  8
SAPA_PROFIL
  6
CONTINUOUS
 62
     7
 10
-80.199999999999136
 20
18.30625686266275
 30
0.0
 40
0.2999999999995566
 50
93.583321732830768
 51
179.9999999999097
  0
LINE
  5
1CC4
  8
SAPA_PROFIL
  6
CONTINUOUS
 62
     7
 10
-80.499999999998579
 20
11.30000074707622
 30
0.0
 11
-80.499999999998693
 21
18.306256862663218
 31
0.0
  0
ARC
  5
1CC5
  8
SAPA_PROFIL
  6
CONTINUOUS
 62
     7
 10
-80.799999999998647
 20
11.30000074707622
 30
0.0
 40
0.3000000000000682
 50
270.0
 51
0.0
  0
LINE
  5
1CC6
  8
SAPA_PROFIL
  6
CONTINUOUS
 62
     7
 10
-81.600000000982675
 20
11.00000074707615
 30
0.0
 11
-80.799999999998647
 21
11.00000074707615
 31
0.0
  0
ARC
  5
1CC7
  8
SAPA_PROFIL
  6
CONTINUOUS
 62
     7
 10
-81.600000000982646
 20
11.30000074707619
 30
0.0
 40
0.3000000000000398
 50
179.99999999999449
 51
269.9999999999946
  0
LINE
  5
1CC8
  8
SAPA_PROFIL
  6
CONTINUOUS
 62
     7
 10
-81.900000000982644
 20
19.700000747076189
 30
0.0
 11
-81.900000000982686
 21
11.30000074707622
 31
0.0
  0
ARC
  5
1CC9
  8
SAPA_PROFIL
  6
CONTINUOUS
 62
     7
 10
-81.600000000982675
 20
19.700000747076189
 30
0.0
 40
0.2999999999999545
 50
90.0
 51
180.0
  0
LINE
  5
1CCA
  8
SAPA_PROFIL
  6
CONTINUOUS
 62
     7
 10
-80.400000001917647
 20
20.00000074707615
 30
0.0
 11
-81.600000000982675
 21
20.00000074707615
 31
0.0
  0
ARC
  5
1CCB
  8
SAPA_PROFIL
  6
CONTINUOUS
 62
     7
 10
-80.400000001917647
 20
21.50000074707615
 30
0.0
 40
1.5
 50
270.0
 51
359.99999999671712
  0
LINE
  5
1CCC
  8
SAPA_PROFIL
  6
CONTINUOUS
 62
     7
 10
-78.900000000982629
 20
36.70000074710223
 30
0.0
 11
-78.900000001917647
 21
21.500000746990199
 31
0.0
  0
ARC
  5
1CCD
  8
SAPA_PROFIL
  6
CONTINUOUS
 62
     7
 10
-78.600000000982675
 20
36.700000747076203
 30
0.0
 40
0.2999999999999545
 50
90.0
 51
179.99999999502779
  0
LINE
  5
1CCE
  8
SAPA_PROFIL
  6
CONTINUOUS
 62
     7
 10
-77.499999999999659
 20
37.00000074707615
 30
0.0
 11
-78.600000000982675
 21
37.00000074707615
 31
0.0
  0
ARC
  5
1CCF
  8
SAPA_PROFIL
  6
CONTINUOUS
 62
     7
 10
-77.499999999999631
 20
36.700000747076167
 30
0.0
 40
0.2999999999999829
 50
0.0000000000054281
 51
90.000000000005414
  0
LINE
  5
1CD0
  8
SAPA_PROFIL
  6
CONTINUOUS
 62
     7
 10
-77.199999999999648
 20
35.200000747076203
 30
0.0
 11
-77.199999999999648
 21
36.700000747076203
 31
0.0
  0
ARC
  5
1CD1
  8
SAPA_PROFIL
  6
CONTINUOUS
 62
     7
 10
-76.899999999999636
 20
35.200000747076139
 30
0.0
 40
0.3000000000000114
 50
179.99999999998909
 51
269.99999999998909
  0
LINE
  5
1CD2
  8
SAPA_PROFIL
  6
CONTINUOUS
 62
     7
 10
-66.200000000956663
 20
34.900000747076128
 30
0.0
 11
-76.899999999999693
 21
34.900000747076128
 31
0.0
  0
ARC
  5
1CD3
  8
SAPA_PROFIL
  6
CONTINUOUS
 62
     7
 10
-66.200000000956635
 20
34.600000747076152
 30
0.0
 40
0.2999999999999829
 50
0.0000000000054281
 51
90.000000000005414
  0
LINE
  5
1CD4
  8
SAPA_PROFIL
  6
CONTINUOUS
 62
     7
 10
-65.900000000956652
 20
11.30000074707621
 30
0.0
 11
-65.900000000956652
 21
34.600000747076173
 31
0.0
  0
ARC
  5
1CD5
  8
SAPA_PROFIL
  6
CONTINUOUS
 62
     7
 10
-66.20000000095618
 20
11.30000074707568
 30
0.0
 40
0.29999999999953
 50
269.99999999990769
 51
0.0000000001027955
  0
LINE
  5
1CD6
  8
SAPA_PROFIL
  6
CONTINUOUS
 62
     7
 10
-73.199999999998681
 20
11.00000074707615
 30
0.0
 11
-66.200000000956663
 21
11.00000074707614
 31
0.0
  0
ARC
  5
1CD7
  8
SAPA_PROFIL
  6
CONTINUOUS
 62
     7
 10
-73.199999999998653
 20
11.30000074707619
 30
0.0
 40
0.3000000000000398
 50
179.99999999999449
 51
269.9999999999946
  0
LINE
  5
1CD8
  8
SAPA_PROFIL
  6
CONTINUOUS
 62
     7
 10
-73.499999999998693
 20
20.300000747076218
 30
0.0
 11
-73.499999999998693
 21
11.30000074707622
 31
0.0
  0
ARC
  5
1CD9
  8
SAPA_PROFIL
  6
CONTINUOUS
 62
     7
 10
-73.79999999999967
 20
20.300000747076218
 30
0.0
 40
0.3000000000009741
 50
359.99999999999932
 51
89.999999999804587
  0
LINE
  5
1CDA
  8
SAPA_PROFIL
  6
CONTINUOUS
 62
     7
 10
-74.919615242269344
 20
20.600000747076169
 30
0.0
 11
-73.799999999998633
 21
20.6000007470772
 31
0.0
  0
ARC
  5
1CDB
  8
SAPA_PROFIL
  6
CONTINUOUS
 62
     7
 10
-74.91961524226943
 20
20.90000074707611
 30
0.0
 40
0.2999999999999325
 50
240.0000000000164
 51
270.00000000001631
  0
LINE
  5
1CDC
  8
SAPA_PROFIL
  6
CONTINUOUS
 62
     7
 10
-75.449999999998681
 20
20.85980836821151
 30
0.0
 11
-75.069615242269322
 21
20.64019312594079
 31
0.0
  0
ARC
  5
1CDD
  8
SAPA_PROFIL
  6
CONTINUOUS
 62
     7
 10
-75.599999999998658
 20
20.600000747076209
 30
0.0
 40
0.2999999999999598
 50
60.000000000000561
 51
119.9999999999994
  0
LINE
  5
1CDE
  8
SAPA_PROFIL
  6
CONTINUOUS
 62
     7
 10
-76.130384757727995
 20
20.64019312594079
 30
0.0
 11
-75.749999999998636
 21
20.85980836821151
 31
0.0
  0
ARC
  5
1CDF
  8
SAPA_PROFIL
  6
CONTINUOUS
 62
     7
 10
-76.280384757727887
 20
20.900000747076099
 30
0.0
 40
0.2999999999999261
 50
269.9999999999838
 51
299.99999999998431
  0
LINE
  5
1CE0
  8
SAPA_PROFIL
  6
CONTINUOUS
 62
     7
 10
-77.433520607080652
 20
20.600000747076169
 30
0.0
 11
-76.280384757727973
 21
20.600000747076169
 31
0.0
  0
ARC
  5
1CE1
  8
SAPA_PROFIL
  6
CONTINUOUS
 62
     7
 10
-77.433520607080638
 20
20.300000747076229
 30
0.0
 40
0.2999999999999472
 50
90.000000000002728
 51
157.97568716296459
  0
ARC
  5
1CE2
  8
SAPA_PROFIL
  6
CONTINUOUS
 62
     7
 10
-80.400000001918286
 20
21.500000747075681
 30
0.0
 40
2.899999999999296
 50
273.58332173291052
 51
337.97568716296257
  0
POLYLINE
  5
1CE3
  8
SAPA_PROFIL
 66
     1
 10
0.0
 20
0.0
 30
0.0
 70
     1
  0
VERTEX
  5
22BC
  8
SAPA_PROFIL
 10
24.299999999996398
 20
28.70000037353828
 30
0.0
  0
VERTEX
  5
22BD
  8
SAPA_PROFIL
 10
31.199999999996269
 20
28.70000037353828
 30
0.0
  0
VERTEX
  5
22BE
  8
SAPA_PROFIL
 10
31.49999999999633
 20
28.400000373538319
 30
0.0
  0
VERTEX
  5
22BF
  8
SAPA_PROFIL
 10
31.799999999996398
 20
28.70000037353828
 30
0.0
  0
VERTEX
  5
22C0
  8
SAPA_PROFIL
 10
41.499999999996326
 20
28.70000037353828
 30
0.0
 42
0.4142135623730951
  0
VERTEX
  5
22C1
  8
SAPA_PROFIL
 10
42.499999999996326
 20
29.70000037353827
 30
0.0
  0
VERTEX
  5
22C2
  8
SAPA_PROFIL
 10
42.499999999996326
 20
42.500000373538228
 30
0.0
  0
VERTEX
  5
22C3
  8
SAPA_PROFIL
 10
41.599999999996349
 20
42.500000373538228
 30
0.0
 42
-0.4142135623730951
  0
VERTEX
  5
22C4
  8
SAPA_PROFIL
 10
40.999999999996326
 20
43.10000037353813
 30
0.0
  0
VERTEX
  5
22C5
  8
SAPA_PROFIL
 10
40.999999999996326
 20
44.700000373538273
 30
0.0
 42
-0.4142135623730951
  0
VERTEX
  5
22C6
  8
SAPA_PROFIL
 10
41.299999999996402
 20
45.000000373538228
 30
0.0
  0
VERTEX
  5
22C7
  8
SAPA_PROFIL
 10
43.699999999996272
 20
45.000000373538228
 30
0.0
 42
-0.4142135623730951
  0
VERTEX
  5
22C8
  8
SAPA_PROFIL
 10
43.999999999996326
 20
44.700000373538273
 30
0.0
  0
VERTEX
  5
22C9
  8
SAPA_PROFIL
 10
43.999999999996326
 20
25.000000373538231
 30
0.0
  0
VERTEX
  5
22CA
  8
SAPA_PROFIL
 10
41.499999999996326
 20
25.000000373538231
 30
0.0
  0
VERTEX
  5
22CB
  8
SAPA_PROFIL
 10
41.499999999996326
 20
26.70000037353827
 30
0.0
 42
0.4142135623730951
  0
VERTEX
  5
22CC
  8
SAPA_PROFIL
 10
40.999999999996326
 20
27.20000037353827
 30
0.0
  0
VERTEX
  5
22CD
  8
SAPA_PROFIL
 10
20.99999999999633
 20
27.20000037353827
 30
0.0
 42
0.4142135623730951
  0
VERTEX
  5
22CE
  8
SAPA_PROFIL
 10
20.49999999999633
 20
26.70000037353827
 30
0.0
  0
VERTEX
  5
22CF
  8
SAPA_PROFIL
 10
20.49999999999633
 20
25.000000373538231
 30
0.0
  0
VERTEX
  5
22D0
  8
SAPA_PROFIL
 10
18.99999999999633
 20
25.000000373538231
 30
0.0
  0
VERTEX
  5
22D1
  8
SAPA_PROFIL
 10
18.99999999999633
 20
28.20000037353827
 30
0.0
 42
-0.4142135623730951
  0
VERTEX
  5
22D2
  8
SAPA_PROFIL
 10
19.49999999999633
 20
28.70000037353828
 30
0.0
  0
VERTEX
  5
22D3
  8
SAPA_PROFIL
 10
23.699999999996379
 20
28.70000037353828
 30
0.0
  0
VERTEX
  5
22D4
  8
SAPA_PROFIL
 10
23.99999999999633
 20
28.400000373538319
 30
0.0
  0
SEQEND
  5
22D5
  8
SAPA_PROFIL
  0
POLYLINE
  5
1CE4
  8
SAPA_PROFIL
 66
     1
 10
0.0
 20
0.0
 30
0.0
 70
     1
  0
VERTEX
  5
22D6
  8
SAPA_PROFIL
 10
-25.00000000000291
 20
-22.599999626461571
 30
0.0
 42
0.767326987974136
  0
VERTEX
  5
22D7
  8
SAPA_PROFIL
 10
-24.849999999999749
 20
-22.040192005328102
 30
0.0
 42
-0.2679491924279902
  0
VERTEX
  5
22D8
  8
SAPA_PROFIL
 10
-25.000000000002451
 20
-21.780384384204581
 30
0.0
  0
VERTEX
  5
22D9
  8
SAPA_PROFIL
 10
-25.00000000000183
 20
-18.799999626461329
 30
0.0
 42
-0.4142135623730395
  0
VERTEX
  5
22DA
  8
SAPA_PROFIL
 10
-23.500000000001769
 20
-17.299999626461609
 30
0.0
  0
VERTEX
  5
22DB
  8
SAPA_PROFIL
 10
-22.400000000002368
 20
-17.299999626461609
 30
0.0
 42
-0.4142135623730951
  0
VERTEX
  5
22DC
  8
SAPA_PROFIL
 10
-22.100000000002421
 20
-17.59999962646134
 30
0.0
  0
VERTEX
  5
22DD
  8
SAPA_PROFIL
 10
-22.100000000002421
 20
-18.09999962646134
 30
0.0
 42
-0.4142135623730948
  0
VERTEX
  5
22DE
  8
SAPA_PROFIL
 10
-22.400000000002368
 20
-18.399999626461518
 30
0.0
  0
VERTEX
  5
22DF
  8
SAPA_PROFIL
 10
-22.73662692463655
 20
-18.399999626461518
 30
0.0
 42
0.5643553431119927
  0
VERTEX
  5
22E0
  8
SAPA_PROFIL
 10
-20.874395043239481
 20
-22.724394669695808
 30
0.0
  0
VERTEX
  5
22E1
  8
SAPA_PROFIL
 10
-20.500000000002512
 20
-22.34999962646361
 30
0.0
  0
VERTEX
  5
22E2
  8
SAPA_PROFIL
 10
-20.125604956769632
 20
-22.724394669696721
 30
0.0
 42
0.564355343112654
  0
VERTEX
  5
22E3
  8
SAPA_PROFIL
 10
-18.263373075367099
 20
-18.399999626461518
 30
0.0
  0
VERTEX
  5
22E4
  8
SAPA_PROFIL
 10
-18.600000000002641
 20
-18.399999626461518
 30
0.0
 42
-0.4142135623729843
  0
VERTEX
  5
22E5
  8
SAPA_PROFIL
 10
-18.900000000002709
 20
-18.099999626461791
 30
0.0
  0
VERTEX
  5
22E6
  8
SAPA_PROFIL
 10
-18.900000000002599
 20
-17.59999962646134
 30
0.0
 42
-0.4142135623730951
  0
VERTEX
  5
22E7
  8
SAPA_PROFIL
 10
-18.600000000002641
 20
-17.299999626461609
 30
0.0
  0
VERTEX
  5
22E8
  8
SAPA_PROFIL
 10
-16.30000000000269
 20
-17.299999626461609
 30
0.0
 42
-0.4142135623732062
  0
VERTEX
  5
22E9
  8
SAPA_PROFIL
 10
-16.000000000002391
 20
-17.59999962646134
 30
0.0
  0
VERTEX
  5
22EA
  8
SAPA_PROFIL
 10
-16.000000000002512
 20
-21.999999626461491
 30
0.0
 42
0.4142135623731117
  0
VERTEX
  5
22EB
  8
SAPA_PROFIL
 10
-15.00000000000251
 20
-22.999999626461602
 30
0.0
  0
VERTEX
  5
22EC
  8
SAPA_PROFIL
 10
19.999999999995559
 20
-22.999999626461818
 30
0.0
 42
0.7673269879789009
  0
VERTEX
  5
22ED
  8
SAPA_PROFIL
 10
20.24999999999573
 20
-22.066986924569669
 30
0.0
 42
-0.2679491924311131
  0
VERTEX
  5
22EE
  8
SAPA_PROFIL
 10
19.99999999999584
 20
-21.633974222677399
 30
0.0
  0
VERTEX
  5
22EF
  8
SAPA_PROFIL
 10
19.999999999996639
 20
-18.799999626461538
 30
0.0
 42
-0.4142135623730395
  0
VERTEX
  5
22F0
  8
SAPA_PROFIL
 10
21.499999999996689
 20
-17.29999962646183
 30
0.0
  0
VERTEX
  5
22F1
  8
SAPA_PROFIL
 10
22.59999999999609
 20
-17.29999962646183
 30
0.0
 42
-0.4142135623730951
  0
VERTEX
  5
22F2
  8
SAPA_PROFIL
 10
22.899999999996052
 20
-17.59999962646156
 30
0.0
  0
VERTEX
  5
22F3
  8
SAPA_PROFIL
 10
22.899999999996052
 20
-18.09999962646156
 30
0.0
 42
-0.4142135623730948
  0
VERTEX
  5
22F4
  8
SAPA_PROFIL
 10
22.59999999999609
 20
-18.399999626461739
 30
0.0
  0
VERTEX
  5
22F5
  8
SAPA_PROFIL
 10
22.263373075361919
 20
-18.399999626461739
 30
0.0
 42
0.5643553431119927
  0
VERTEX
  5
22F6
  8
SAPA_PROFIL
 10
24.125604956758991
 20
-22.724394669696022
 30
0.0
  0
VERTEX
  5
22F7
  8
SAPA_PROFIL
 10
24.499999999995961
 20
-22.349999626463831
 30
0.0
  0
VERTEX
  5
22F8
  8
SAPA_PROFIL
 10
24.874395043228841
 20
-22.724394669696931
 30
0.0
 42
0.564355343112654
  0
VERTEX
  5
22F9
  8
SAPA_PROFIL
 10
26.736626924631359
 20
-18.399999626461732
 30
0.0
  0
VERTEX
  5
22FA
  8
SAPA_PROFIL
 10
26.399999999995821
 20
-18.399999626461732
 30
0.0
 42
-0.4142135623729843
  0
VERTEX
  5
22FB
  8
SAPA_PROFIL
 10
26.099999999995749
 20
-18.099999626462012
 30
0.0
  0
VERTEX
  5
22FC
  8
SAPA_PROFIL
 10
26.09999999999587
 20
-17.59999962646155
 30
0.0
 42
-0.4142135623730951
  0
VERTEX
  5
22FD
  8
SAPA_PROFIL
 10
26.399999999995821
 20
-17.299999626461819
 30
0.0
  0
VERTEX
  5
22FE
  8
SAPA_PROFIL
 10
28.699999999995779
 20
-17.299999626461819
 30
0.0
 42
-0.4142135623732062
  0
VERTEX
  5
22FF
  8
SAPA_PROFIL
 10
28.999999999996071
 20
-17.59999962646155
 30
0.0
  0
VERTEX
  5
2300
  8
SAPA_PROFIL
 10
28.999999999995961
 20
-21.999999626461701
 30
0.0
 42
0.4142135623730951
  0
VERTEX
  5
2301
  8
SAPA_PROFIL
 10
29.999999999995961
 20
-22.999999626461701
 30
0.0
  0
VERTEX
  5
2302
  8
SAPA_PROFIL
 10
34.699999999996351
 20
-22.999999626461872
 30
0.0
 42
0.4142135623730984
  0
VERTEX
  5
2303
  8
SAPA_PROFIL
 10
34.999999999996362
 20
-22.69999962646186
 30
0.0
  0
VERTEX
  5
2304
  8
SAPA_PROFIL
 10
34.999999999996362
 20
-21.399999626461849
 30
0.0
 42
-0.4142135623730951
  0
VERTEX
  5
2305
  8
SAPA_PROFIL
 10
35.299999999996373
 20
-21.099999626461841
 30
0.0
  0
VERTEX
  5
2306
  8
SAPA_PROFIL
 10
35.875735931284389
 20
-21.099999626461841
 30
0.0
 42
-0.198912367379637
  0
VERTEX
  5
2307
  8
SAPA_PROFIL
 10
36.087867965640378
 20
-21.18786759210586
 30
0.0
  0
VERTEX
  5
2308
  8
SAPA_PROFIL
 10
37.812132034352139
 20
-22.912131660817739
 30
0.0
 42
0.1989123673796579
  0
VERTEX
  5
2309
  8
SAPA_PROFIL
 10
38.024264068708128
 20
-22.999999626461761
 30
0.0
  0
VERTEX
  5
230A
  8
SAPA_PROFIL
 10
41.499999999996461
 20
-22.999999626461818
 30
0.0
 42
0.4142135623730951
  0
VERTEX
  5
230B
  8
SAPA_PROFIL
 10
42.499999999996469
 20
-21.999999626461811
 30
0.0
  0
VERTEX
  5
230C
  8
SAPA_PROFIL
 10
42.499999999996447
 20
22.000000373538072
 30
0.0
 42
0.4142135623730951
  0
VERTEX
  5
230D
  8
SAPA_PROFIL
 10
41.499999999996447
 20
23.000000373538072
 30
0.0
  0
VERTEX
  5
230E
  8
SAPA_PROFIL
 10
38.024264068708057
 20
23.000000373538018
 30
0.0
 42
0.1989123673796579
  0
VERTEX
  5
230F
  8
SAPA_PROFIL
 10
37.812132034352068
 20
22.912132407893989
 30
0.0
  0
VERTEX
  5
2310
  8
SAPA_PROFIL
 10
36.08786796564042
 20
21.187868339182181
 30
0.0
 42
-0.198912367379658
  0
VERTEX
  5
2311
  8
SAPA_PROFIL
 10
35.875735931284432
 20
21.100000373538151
 30
0.0
  0
VERTEX
  5
2312
  8
SAPA_PROFIL
 10
35.299999999996352
 20
21.100000373538151
 30
0.0
 42
-0.4142135623730951
  0
VERTEX
  5
2313
  8
SAPA_PROFIL
 10
34.999999999996341
 20
21.400000373538159
 30
0.0
  0
VERTEX
  5
2314
  8
SAPA_PROFIL
 10
34.999999999996341
 20
22.70000037353806
 30
0.0
 42
0.4142135623730984
  0
VERTEX
  5
2315
  8
SAPA_PROFIL
 10
34.699999999996329
 20
23.000000373538072
 30
0.0
  0
VERTEX
  5
2316
  8
SAPA_PROFIL
 10
29.999999999995939
 20
23.000000373537961
 30
0.0
 42
0.4142135623730951
  0
VERTEX
  5
2317
  8
SAPA_PROFIL
 10
28.999999999995939
 20
22.000000373537961
 30
0.0
  0
VERTEX
  5
2318
  8
SAPA_PROFIL
 10
28.99999999999606
 20
17.60000037353781
 30
0.0
 42
-0.4142135623732062
  0
VERTEX
  5
2319
  8
SAPA_PROFIL
 10
28.699999999995761
 20
17.300000373538079
 30
0.0
  0
VERTEX
  5
231A
  8
SAPA_PROFIL
 10
26.39999999999581
 20
17.300000373538079
 30
0.0
 42
-0.4142135623730951
  0
VERTEX
  5
231B
  8
SAPA_PROFIL
 10
26.099999999995848
 20
17.60000037353781
 30
0.0
  0
VERTEX
  5
231C
  8
SAPA_PROFIL
 10
26.099999999995742
 20
18.100000373538261
 30
0.0
 42
-0.414213562372984
  0
VERTEX
  5
231D
  8
SAPA_PROFIL
 10
26.39999999999581
 20
18.400000373537988
 30
0.0
  0
VERTEX
  5
231E
  8
SAPA_PROFIL
 10
26.736626924631349
 20
18.400000373537988
 30
0.0
 42
0.5643553431126542
  0
VERTEX
  5
231F
  8
SAPA_PROFIL
 10
24.874395043228819
 20
22.724395416773191
 30
0.0
  0
VERTEX
  5
2320
  8
SAPA_PROFIL
 10
24.499999999995939
 20
22.350000373540091
 30
0.0
  0
VERTEX
  5
2321
  8
SAPA_PROFIL
 10
24.12560495675897
 20
22.724395416772278
 30
0.0
 42
0.5643553431119927
  0
VERTEX
  5
2322
  8
SAPA_PROFIL
 10
22.263373075361908
 20
18.400000373537988
 30
0.0
  0
VERTEX
  5
2323
  8
SAPA_PROFIL
 10
22.599999999996079
 20
18.400000373537988
 30
0.0
 42
-0.414213562373095
  0
VERTEX
  5
2324
  8
SAPA_PROFIL
 10
22.89999999999603
 20
18.10000037353781
 30
0.0
  0
VERTEX
  5
2325
  8
SAPA_PROFIL
 10
22.89999999999603
 20
17.60000037353781
 30
0.0
 42
-0.4142135623730953
  0
VERTEX
  5
2326
  8
SAPA_PROFIL
 10
22.599999999996079
 20
17.300000373538079
 30
0.0
  0
VERTEX
  5
2327
  8
SAPA_PROFIL
 10
21.499999999996682
 20
17.300000373537848
 30
0.0
 42
-0.4142135623730508
  0
VERTEX
  5
2328
  8
SAPA_PROFIL
 10
19.999999999996621
 20
18.800000373537571
 30
0.0
  0
VERTEX
  5
2329
  8
SAPA_PROFIL
 10
19.999999999995879
 20
21.633974969753421
 30
0.0
 42
-0.2679491924311283
  0
VERTEX
  5
232A
  8
SAPA_PROFIL
 10
20.249999999995719
 20
22.066987671645691
 30
0.0
 42
0.7673269879788167
  0
VERTEX
  5
232B
  8
SAPA_PROFIL
 10
19.999999999995541
 20
23.000000373537841
 30
0.0
  0
VERTEX
  5
232C
  8
SAPA_PROFIL
 10
-15.000000000002521
 20
23.000000373537599
 30
0.0
 42
0.4142135623730951
  0
VERTEX
  5
232D
  8
SAPA_PROFIL
 10
-16.000000000002519
 20
22.000000373537599
 30
0.0
  0
VERTEX
  5
232E
  8
SAPA_PROFIL
 10
-16.000000000002409
 20
17.600000373537451
 30
0.0
 42
-0.4142135623732062
  0
VERTEX
  5
232F
  8
SAPA_PROFIL
 10
-16.300000000002701
 20
17.300000373537731
 30
0.0
  0
VERTEX
  5
2330
  8
SAPA_PROFIL
 10
-18.600000000002659
 20
17.300000373537731
 30
0.0
 42
-0.4142135623730951
  0
VERTEX
  5
2331
  8
SAPA_PROFIL
 10
-18.90000000000261
 20
17.600000373537451
 30
0.0
  0
VERTEX
  5
2332
  8
SAPA_PROFIL
 10
-18.900000000002731
 20
18.10000037353791
 30
0.0
 42
-0.414213562372984
  0
VERTEX
  5
2333
  8
SAPA_PROFIL
 10
-18.600000000002659
 20
18.40000037353764
 30
0.0
  0
VERTEX
  5
2334
  8
SAPA_PROFIL
 10
-18.26337307536712
 20
18.40000037353764
 30
0.0
 42
0.5643553431126542
  0
VERTEX
  5
2335
  8
SAPA_PROFIL
 10
-20.125604956769639
 20
22.72439541677284
 30
0.0
  0
VERTEX
  5
2336
  8
SAPA_PROFIL
 10
-20.500000000002519
 20
22.350000373539729
 30
0.0
  0
VERTEX
  5
2337
  8
SAPA_PROFIL
 10
-20.874395043239488
 20
22.72439541677193
 30
0.0
 42
0.5643553431119927
  0
VERTEX
  5
2338
  8
SAPA_PROFIL
 10
-22.73662692463656
 20
18.40000037353764
 30
0.0
  0
VERTEX
  5
2339
  8
SAPA_PROFIL
 10
-22.40000000000239
 20
18.40000037353764
 30
0.0
 42
-0.414213562373095
  0
VERTEX
  5
233A
  8
SAPA_PROFIL
 10
-22.100000000002431
 20
18.100000373537451
 30
0.0
  0
VERTEX
  5
233B
  8
SAPA_PROFIL
 10
-22.100000000002431
 20
17.600000373537451
 30
0.0
 42
-0.4142135623730951
  0
VERTEX
  5
233C
  8
SAPA_PROFIL
 10
-22.40000000000239
 20
17.30000037353761
 30
0.0
  0
VERTEX
  5
233D
  8
SAPA_PROFIL
 10
-23.500000000001791
 20
17.30000037353761
 30
0.0
 42
-0.4142135623730508
  0
VERTEX
  5
233E
  8
SAPA_PROFIL
 10
-25.00000000000184
 20
18.80000037353733
 30
0.0
  0
VERTEX
  5
233F
  8
SAPA_PROFIL
 10
-25.000000000002469
 20
21.780385131280578
 30
0.0
 42
-0.2679491924279903
  0
VERTEX
  5
2340
  8
SAPA_PROFIL
 10
-24.84999999999976
 20
22.040192752404099
 30
0.0
 42
0.767326987974136
  0
VERTEX
  5
2341
  8
SAPA_PROFIL
 10
-25.00000000000292
 20
22.600000373537618
 30
0.0
  0
VERTEX
  5
2342
  8
SAPA_PROFIL
 10
-27.00000000000184
 20
22.600000373537569
 30
0.0
 42
0.4142135623730951
  0
VERTEX
  5
2343
  8
SAPA_PROFIL
 10
-28.00000000000184
 20
21.600000373537569
 30
0.0
  0
VERTEX
  5
2344
  8
SAPA_PROFIL
 10
-28.00000000000183
 20
-21.599999626461571
 30
0.0
 42
0.4142135623731284
  0
VERTEX
  5
2345
  8
SAPA_PROFIL
 10
-27.00000000000183
 20
-22.599999626461681
 30
0.0
  0
SEQEND
  5
2346
  8
SAPA_PROFIL
  0
POLYLINE
  5
1CE5
  8
SAPA_PROFIL
 66
     1
 10
0.0
 20
0.0
 30
0.0
 70
     1
  0
VERTEX
  5
2347
  8
SAPA_PROFIL
 10
-30.999999999011791
 20
2.7000003735384999
 30
0.0
  0
VERTEX
  5
2348
  8
SAPA_PROFIL
 10
-31.249999999011791
 20
2.7000003735384999
 30
0.0
  0
VERTEX
  5
2349
  8
SAPA_PROFIL
 10
-31.249999999011852
 20
2.3500003735385908
 30
0.0
 42
-0.5450207774094042
  0
VERTEX
  5
234A
  8
SAPA_PROFIL
 10
-31.673765403337331
 20
2.076720069286579
 30
0.0
  0
VERTEX
  5
234B
  8
SAPA_PROFIL
 10
-33.049999999011973
 20
2.7000003735384999
 30
0.0
  0
VERTEX
  5
234C
  8
SAPA_PROFIL
 10
-33.049999999012087
 20
2.3500003735385908
 30
0.0
 42
-0.5450207774090177
  0
VERTEX
  5
234D
  8
SAPA_PROFIL
 10
-33.473765403337168
 20
2.0767200692864658
 30
0.0
  0
VERTEX
  5
234E
  8
SAPA_PROFIL
 10
-34.849999999011928
 20
2.7000003735384999
 30
0.0
  0
VERTEX
  5
234F
  8
SAPA_PROFIL
 10
-34.849999999011978
 20
2.3500003735385908
 30
0.0
 42
-0.5450207774094042
  0
VERTEX
  5
2350
  8
SAPA_PROFIL
 10
-35.273765403337457
 20
2.076720069286579
 30
0.0
  0
VERTEX
  5
2351
  8
SAPA_PROFIL
 10
-36.649999999011882
 20
2.7000003735384999
 30
0.0
  0
VERTEX
  5
2352
  8
SAPA_PROFIL
 10
-36.649999999011882
 20
2.3500003735385908
 30
0.0
 42
-0.545020777409516
  0
VERTEX
  5
2353
  8
SAPA_PROFIL
 10
-37.073765403337532
 20
2.076720069286579
 30
0.0
  0
VERTEX
  5
2354
  8
SAPA_PROFIL
 10
-38.449999999012071
 20
2.7000003735384999
 30
0.0
  0
VERTEX
  5
2355
  8
SAPA_PROFIL
 10
-38.449999999012071
 20
2.3500003735385908
 30
0.0
 42
-0.545020777409516
  0
VERTEX
  5
2356
  8
SAPA_PROFIL
 10
-38.873765403337721
 20
2.076720069286579
 30
0.0
  0
VERTEX
  5
2357
  8
SAPA_PROFIL
 10
-40.249999999012253
 20
2.7000003735384999
 30
0.0
  0
VERTEX
  5
2358
  8
SAPA_PROFIL
 10
-40.249999999012253
 20
2.3500003735385908
 30
0.0
 42
-0.5450207774090177
  0
VERTEX
  5
2359
  8
SAPA_PROFIL
 10
-40.673765403337441
 20
2.0767200692864658
 30
0.0
  0
VERTEX
  5
235A
  8
SAPA_PROFIL
 10
-41.449999999012057
 20
2.4282674991239328
 30
0.0
  0
VERTEX
  5
235B
  8
SAPA_PROFIL
 10
-41.449999999012107
 20
-1.0006700427426301
 30
0.0
  0
VERTEX
  5
235C
  8
SAPA_PROFIL
 10
-41.449999999012107
 20
-2.6999996264615929
 30
0.0
  0
VERTEX
  5
235D
  8
SAPA_PROFIL
 10
-41.149999999012103
 20
-2.6999996264615929
 30
0.0
  0
VERTEX
  5
235E
  8
SAPA_PROFIL
 10
-39.773765403337812
 20
-2.0767193222092182
 30
0.0
 42
-0.5450207774093642
  0
VERTEX
  5
235F
  8
SAPA_PROFIL
 10
-39.349999999012383
 20
-2.3499996264614569
 30
0.0
  0
VERTEX
  5
2360
  8
SAPA_PROFIL
 10
-39.349999999012148
 20
-2.6999996264615929
 30
0.0
  0
VERTEX
  5
2361
  8
SAPA_PROFIL
 10
-37.973765403337623
 20
-2.0767193222093878
 30
0.0
 42
-0.5450207774088696
  0
VERTEX
  5
2362
  8
SAPA_PROFIL
 10
-37.549999999012428
 20
-2.3499996264614569
 30
0.0
  0
VERTEX
  5
2363
  8
SAPA_PROFIL
 10
-37.549999999012201
 20
-2.6999996264615929
 30
0.0
  0
VERTEX
  5
2364
  8
SAPA_PROFIL
 10
-36.173765403337669
 20
-2.0767193222093878
 30
0.0
 42
-0.5450207774094402
  0
VERTEX
  5
2365
  8
SAPA_PROFIL
 10
-35.74999999901236
 20
-2.3499996264614529
 30
0.0
  0
VERTEX
  5
2366
  8
SAPA_PROFIL
 10
-35.749999999012253
 20
-2.6999996264615902
 30
0.0
  0
VERTEX
  5
2367
  8
SAPA_PROFIL
 10
-34.373765403337941
 20
-2.0767193222092142
 30
0.0
 42
-0.5450207774093642
  0
VERTEX
  5
2368
  8
SAPA_PROFIL
 10
-33.949999999012519
 20
-2.3499996264614529
 30
0.0
  0
VERTEX
  5
2369
  8
SAPA_PROFIL
 10
-33.949999999012292
 20
-2.6999996264615902
 30
0.0
  0
VERTEX
  5
236A
  8
SAPA_PROFIL
 10
-32.573765403337759
 20
-2.0767193222093852
 30
0.0
 42
-0.5450207774088696
  0
VERTEX
  5
236B
  8
SAPA_PROFIL
 10
-32.149999999012621
 20
-2.3499996264614529
 30
0.0
  0
VERTEX
  5
236C
  8
SAPA_PROFIL
 10
-32.149999999011882
 20
-2.6999996264615902
 30
0.0
  0
VERTEX
  5
236D
  8
SAPA_PROFIL
 10
-30.999999999011791
 20
-2.6999996264615902
 30
0.0
 42
0.4142135623730951
  0
VERTEX
  5
236E
  8
SAPA_PROFIL
 10
-29.999999999011791
 20
-1.69999962646159
 30
0.0
  0
VERTEX
  5
236F
  8
SAPA_PROFIL
 10
-29.999999999011791
 20
1.7000003735385001
 30
0.0
 42
0.4142135623730951
  0
SEQEND
  5
2370
  8
SAPA_PROFIL
  0
POLYLINE
  5
1CE6
  8
SAPA_PROFIL
 66
     1
 10
0.0
 20
0.0
 30
0.0
 70
     1
  0
VERTEX
  5
2371
  8
SAPA_PROFIL
 10
-30.00000000000178
 20
-16.699999626462439
 30
0.0
  0
VERTEX
  5
2372
  8
SAPA_PROFIL
 10
-30.00000000000178
 20
-23.199999626462098
 30
0.0
 42
-0.4142135623732062
  0
VERTEX
  5
2373
  8
SAPA_PROFIL
 10
-30.300000000001841
 20
-23.49999962646206
 30
0.0
  0
VERTEX
  5
2374
  8
SAPA_PROFIL
 10
-34.200000000001602
 20
-23.49999962646206
 30
0.0
 42
-0.4142135623730951
  0
VERTEX
  5
2375
  8
SAPA_PROFIL
 10
-34.500000000001549
 20
-23.199999626462098
 30
0.0
  0
VERTEX
  5
2376
  8
SAPA_PROFIL
 10
-34.500000000001663
 20
-21.99999962646223
 30
0.0
 42
0.7105995015650612
  0
VERTEX
  5
2377
  8
SAPA_PROFIL
 10
-35.035076580436517
 20
-21.81361561070139
 30
0.0
  0
VERTEX
  5
2378
  8
SAPA_PROFIL
 10
-35.283588601450973
 20
-22.127051051281121
 30
0.0
 42
0.169180745212488
  0
VERTEX
  5
2379
  8
SAPA_PROFIL
 10
-35.500000000001783
 20
-22.748331103817009
 30
0.0
  0
VERTEX
  5
237A
  8
SAPA_PROFIL
 10
-35.500000000001663
 20
-24.699999626462269
 30
0.0
 42
0.4142135623730951
  0
VERTEX
  5
237B
  8
SAPA_PROFIL
 10
-35.200000000001701
 20
-24.99999962646223
 30
0.0
  0
VERTEX
  5
237C
  8
SAPA_PROFIL
 10
43.999999999996412
 20
-24.999999626461872
 30
0.0
 42
0.4142135623730951
  0
VERTEX
  5
237D
  8
SAPA_PROFIL
 10
44.499999999996412
 20
-24.499999626461872
 30
0.0
  0
VERTEX
  5
237E
  8
SAPA_PROFIL
 10
44.49999999999639
 20
24.500000373538128
 30
0.0
 42
0.4142135623730951
  0
VERTEX
  5
237F
  8
SAPA_PROFIL
 10
43.99999999999639
 20
25.000000373538128
 30
0.0
  0
VERTEX
  5
2380
  8
SAPA_PROFIL
 10
-35.200000000001829
 20
25.000000373538231
 30
0.0
 42
0.4142135623730951
  0
VERTEX
  5
2381
  8
SAPA_PROFIL
 10
-35.500000000001783
 20
24.70000037353827
 30
0.0
  0
VERTEX
  5
2382
  8
SAPA_PROFIL
 10
-35.500000000001783
 20
22.74833185089318
 30
0.0
 42
0.1691807452125303
  0
VERTEX
  5
2383
  8
SAPA_PROFIL
 10
-35.283588601450859
 20
22.127051798357169
 30
0.0
  0
VERTEX
  5
2384
  8
SAPA_PROFIL
 10
-35.03507658043641
 20
21.813616357777509
 30
0.0
 42
0.7105995015650845
  0
VERTEX
  5
2385
  8
SAPA_PROFIL
 10
-34.500000000001783
 20
22.000000373538231
 30
0.0
  0
VERTEX
  5
2386
  8
SAPA_PROFIL
 10
-34.500000000001783
 20
23.20000037353816
 30
0.0
 42
-0.4142135623732061
  0
VERTEX
  5
2387
  8
SAPA_PROFIL
 10
-34.200000000001708
 20
23.500000373538121
 30
0.0
  0
VERTEX
  5
2388
  8
SAPA_PROFIL
 10
-30.300000000001958
 20
23.500000373538121
 30
0.0
 42
-0.4142135623732061
  0
VERTEX
  5
2389
  8
SAPA_PROFIL
 10
-30.000000000001901
 20
23.20000037353816
 30
0.0
  0
VERTEX
  5
238A
  8
SAPA_PROFIL
 10
-30.00000000000178
 20
16.70000037353822
 30
0.0
 42
-0.4142135623730951
  0
VERTEX
  5
238B
  8
SAPA_PROFIL
 10
-30.50000000000178
 20
16.200000373538209
 30
0.0
  0
VERTEX
  5
238C
  8
SAPA_PROFIL
 10
-34.200000000001602
 20
16.200000373538099
 30
0.0
 42
-0.4142135623733172
  0
VERTEX
  5
238D
  8
SAPA_PROFIL
 10
-34.500000000001783
 20
16.500000373538281
 30
0.0
  0
VERTEX
  5
238E
  8
SAPA_PROFIL
 10
-34.500000000001549
 20
18.400000373538202
 30
0.0
 42
0.7105995015650612
  0
VERTEX
  5
238F
  8
SAPA_PROFIL
 10
-35.03507658043641
 20
18.586384389299042
 30
0.0
  0
VERTEX
  5
2390
  8
SAPA_PROFIL
 10
-35.283588601450859
 20
18.272948948719488
 30
0.0
 42
0.1691807452125303
  0
VERTEX
  5
2391
  8
SAPA_PROFIL
 10
-35.500000000001783
 20
17.65166889618348
 30
0.0
  0
VERTEX
  5
2392
  8
SAPA_PROFIL
 10
-35.500000000001783
 20
11.300000373538181
 30
0.0
 42
0.4142135623728731
  0
VERTEX
  5
2393
  8
SAPA_PROFIL
 10
-35.200000000001822
 20
11.00000037353823
 30
0.0
  0
VERTEX
  5
2394
  8
SAPA_PROFIL
 10
-34.500000000001549
 20
11.00000037353845
 30
0.0
 42
0.4142135623730951
  0
VERTEX
  5
2395
  8
SAPA_PROFIL
 10
-34.200000000001602
 20
11.30000037353841
 30
0.0
  0
VERTEX
  5
2396
  8
SAPA_PROFIL
 10
-34.200000000001602
 20
14.200000373537989
 30
0.0
 42
-0.4142135623730951
  0
VERTEX
  5
2397
  8
SAPA_PROFIL
 10
-33.700000000001587
 20
14.700000373537989
 30
0.0
  0
VERTEX
  5
2398
  8
SAPA_PROFIL
 10
-30.50000000000178
 20
14.70000037353822
 30
0.0
 42
-0.4142135623731617
  0
VERTEX
  5
2399
  8
SAPA_PROFIL
 10
-30.00000000000178
 20
14.20000037353822
 30
0.0
  0
VERTEX
  5
239A
  8
SAPA_PROFIL
 10
-30.000000000002011
 20
6.0000003735387963
 30
0.0
 42
-0.4142135623730951
  0
VERTEX
  5
239B
  8
SAPA_PROFIL
 10
-31.000000000002
 20
5.0000003735387963
 30
0.0
  0
VERTEX
  5
239C
  8
SAPA_PROFIL
 10
-52.199999999011887
 20
5.000000373538561
 30
0.0
 42
0.4142135623730951
  0
VERTEX
  5
239D
  8
SAPA_PROFIL
 10
-52.499999999011912
 20
4.7000003735385496
 30
0.0
  0
VERTEX
  5
239E
  8
SAPA_PROFIL
 10
-52.499999999011841
 20
3.0750109032518291
 30
0.0
  0
VERTEX
  5
239F
  8
SAPA_PROFIL
 10
-51.535790539647863
 20
2.2144755244675518
 30
0.0
 42
0.6264792893017398
  0
VERTEX
  5
23A0
  8
SAPA_PROFIL
 10
-51.049999999012421
 20
2.4500214329656198
 30
0.0
  0
VERTEX
  5
23A1
  8
SAPA_PROFIL
 10
-51.049999999012201
 20
2.70000037353855
 30
0.0
  0
VERTEX
  5
23A2
  8
SAPA_PROFIL
 10
-49.673765403337889
 20
2.176720069286425
 30
0.0
 42
0.5450207774090681
  0
VERTEX
  5
23A3
  8
SAPA_PROFIL
 10
-49.24999999901236
 20
2.45000037353855
 30
0.0
  0
VERTEX
  5
23A4
  8
SAPA_PROFIL
 10
-49.249999999012239
 20
2.7000003735384932
 30
0.0
  0
VERTEX
  5
23A5
  8
SAPA_PROFIL
 10
-47.873765403337941
 20
2.1767200692865378
 30
0.0
 42
0.545020777409516
  0
VERTEX
  5
23A6
  8
SAPA_PROFIL
 10
-47.449999999012292
 20
2.45000037353855
 30
0.0
  0
VERTEX
  5
23A7
  8
SAPA_PROFIL
 10
-47.449999999012292
 20
2.7000003735384932
 30
0.0
  0
VERTEX
  5
23A8
  8
SAPA_PROFIL
 10
-46.073765403337639
 20
2.176720069286425
 30
0.0
 42
0.5450207774091295
  0
VERTEX
  5
23A9
  8
SAPA_PROFIL
 10
-45.649999999012387
 20
2.45000037353855
 30
0.0
  0
VERTEX
  5
23AA
  8
SAPA_PROFIL
 10
-45.649999999012337
 20
2.7000003735384932
 30
0.0
  0
VERTEX
  5
23AB
  8
SAPA_PROFIL
 10
-44.273765403337812
 20
2.1767200692865378
 30
0.0
 42
0.545020777409516
  0
VERTEX
  5
23AC
  8
SAPA_PROFIL
 10
-43.849999999012148
 20
2.4500003735385572
 30
0.0
  0
VERTEX
  5
23AD
  8
SAPA_PROFIL
 10
-43.849999999012148
 20
2.7000003735384999
 30
0.0
  0
VERTEX
  5
23AE
  8
SAPA_PROFIL
 10
-43.182570825615649
 20
2.446047221368246
 30
0.0
 42
-0.3492695052203141
  0
VERTEX
  5
23AF
  8
SAPA_PROFIL
 10
-42.949999999012228
 20
2.1537232460000828
 30
0.0
  0
VERTEX
  5
23B0
  8
SAPA_PROFIL
 10
-42.949999999012228
 20
1.264911437605633
 30
0.0
 42
0.3475404855924057
  0
VERTEX
  5
23B1
  8
SAPA_PROFIL
 10
-42.719230768242952
 20
0.9730088843592739
 30
0.0
 42
-0.7905694150422074
  0
VERTEX
  5
23B2
  8
SAPA_PROFIL
 10
-42.719230768243122
 20
-0.9730081372837311
 30
0.0
 42
0.3475404855923888
  0
VERTEX
  5
23B3
  8
SAPA_PROFIL
 10
-42.949999999012228
 20
-1.2649106905309431
 30
0.0
  0
VERTEX
  5
23B4
  8
SAPA_PROFIL
 10
-42.949999999012121
 20
-1.876719322209456
 30
0.0
 42
-0.4142135623730951
  0
VERTEX
  5
23B5
  8
SAPA_PROFIL
 10
-43.249999999012132
 20
-2.1767193222094678
 30
0.0
  0
VERTEX
  5
23B6
  8
SAPA_PROFIL
 10
-43.373765403337707
 20
-2.176719322209411
 30
0.0
  0
VERTEX
  5
23B7
  8
SAPA_PROFIL
 10
-44.749999999012239
 20
-2.6999996264615929
 30
0.0
  0
VERTEX
  5
23B8
  8
SAPA_PROFIL
 10
-44.749999999012473
 20
-2.4499996264614232
 30
0.0
 42
0.5450207774088696
  0
VERTEX
  5
23B9
  8
SAPA_PROFIL
 10
-45.173765403337661
 20
-2.1767193222093542
 30
0.0
  0
VERTEX
  5
23BA
  8
SAPA_PROFIL
 10
-46.549999999012201
 20
-2.6999996264615929
 30
0.0
  0
VERTEX
  5
23BB
  8
SAPA_PROFIL
 10
-46.549999999012421
 20
-2.4499996264614232
 30
0.0
 42
0.5450207774091855
  0
VERTEX
  5
23BC
  8
SAPA_PROFIL
 10
-46.973765403337786
 20
-2.1767193222092969
 30
0.0
  0
VERTEX
  5
23BD
  8
SAPA_PROFIL
 10
-48.349999999012148
 20
-2.6999996264615929
 30
0.0
  0
VERTEX
  5
23BE
  8
SAPA_PROFIL
 10
-48.349999999012148
 20
-2.4499996264614232
 30
0.0
 42
0.5450207774093374
  0
VERTEX
  5
23BF
  8
SAPA_PROFIL
 10
-48.773765403337741
 20
-2.1767193222095251
 30
0.0
  0
VERTEX
  5
23C0
  8
SAPA_PROFIL
 10
-50.149999999012337
 20
-2.6999996264615929
 30
0.0
  0
VERTEX
  5
23C1
  8
SAPA_PROFIL
 10
-50.149999999011939
 20
-2.149978567034398
 30
0.0
  0
VERTEX
  5
23C2
  8
SAPA_PROFIL
 10
-51.347075010161483
 20
-2.1499785670343421
 30
0.0
 42
0.1681572645226206
  0
VERTEX
  5
23C3
  8
SAPA_PROFIL
 10
-51.532521788160707
 20
-2.214161916795891
 30
0.0
  0
VERTEX
  5
23C4
  8
SAPA_PROFIL
 10
-52.499999999011791
 20
-3.0749890967481468
 30
0.0
  0
VERTEX
  5
23C5
  8
SAPA_PROFIL
 10
-52.499999999011841
 20
-4.6999996264640984
 30
0.0
 42
0.4142135623730951
  0
VERTEX
  5
23C6
  8
SAPA_PROFIL
 10
-52.19999999901183
 20
-4.9999996264641089
 30
0.0
  0
VERTEX
  5
23C7
  8
SAPA_PROFIL
 10
-31.00000000000189
 20
-4.9999996264639321
 30
0.0
 42
-0.4142135623730951
  0
VERTEX
  5
23C8
  8
SAPA_PROFIL
 10
-30.00000000000189
 20
-5.9999996264639321
 30
0.0
  0
VERTEX
  5
23C9
  8
SAPA_PROFIL
 10
-30.00000000000178
 20
-14.199999626462329
 30
0.0
 42
-0.4142135623730951
  0
VERTEX
  5
23CA
  8
SAPA_PROFIL
 10
-30.500000000001769
 20
-14.699999626462329
 30
0.0
  0
VERTEX
  5
23CB
  8
SAPA_PROFIL
 10
-33.700000000001822
 20
-14.699999626462329
 30
0.0
 42
-0.4142135623730951
  0
VERTEX
  5
23CC
  8
SAPA_PROFIL
 10
-34.200000000001822
 20
-14.199999626462329
 30
0.0
  0
VERTEX
  5
23CD
  8
SAPA_PROFIL
 10
-34.200000000001602
 20
-11.299999626462411
 30
0.0
 42
0.4142135623730951
  0
VERTEX
  5
23CE
  8
SAPA_PROFIL
 10
-34.500000000001549
 20
-10.999999626462451
 30
0.0
  0
VERTEX
  5
23CF
  8
SAPA_PROFIL
 10
-35.200000000001708
 20
-10.999999626462341
 30
0.0
 42
0.4142135623730951
  0
VERTEX
  5
23D0
  8
SAPA_PROFIL
 10
-35.500000000001783
 20
-11.29999962646218
 30
0.0
  0
VERTEX
  5
23D1
  8
SAPA_PROFIL
 10
-35.500000000001663
 20
-17.651668149107479
 30
0.0
 42
0.1691807452124953
  0
VERTEX
  5
23D2
  8
SAPA_PROFIL
 10
-35.283588601450802
 20
-18.27294820164337
 30
0.0
  0
VERTEX
  5
23D3
  8
SAPA_PROFIL
 10
-35.03507658043641
 20
-18.586383642223041
 30
0.0
 42
0.7105995015650612
  0
VERTEX
  5
23D4
  8
SAPA_PROFIL
 10
-34.500000000001549
 20
-18.399999626462201
 30
0.0
  0
VERTEX
  5
23D5
  8
SAPA_PROFIL
 10
-34.500000000001783
 20
-16.499999626462401
 30
0.0
 42
-0.4142135623732061
  0
VERTEX
  5
23D6
  8
SAPA_PROFIL
 10
-34.200000000001602
 20
-16.199999626462329
 30
0.0
  0
VERTEX
  5
23D7
  8
SAPA_PROFIL
 10
-30.500000000001769
 20
-16.199999626462439
 30
0.0
 42
-0.4142135623730951
  0
SEQEND
  5
23D8
  8
SAPA_PROFIL
  0
LINE
  5
1CE7
  8
SAPA_PROFIL
 62
     0
 10
41.387268607697358
 20
26.696374173179471
 30
0.0
 11
40.903121456642623
 21
27.180521324234231
 31
0.0
  0
LINE
  5
1CE8
  8
SAPA_PROFIL
 62
     0
 10
41.306491262576678
 20
25.009384565333821
 30
0.0
 11
39.13535450367624
 21
27.180521324234231
 31
0.0
  0
LINE
  5
1CE9
  8
SAPA_PROFIL
 62
     0
 10
39.538724309610302
 20
25.009384565333821
 30
0.0
 11
37.367587550709857
 21
27.180521324234231
 31
0.0
  0
LINE
  5
1CEA
  8
SAPA_PROFIL
 62
     0
 10
37.770957356643919
 20
25.009384565333821
 30
0.0
 11
35.59982059774353
 21
27.180521324234231
 31
0.0
  0
LINE
  5
1CEB
  8
SAPA_PROFIL
 62
     0
 10
36.003190403677543
 20
25.009384565333821
 30
0.0
 11
33.832053644777147
 21
27.180521324234231
 31
0.0
  0
LINE
  5
1CEC
  8
SAPA_PROFIL
 62
     0
 10
27.164355638845731
 20
25.009384565333821
 30
0.0
 11
26.43054871305009
 21
25.743191491129469
 31
0.0
  0
LINE
  5
1CED
  8
SAPA_PROFIL
 62
     0
 10
28.93212259181206
 20
25.009384565333821
 30
0.0
 11
26.760985832911668
 21
27.180521324234231
 31
0.0
  0
LINE
  5
1CEE
  8
SAPA_PROFIL
 62
     0
 10
30.699889544778451
 20
25.009384565333821
 30
0.0
 11
28.528752785878059
 21
27.180521324234231
 31
0.0
  0
LINE
  5
1CEF
  8
SAPA_PROFIL
 62
     0
 10
32.467656497744827
 20
25.009384565333821
 30
0.0
 11
30.296519738844381
 21
27.180521324234231
 31
0.0
  0
LINE
  5
1CF0
  8
SAPA_PROFIL
 62
     0
 10
34.23542345071121
 20
25.009384565333821
 30
0.0
 11
32.064286691810771
 21
27.180521324234231
 31
0.0
  0
LINE
  5
1CF1
  8
SAPA_PROFIL
 62
     0
 10
40.158205981169601
 20
25.009384565333821
 30
0.0
 11
41.387268607697358
 21
26.238447191861638
 31
0.0
  0
LINE
  5
1CF2
  8
SAPA_PROFIL
 62
     0
 10
38.390439028203218
 20
25.009384565333821
 30
0.0
 11
40.561575787103664
 21
27.180521324234231
 31
0.0
  0
LINE
  5
1CF3
  8
SAPA_PROFIL
 62
     0
 10
36.622672075236828
 20
25.009384565333821
 30
0.0
 11
38.79380883413728
 21
27.180521324234231
 31
0.0
  0
LINE
  5
1CF4
  8
SAPA_PROFIL
 62
     0
 10
34.854905122270509
 20
25.009384565333821
 30
0.0
 11
37.026041881170897
 21
27.180521324234231
 31
0.0
  0
LINE
  5
1CF5
  8
SAPA_PROFIL
 62
     0
 10
33.087138169304133
 20
25.009384565333821
 30
0.0
 11
35.258274928204521
 21
27.180521324234231
 31
0.0
  0
LINE
  5
1CF6
  8
SAPA_PROFIL
 62
     0
 10
26.43054871305009
 20
25.42386292094529
 30
0.0
 11
28.187207116339039
 21
27.180521324234231
 31
0.0
  0
LINE
  5
1CF7
  8
SAPA_PROFIL
 62
     0
 10
27.78383731040503
 20
25.009384565333821
 30
0.0
 11
29.954974069305418
 21
27.180521324234231
 31
0.0
  0
LINE
  5
1CF8
  8
SAPA_PROFIL
 62
     0
 10
29.55160426337136
 20
25.009384565333821
 30
0.0
 11
31.722741022271808
 21
27.180521324234231
 31
0.0
  0
LINE
  5
1CF9
  8
SAPA_PROFIL
 62
     0
 10
31.319371216337739
 20
25.009384565333821
 30
0.0
 11
33.490507975238188
 21
27.180521324234231
 31
0.0
  0
LINE
  5
1CFA
  8
SAPA_PROFIL
 62
     0
 10
42.368339987301901
 20
41.101220568616611
 30
0.0
 11
41.100466111177013
 21
42.369094444741563
 31
0.0
  0
LINE
  5
1CFB
  8
SAPA_PROFIL
 62
     0
 10
42.368339987301901
 20
39.333453615650228
 30
0.0
 11
41.017410448430553
 21
40.684383154521583
 31
0.0
  0
LINE
  5
1CFC
  8
SAPA_PROFIL
 62
     0
 10
42.368339987301901
 20
37.565686662683902
 30
0.0
 11
41.017410448430553
 21
38.916616201555257
 31
0.0
  0
LINE
  5
1CFD
  8
SAPA_PROFIL
 62
     0
 10
42.368339987301901
 20
35.797919709717519
 30
0.0
 11
41.017410448430553
 21
37.148849248588881
 31
0.0
  0
LINE
  5
1CFE
  8
SAPA_PROFIL
 62
     0
 10
41.814302157073648
 20
29.280889728080329
 30
0.0
 11
41.017410448430553
 21
30.077781436723399
 31
0.0
  0
LINE
  5
1CFF
  8
SAPA_PROFIL
 62
     0
 10
42.368339987301901
 20
30.494618850818402
 30
0.0
 11
41.017410448430553
 21
31.84554838968975
 31
0.0
  0
LINE
  5
1D00
  8
SAPA_PROFIL
 62
     0
 10
42.368339987301901
 20
32.262385803784781
 30
0.0
 11
41.017410448430553
 21
33.613315342656144
 31
0.0
  0
LINE
  5
1D01
  8
SAPA_PROFIL
 62
     0
 10
42.368339987301901
 20
34.030152756751143
 30
0.0
 11
41.017410448430553
 21
35.381082295622491
 31
0.0
  0
LINE
  5
1D02
  8
SAPA_PROFIL
 62
     0
 10
41.017410448430553
 20
29.812844389529861
 30
0.0
 11
42.368339987301901
 21
31.163773928401191
 31
0.0
  0
LINE
  5
1D03
  8
SAPA_PROFIL
 62
     0
 10
41.017410448430553
 20
31.580611342496208
 30
0.0
 11
42.368339987301901
 21
32.931540881367567
 31
0.0
  0
LINE
  5
1D04
  8
SAPA_PROFIL
 62
     0
 10
41.017410448430553
 20
33.348378295462588
 30
0.0
 11
42.368339987301901
 21
34.699307834333929
 31
0.0
  0
LINE
  5
1D05
  8
SAPA_PROFIL
 62
     0
 10
41.017410448430553
 20
42.187213060294432
 30
0.0
 11
41.199291832877677
 21
42.369094444741563
 31
0.0
  0
LINE
  5
1D06
  8
SAPA_PROFIL
 62
     0
 10
41.017410448430553
 20
40.419446107328042
 30
0.0
 11
42.368339987301901
 21
41.77037564619939
 31
0.0
  0
LINE
  5
1D07
  8
SAPA_PROFIL
 62
     0
 10
41.017410448430553
 20
38.651679154361723
 30
0.0
 11
42.368339987301901
 21
40.002608693233007
 31
0.0
  0
LINE
  5
1D08
  8
SAPA_PROFIL
 62
     0
 10
41.017410448430553
 20
36.883912201395333
 30
0.0
 11
42.368339987301901
 21
38.234841740266688
 31
0.0
  0
LINE
  5
1D09
  8
SAPA_PROFIL
 62
     0
 10
41.017410448430553
 20
35.11614524842895
 30
0.0
 11
42.368339987301901
 21
36.467074787300312
 31
0.0
  0
LINE
  5
1D0A
  8
SAPA_PROFIL
 10
31.199999999996411
 20
28.700000373538259
 30
0.0
 11
31.199999999996411
 21
60.957152116740879
 31
0.0
  0
LINE
  5
1D0B
  8
SAPA_PROFIL
 10
30.441791374795908
 20
28.75763204886492
 30
0.0
 11
30.441791374795859
 21
60.957152116740879
 31
0.0
  0
LINE
  5
1D0C
  8
SAPA_PROFIL
 10
29.74179137479587
 20
28.75763204886492
 30
0.0
 11
29.74179137479581
 21
60.957152116740879
 31
0.0
  0
LINE
  5
1D0D
  8
SAPA_PROFIL
 10
40.97543824846673
 20
28.822692997921969
 30
0.0
 11
40.97543824846678
 21
60.9571521167409
 31
0.0
  0
INSERT
  5
1D69
  8
SAPA_ISOLATOR
  6
CONTINUOUS
  2
*X76
 10
0.0
 20
0.0
 30
0.0
1001
ACAD
1000
HATCH
1002
{
1070
    19
1000
ANSI31
1040
0.35
1040
5.4977871437821371
1000
R14_HATCH_DATA
1000
1D69
1011
1.0
1021
0.0
1031
0.0
1021
0.0
1031
0.0
1011
0.0
1021
0.0
1031
0.0
1021
1.0
1031
0.0
1011
0.0
1021
0.0
1031
0.0
1021
0.0
1031
1.0
1040
0.0
1010
0.0
1020
0.0
1030
1.0
1000
ANSI31
1070
     0
1070
     0
1071
        1
1071
        1
1071
       49
1070
     2
1040
-64.463742496360354
1040
-22.327434307114189
1040
0.3006817060114675
1040
-1.5657379063807291
1040
-0.3498199254894492
1070
     0
1070
     1
1040
-64.181271744820549
1040
-22.224382073492109
1040
-63.295794031949349
1040
-24.65721209503614
1070
     2
1040
-62.919916983633222
1040
-24.520404037703319
1040
0.400000000002539
1040
3.490658503993135
1040
4.7123889803853398
1070
     1
1070
     1
1040
-62.919916983632959
1040
-24.920404037705861
1040
-52.499999998918831
1040
-24.920404037705829
1070
     1
1040
-52.499999998918831
1040
-24.920404037705829
1040
-42.080083014200738
1040
-24.920404037705769
1070
     2
1040
-42.080083014202494
1040
-24.520404037706118
1040
0.3999999999996488
1040
4.7123889803890684
1040
5.9341194567812998
1070
     1
1070
     1
1040
-41.70420596588837
1040
-24.657212095036041
1040
-40.818728253020197
1040
-22.224382073500351
1070
     2
1040
-40.53636568087277
1040
-22.327280516444091
1040
0.3005273892841634
1040
3.4910552070390422
1040
4.7076879318700922
1070
     0
1070
     2
1040
-40.308189705934488
1040
-27.587399522969019
1040
5.5653807064749881
1040
4.6711242502471872
1040
4.7342885622872561
1070
     0
1070
     1
1040
-40.186319937167163
1040
-22.0233533183204
1040
-39.946136872384869
1040
-21.88468356121388
1070
     2
1040
-39.841136872385157
1040
-22.066548896008779
1040
0.2100000000000017
1040
4.188790204787975
1040
6.2831853071790738
1070
     0
1070
     1
1040
-39.631136872385163
1040
-22.066548896008669
1040
-39.631136872385042
1040
-22.33366342422158
1070
     1
1040
-39.631136872385042
1040
-22.33366342422158
1040
-39.29999999891885
1040
-22.529885490005881
1070
     1
1040
-39.29999999891885
1040
-22.529885490005881
1040
-38.316679860938329
1040
-23.097529653503329
1070
     2
1040
-38.211679860940073
1040
-22.91566431870978
1040
0.209999999998109
1040
4.1887902047907026
1040
4.7123889803873293
1070
     1
1070
     1
1040
-38.211679860939512
1040
-23.125664318707891
1040
-37.89999999891694
1040
-23.125664318708001
1070
     2
1040
-37.899999998915028
1040
-22.725664318711871
1040
0.3999999999961332
1040
4.7123889803799113
1040
6.2831853071900472
1070
     1
1070
     1
1040
-37.499999998918902
1040
-22.72566431870769
1040
-37.499999998918838
1040
-19.325664318707929
1070
     2
1040
-37.899999998915902
1040
-19.32566431870503
1040
0.3999999999970676
1040
6.2831853071723121
1040
7.8539816339818991
1070
     1
1070
     1
1040
-37.899999998918872
1040
-18.925664318707959
1040
-38.211679860942517
1040
-18.925664318707959
1070
     2
1040
-38.211679860940869
1040
-19.135664318702911
1040
0.2099999999949489
1040
1.57079632680278
1040
2.0943951023994072
1070
     1
1070
     1
1040
-38.316679860939473
1040
-18.953798983913199
1040
-39.29999999891885
1040
-19.521519130275241
1070
     1
1040
-39.29999999891885
1040
-19.521519130275241
1040
-39.894744110589727
1040
-19.864894803247349
1070
     2
1040
-40.494744110595832
1040
-18.825664318696958
1040
1.2000000000109059
1040
1.047197551195963
1040
1.5707963267926159
1070
     0
1070
     1
1040
-40.494744110593103
1040
-20.025664318707872
1040
-41.446608443479533
1040
-20.025664318707641
1070
     2
1040
-41.446608443470517
1040
-21.025664318699889
1040
0.9999999999922533
1040
1.570796326803906
1040
2.7925268031964121
1070
     1
1070
     1
1040
-42.386301064251029
1040
-20.683644175382032
1040
-43.177415089160881
1040
-22.85721209503572
1070
     2
1040
-43.553292137476362
1040
-22.720404037704451
1040
0.4000000000013905
1040
0.3490658504002764
1040
1.5707963267925069
1070
     0
1070
     1
1040
-43.553292137475403
1040
-23.120404037705839
1040
-52.499999998918831
1040
-23.120404037705839
1070
     1
1040
-52.499999998918831
1040
-23.120404037705839
1040
-61.446707860362331
1040
-23.120404037705899
1070
     2
1040
-61.446707860363318
1040
-22.720404037707318
1040
0.3999999999985775
1040
1.570796326792411
1040
2.7925268031846149
1070
     0
1070
     1
1040
-61.822584908675481
1040
-22.857212095039479
1040
-62.613698933586591
1040
-20.683644175382259
1070
     2
1040
-63.553391554381747
1040
-21.025664318721141
1040
1.000000000013211
1040
6.632251157587703
1040
7.853981633979922
1070
     1
1070
     1
1040
-63.55339155438719
1040
-20.025664318707928
1040
-64.505255887244687
1040
-20.025664318707928
1070
     2
1040
-64.505255887247685
1040
-18.8256643187189
1040
1.1999999999890261
1040
1.570796326792401
1040
2.094395102389051
1070
     0
1070
     1
1040
-65.105255887237888
1040
-19.864894803253211
1040
-65.692820321946385
1040
-19.525664318707989
1070
     1
1040
-65.692820321946385
1040
-19.525664318707989
1040
-66.683320136898317
1040
-18.953798983913259
1070
     2
1040
-66.788320136899983
1040
-19.135664318714412
1040
0.2100000000063851
1040
7.3303828583845627
1040
7.8539816339812401
1070
     1
1070
     1
1040
-66.788320136901405
1040
-18.925664318708019
1040
-67.099999998918904
1040
-18.925664318707959
1070
     2
1040
-67.099999998915948
1040
-19.32566431871092
1040
0.40000000000295
1040
1.5707963268023291
1040
3.141592653592308
1070
     1
1070
     1
1040
-67.499999998918895
1040
-19.325664318711919
1040
-67.499999998918895
1040
-22.725664318707981
1070
     2
1040
-67.099999998916914
1040
-22.725664318705981
1040
0.4000000000019782
1040
3.1415926535947949
1040
4.7123889803848034
1070
     1
1070
     1
1040
-67.099999998916871
1040
-23.125664318707951
1040
-66.788320136898221
1040
-23.125664318707951
1070
     2
1040
-66.78832013689869
1040
-22.91566431870605
1040
0.2100000000019078
1040
4.7123889803869421
1040
5.2359877559835688
1070
     1
1070
     1
1040
-66.683320136897635
1040
-23.09752965350237
1040
-65.368863125452634
1040
-22.333663424221591
1070
     1
1040
-65.368863125452634
1040
-22.333663424221591
1040
-65.368863125452521
1040
-22.066548896008669
1070
     2
1040
-65.158863125452513
1040
-22.066548896008779
1040
0.2100000000000017
1040
3.1415926535902998
1040
5.235987755981399
1070
     0
1070
     1
1040
-65.053863125452807
1040
-21.88468356121388
1040
-64.813680060670507
1040
-22.02335331832041
1070
     2
1040
-64.691810291900111
1040
-27.58739952241153
1040
5.5653807059176952
1040
4.6904893984793761
1040
4.7536537105194441
1070
     0
1071
        0
1070
     0
1070
     1
1040
5.4977871437821371
1040
0.35
1070
     0
1070
     1
1040
0.0
1040
0.0
1040
0.0
1040
0.0000000000000003
1040
1.111249999999999
1070
     0
1071
        1
1040
-67.50000014973466
1040
-24.920404230726039
1040
0.0
1002
}
  0
INSERT
  5
1D6A
  8
SAPA_ISOLATOR
  6
CONTINUOUS
  2
*X77
 10
0.0
 20
0.0
 30
0.0
1001
ACAD
1000
HATCH
1002
{
1070
    19
1000
ANSI31
1040
0.35
1040
3.926990816987241
1000
R14_HATCH_DATA
1000
1D6A
1011
1.0
1021
0.0
1031
0.0
1021
0.0
1031
0.0
1011
0.0
1021
0.0
1031
0.0
1021
1.0
1031
0.0
1011
0.0
1021
0.0
1031
0.0
1021
0.0
1031
1.0
1040
0.0
1010
0.0
1020
0.0
1030
1.0
1000
ANSI31
1070
     0
1070
     0
1071
        1
1071
        1
1071
       49
1070
     2
1040
-64.463742496360354
1040
-7.6725641987275122
1040
0.3006817060114675
1040
-1.5657379063807291
1040
-0.3498199254894492
1070
     1
1070
     1
1040
-64.181271744820549
1040
-7.775616432349584
1040
-63.295794031949349
1040
-5.342786410805564
1070
     2
1040
-62.919916983633222
1040
-5.479594468138381
1040
0.400000000002539
1040
3.490658503993135
1040
4.7123889803853398
1070
     0
1070
     1
1040
-62.919916983632959
1040
-5.0795944681358431
1040
-52.499999998918831
1040
-5.0795944681358733
1070
     1
1040
-52.499999998918831
1040
-5.0795944681358733
1040
-42.080083014200738
1040
-5.079594468135932
1070
     2
1040
-42.080083014202494
1040
-5.4795944681355824
1040
0.3999999999996488
1040
4.7123889803890684
1040
5.9341194567812998
1070
     0
1070
     1
1040
-41.70420596588837
1040
-5.342786410805652
1040
-40.818728253020197
1040
-7.7756164323413461
1070
     2
1040
-40.53636568087277
1040
-7.6727179893976061
1040
0.3005273892841634
1040
3.4910552070390422
1040
4.7076879318700922
1070
     1
1070
     2
1040
-40.308189705934488
1040
-2.4125989828726819
1040
5.5653807064749881
1040
4.6711242502471872
1040
4.7342885622872561
1070
     1
1070
     1
1040
-40.186319937167163
1040
-7.9766451875212949
1040
-39.946136872384869
1040
-8.1153149446278192
1070
     2
1040
-39.841136872385157
1040
-7.9334496098329188
1040
0.2100000000000017
1040
4.188790204787975
1040
6.2831853071790738
1070
     1
1070
     1
1040
-39.631136872385163
1040
-7.933449609833028
1040
-39.631136872385042
1040
-7.6663350816201152
1070
     1
1040
-39.631136872385042
1040
-7.6663350816201143
1040
-39.29999999891885
1040
-7.4701130158358158
1070
     1
1040
-39.29999999891885
1040
-7.4701130158358158
1040
-38.316679860938329
1040
-6.9024688523383677
1070
     2
1040
-38.211679860940073
1040
-7.0843341871319137
1040
0.209999999998109
1040
4.1887902047907026
1040
4.7123889803873293
1070
     0
1070
     1
1040
-38.211679860939512
1040
-6.8743341871338073
1040
-37.89999999891694
1040
-6.8743341871336954
1070
     2
1040
-37.899999998915028
1040
-7.2743341871298259
1040
0.3999999999961332
1040
4.7123889803799113
1040
6.2831853071900472
1070
     0
1070
     1
1040
-37.499999998918902
1040
-7.274334187134011
1040
-37.499999998918838
1040
-10.674334187133759
1070
     2
1040
-37.899999998915902
1040
-10.674334187136671
1040
0.3999999999970676
1040
6.2831853071723121
1040
7.8539816339818991
1070
     0
1070
     1
1040
-37.899999998918872
1040
-11.07433418713374
1040
-38.211679860942517
1040
-11.07433418713374
1070
     2
1040
-38.211679860940869
1040
-10.864334187138789
1040
0.2099999999949489
1040
1.57079632680278
1040
2.0943951023994072
1070
     0
1070
     1
1040
-38.316679860939473
1040
-11.046199521928489
1040
-39.29999999891885
1040
-10.47847937556646
1070
     1
1040
-39.29999999891885
1040
-10.47847937556646
1040
-39.894744110589727
1040
-10.135103702594339
1070
     2
1040
-40.494744110595832
1040
-11.17433418714473
1040
1.2000000000109059
1040
1.047197551195963
1040
1.5707963267926159
1070
     1
1070
     1
1040
-40.494744110593103
1040
-9.9743341871338291
1040
-41.446608443479533
1040
-9.9743341871340583
1070
     2
1040
-41.446608443470517
1040
-8.9743341871418032
1040
0.9999999999922533
1040
1.570796326803906
1040
2.7925268031964121
1070
     0
1070
     1
1040
-42.386301064251029
1040
-9.3163543304596672
1040
-43.177415089160881
1040
-7.1427864108059769
1070
     2
1040
-43.553292137476362
1040
-7.2795944681372493
1040
0.4000000000013905
1040
0.3490658504002764
1040
1.5707963267925069
1070
     1
1070
     1
1040
-43.553292137475403
1040
-6.8795944681358581
1040
-52.499999998918831
1040
-6.8795944681358536
1070
     1
1040
-52.499999998918831
1040
-6.8795944681358563
1040
-61.446707860362331
1040
-6.8795944681357968
1070
     2
1040
-61.446707860363318
1040
-7.2795944681343752
1040
0.3999999999985775
1040
1.570796326792411
1040
2.7925268031846149
1070
     1
1070
     1
1040
-61.822584908675481
1040
-7.1427864108022208
1040
-62.613698933586591
1040
-9.3163543304594381
1070
     2
1040
-63.553391554381747
1040
-8.9743341871205562
1040
1.000000000013211
1040
6.632251157587703
1040
7.853981633979922
1070
     0
1070
     1
1040
-63.55339155438719
1040
-9.9743341871337687
1040
-64.505255887244687
1040
-9.9743341871337687
1070
     2
1040
-64.505255887247685
1040
-11.17433418712279
1040
1.1999999999890261
1040
1.570796326792401
1040
2.094395102389051
1070
     1
1070
     1
1040
-65.105255887237888
1040
-10.135103702588481
1040
-65.692820321946385
1040
-10.47433418713371
1070
     1
1040
-65.692820321946385
1040
-10.47433418713371
1040
-66.683320136898317
1040
-11.046199521928431
1070
     2
1040
-66.788320136899983
1040
-10.864334187127289
1040
0.2100000000063851
1040
7.3303828583845627
1040
7.8539816339812401
1070
     0
1070
     1
1040
-66.788320136901405
1040
-11.074334187133671
1040
-67.099999998918904
1040
-11.074334187133729
1070
     2
1040
-67.099999998915948
1040
-10.67433418713078
1040
0.40000000000295
1040
1.5707963268023291
1040
3.141592653592308
1070
     0
1070
     1
1040
-67.499999998918895
1040
-10.674334187129769
1040
-67.499999998918895
1040
-7.2743341871337206
1070
     2
1040
-67.099999998916914
1040
-7.2743341871357217
1040
0.4000000000019782
1040
3.1415926535947949
1040
4.7123889803848034
1070
     0
1070
     1
1040
-67.099999998916871
1040
-6.8743341871337451
1040
-66.788320136898221
1040
-6.8743341871337451
1070
     2
1040
-66.78832013689869
1040
-7.0843341871356529
1040
0.2100000000019078
1040
4.7123889803869421
1040
5.2359877559835688
1070
     0
1070
     1
1040
-66.683320136897635
1040
-6.9024688523393287
1040
-65.368863125452634
1040
-7.666335081620109
1070
     1
1040
-65.368863125452634
1040
-7.666335081620109
1040
-65.368863125452521
1040
-7.9334496098330236
1070
     2
1040
-65.158863125452513
1040
-7.933449609832917
1040
0.2100000000000017
1040
3.1415926535902998
1040
5.235987755981399
1070
     1
1070
     1
1040
-65.053863125452807
1040
-8.1153149446278174
1040
-64.813680060670507
1040
-7.976645187521294
1070
     2
1040
-64.691810291900111
1040
-2.4125989834301729
1040
5.5653807059176952
1040
4.6904893984793761
1040
4.7536537105194441
1070
     1
1071
        0
1070
     0
1070
     1
1040
3.926990816987241
1040
0.35
1070
     0
1070
     1
1040
4.7123889803846888
1040
-67.50000014973466
1040
-5.0795942751156566
1040
1.111249999999999
1040
-0.0000000000000005
1070
     0
1071
        1
1040
-67.50000014973466
1040
-5.0795942751156566
1040
0.0
1002
}
  0
LINE
  5
1D6B
  8
SAPA_ISOLATOR
 10
-70.199999999012164
 20
3.8000003735347709
 30
0.0
 11
-63.099999999012191
 21
3.800000373535795
 31
0.0
  0
ARC
  5
1D6C
  8
SAPA_ISOLATOR
 10
-70.199999999012164
 20
3.3000003735347709
 30
0.0
 40
0.5
 50
90.0
 51
180.0
  0
LINE
  5
1D6D
  8
SAPA_ISOLATOR
 10
-70.699999999012164
 20
-3.2999996264651368
 30
0.0
 11
-70.699999999012164
 21
3.3000003735347709
 31
0.0
  0
ARC
  5
1D6E
  8
SAPA_ISOLATOR
 10
-70.199999999012164
 20
-3.2999996264651368
 30
0.0
 40
0.5
 50
180.0
 51
270.0
  0
LINE
  5
1D6F
  8
SAPA_ISOLATOR
 10
-63.099999999012027
 20
-3.799999626464114
 30
0.0
 11
-70.199999999012164
 21
-3.7999996264651368
 31
0.0
  0
ARC
  5
1D70
  8
SAPA_ISOLATOR
 10
-63.099999999012091
 20
-3.2999996264641052
 30
0.0
 40
0.5000000000000071
 50
270.00000000000728
 51
359.99999999999898
  0
LINE
  5
1D71
  8
SAPA_ISOLATOR
 10
-62.599999999012141
 20
3.300000373535795
 30
0.0
 11
-62.599999999012077
 21
-3.299999626464114
 31
0.0
  0
ARC
  5
1D72
  8
SAPA_ISOLATOR
 10
-63.099999999012127
 20
3.300000373535803
 30
0.0
 40
0.4999999999999912
 50
359.99999999999898
 51
90.000000000007304
  0
LINE
  5
1D73
  8
SAPA_ISOLATOR
 10
-80.299999999010254
 20
6.8000003735354531
 30
0.0
 11
-71.499999999010072
 21
6.8000003735347709
 31
0.0
  0
ARC
  5
1D74
  8
SAPA_ISOLATOR
 10
-80.299999999010495
 20
5.8000003735354531
 30
0.0
 40
1.0
 50
89.999999999986969
 51
180.0
  0
LINE
  5
1D75
  8
SAPA_ISOLATOR
 10
-81.299999999010481
 20
5.087372370187154
 30
0.0
 11
-81.299999999010481
 21
5.8000003735354531
 31
0.0
  0
ARC
  5
1D76
  8
SAPA_ISOLATOR
 10
-80.999999999010754
 20
5.0873723701873761
 30
0.0
 40
0.2999999999997271
 50
180.00000000004241
 51
230.00000000006
  0
LINE
  5
1D77
  8
SAPA_ISOLATOR
 10
-80.492055318909081
 20
4.2695339896559972
 30
0.0
 11
-81.192836281916286
 21
4.857559037251689
 31
0.0
  0
ARC
  5
1D78
  8
SAPA_ISOLATOR
 10
-80.299999999010026
 20
4.500000373534812
 30
0.0
 40
0.2999999999994998
 50
230.19442890772871
 51
0.0000000000442733
  0
LINE
  5
1D79
  8
SAPA_ISOLATOR
 10
-79.999999999010072
 20
5.3000003735349992
 30
0.0
 11
-79.999999999010527
 21
4.5000003735350438
 31
0.0
  0
ARC
  5
1D7A
  8
SAPA_ISOLATOR
 10
-79.699999999010458
 20
5.3000003735351147
 30
0.0
 40
0.2999999999996108
 50
89.999999999934857
 51
180.0000000000222
  0
LINE
  5
1D7B
  8
SAPA_ISOLATOR
 10
-72.499999999010527
 20
5.6000003735344981
 30
0.0
 11
-79.699999999010117
 21
5.6000003735347264
 31
0.0
  0
ARC
  5
1D7C
  8
SAPA_ISOLATOR
 10
-72.50013621431691
 20
5.299671520693777
 30
0.0
 40
0.3003288837312077
 50
270.02598671944082
 51
89.974013280602605
  0
LINE
  5
1D7D
  8
SAPA_ISOLATOR
 10
-72.499999999010242
 20
0.8660257773196917
 30
0.0
 11
-72.499999999010299
 21
4.9993426678530559
 31
0.0
  0
LINE
  5
1D7E
  8
SAPA_ISOLATOR
 10
-71.999999999010129
 20
0.0000003735350447
 30
0.0
 11
-72.499999999010242
 21
0.8660257773196917
 31
0.0
  0
LINE
  5
1D7F
  8
SAPA_ISOLATOR
 10
-72.499999999010015
 20
-0.8660250302492613
 30
0.0
 11
-71.999999999010129
 21
0.0000003735350447
 31
0.0
  0
LINE
  5
1D80
  8
SAPA_ISOLATOR
 10
-72.499999999010299
 20
-4.9993419207834222
 30
0.0
 11
-72.499999999010015
 21
-0.8660250302492613
 31
0.0
  0
ARC
  5
1D81
  8
SAPA_ISOLATOR
 10
-72.500136214317138
 20
-5.2996707736243698
 30
0.0
 40
0.3003288837314351
 50
270.02598671944082
 51
89.974013280515891
  0
LINE
  5
1D82
  8
SAPA_ISOLATOR
 10
-79.699999999010117
 20
-5.5999996264650909
 30
0.0
 11
-72.499999999010527
 21
-5.5999996264653191
 31
0.0
  0
ARC
  5
1D83
  8
SAPA_ISOLATOR
 10
-79.699999999010345
 20
-5.2999996264651372
 30
0.0
 40
0.2999999999999545
 50
180.0000000000434
 51
270.00000000004343
  0
LINE
  5
1D84
  8
SAPA_ISOLATOR
 10
-79.999999999010527
 20
-4.4999996264644997
 30
0.0
 11
-79.999999999010299
 21
-5.2999996264653637
 31
0.0
  0
ARC
  5
1D85
  8
SAPA_ISOLATOR
 10
-80.299999999010467
 20
-4.4999996264635982
 30
0.0
 40
0.2999999999999353
 50
359.99999999982771
 51
129.805571092094
  0
LINE
  5
1D86
  8
SAPA_ISOLATOR
 10
-81.192836281916286
 20
-4.8575582901793259
 30
0.0
 11
-80.492055318909081
 21
-4.2695332425838606
 31
0.0
  0
ARC
  5
1D87
  8
SAPA_ISOLATOR
 10
-80.999999999010555
 20
-5.0873716231150992
 30
0.0
 40
0.2999999999999119
 50
129.99999999995649
 51
179.99999999998451
  0
LINE
  5
1D88
  8
SAPA_ISOLATOR
 10
-81.299999999010481
 20
-5.7999996264653637
 30
0.0
 11
-81.299999999010481
 21
-5.0873716231150183
 31
0.0
  0
ARC
  5
1D89
  8
SAPA_ISOLATOR
 10
-80.299999999010495
 20
-5.7999996264653362
 30
0.0
 40
0.9999999999999715
 50
180.00000000000159
 51
270.00000000000171
  0
LINE
  5
1D8A
  8
SAPA_ISOLATOR
 10
-71.499999999010527
 20
-6.7999996264650804
 30
0.0
 11
-80.299999999010495
 21
-6.7999996264653069
 31
0.0
  0
ARC
  5
1D8B
  8
SAPA_ISOLATOR
 10
-71.499999999010157
 20
-6.2999996264648814
 30
0.0
 40
0.500000000000199
 50
269.99999999995759
 51
359.99999999997061
  0
LINE
  5
1D8C
  8
SAPA_ISOLATOR
 10
-70.999999999009958
 20
-5.4999996264676829
 30
0.0
 11
-70.999999999009958
 21
-6.2999996264651372
 31
0.0
  0
ARC
  5
1D8D
  8
SAPA_ISOLATOR
 10
-70.499999999009958
 20
-5.4999996264676829
 30
0.0
 40
0.5
 50
90.0
 51
180.0
  0
LINE
  5
1D8E
  8
SAPA_ISOLATOR
 10
-52.999999999011997
 20
-4.9999996264624542
 30
0.0
 11
-70.499999999009958
 21
-4.9999996264676829
 31
0.0
  0
ARC
  5
1D8F
  8
SAPA_ISOLATOR
 10
-52.999999999011997
 20
-4.4999996264624542
 30
0.0
 40
0.5
 50
270.0
 51
0.0
  0
LINE
  5
1D90
  8
SAPA_ISOLATOR
 10
-52.499999999011997
 20
-3.099999252924249
 30
0.0
 11
-52.499999999011997
 21
-4.4999996264624542
 31
0.0
  0
LINE
  5
1D91
  8
SAPA_ISOLATOR
 10
-51.700000372551528
 20
-2.2999996264639999
 30
0.0
 11
-52.499999999011997
 21
-3.099999252924249
 31
0.0
  0
LINE
  5
1D92
  8
SAPA_ISOLATOR
 10
-47.241781050847912
 20
-2.2999996264639999
 30
0.0
 11
-51.700000372551528
 21
-2.2999996264639999
 31
0.0
  0
ARC
  5
1D93
  8
SAPA_ISOLATOR
 10
-49.344890072917273
 20
4.1158137332288911
 30
0.0
 40
6.751720419650332
 50
288.14918733854262
 51
310.32822698929499
  0
ARC
  5
1D94
  8
SAPA_ISOLATOR
 10
-45.85642357346304
 20
0.0000007470754409
 30
0.0
 40
1.356423574450988
 50
310.50482872848471
 51
49.495171271521613
  0
ARC
  5
1D95
  8
SAPA_ISOLATOR
 10
-49.344890072919561
 20
-4.1158122390722687
 30
0.0
 40
6.7517204196474427
 50
49.671773010659912
 51
71.850792308486703
  0
LINE
  5
1D96
  8
SAPA_ISOLATOR
 10
-51.699999625472572
 20
2.3000003735359078
 30
0.0
 11
-47.241778771785278
 21
2.3000003735377268
 31
0.0
  0
LINE
  5
1D97
  8
SAPA_ISOLATOR
 10
-52.499999999011997
 20
3.1000007470753408
 30
0.0
 11
-51.699999625472572
 21
2.3000003735359078
 31
0.0
  0
LINE
  5
1D98
  8
SAPA_ISOLATOR
 10
-52.499999999011997
 20
4.500000373537091
 30
0.0
 11
-52.499999999011997
 21
3.1000007470753408
 31
0.0
  0
ARC
  5
1D99
  8
SAPA_ISOLATOR
 10
-52.999999999011997
 20
4.500000373537091
 30
0.0
 40
0.5
 50
0.0
 51
90.0
  0
LINE
  5
1D9A
  8
SAPA_ISOLATOR
 10
-70.499999999009958
 20
5.0000003735373184
 30
0.0
 11
-52.999999999011997
 21
5.000000373537091
 31
0.0
  0
ARC
  5
1D9B
  8
SAPA_ISOLATOR
 10
-70.499999999009958
 20
5.5000003735373184
 30
0.0
 40
0.5
 50
180.0
 51
270.0
  0
LINE
  5
1D9C
  8
SAPA_ISOLATOR
 10
-70.999999999009958
 20
6.3000003735347709
 30
0.0
 11
-70.999999999009958
 21
5.5000003735373184
 31
0.0
  0
ARC
  5
1D9D
  8
SAPA_ISOLATOR
 10
-71.499999999009987
 20
6.3000003735347434
 30
0.0
 40
0.5000000000000285
 50
0.0000000000032569
 51
90.000000000009763
  0
ARC
  5
1D9E
  8
SAPA_ISOLATOR
 10
-53.999999999011777
 20
3.500000373537318
 30
0.0
 40
0.2999999999999545
 50
0.0
 51
90.000000000043414
  0
LINE
  5
1D9F
  8
SAPA_ISOLATOR
 10
-61.099999999012141
 20
3.8000003735361361
 30
0.0
 11
-53.999999999012012
 21
3.800000373537272
 31
0.0
  0
ARC
  5
1DA0
  8
SAPA_ISOLATOR
 10
-61.09999999901207
 20
3.3000003735361232
 30
0.0
 40
0.5000000000000142
 50
90.000000000008114
 51
179.99999999999861
  0
LINE
  5
1DA1
  8
SAPA_ISOLATOR
 10
-61.59999999901202
 20
-3.2999996264636589
 30
0.0
 11
-61.599999999012077
 21
3.3000003735361361
 31
0.0
  0
ARC
  5
1DA2
  8
SAPA_ISOLATOR
 10
-61.099999999012027
 20
-3.2999996264636682
 30
0.0
 40
0.4999999999999912
 50
179.99999999999901
 51
270.00000000000728
  0
LINE
  5
1DA3
  8
SAPA_ISOLATOR
 10
-53.999999999012012
 20
-3.7999996264626361
 30
0.0
 11
-61.09999999901197
 21
-3.7999996264636589
 31
0.0
  0
ARC
  5
1DA4
  8
SAPA_ISOLATOR
 10
-53.999999999012111
 20
-3.499999626462567
 30
0.0
 40
0.3000000000000682
 50
270.0000000000216
 51
359.99999999997829
  0
LINE
  5
1DA5
  8
SAPA_ISOLATOR
 10
-53.69999999901205
 20
-2.6029429780766118
 30
0.0
 11
-53.69999999901205
 21
-3.4999996264626811
 31
0.0
  0
LINE
  5
1DA6
  8
SAPA_ISOLATOR
 10
-52.197056647398938
 20
-1.099999626463954
 30
0.0
 11
-53.69999999901205
 21
-2.6029429780766118
 31
0.0
  0
LINE
  5
1DA7
  8
SAPA_ISOLATOR
 10
-46.478138086686783
 20
-1.099999626463954
 30
0.0
 11
-52.197056647398938
 21
-1.099999626463954
 31
0.0
  0
ARC
  5
1DA8
  8
SAPA_ISOLATOR
 10
-49.345115413884287
 20
4.1161789070879093
 30
0.0
 40
5.9521489807087189
 50
298.79459217278452
 51
310.3038695677597
  0
ARC
  5
1DA9
  8
SAPA_ISOLATOR
 10
-45.85642357346336
 20
0.000000747075724
 30
0.0
 40
0.5564235744509308
 50
310.50482872843122
 51
49.495171271476437
  0
ARC
  5
1DAA
  8
SAPA_ISOLATOR
 10
-49.345115414542249
 20
-4.1161774138437739
 30
0.0
 40
5.9521489818262543
 50
49.69613043305101
 51
61.20539289560255
  0
LINE
  5
1DAB
  8
SAPA_ISOLATOR
 10
-52.197055900320429
 20
1.1000003735360899
 30
0.0
 11
-46.47813672744013
 21
1.1000003735363171
 31
0.0
  0
LINE
  5
1DAC
  8
SAPA_ISOLATOR
 10
-53.699999999011823
 20
2.602944472227477
 30
0.0
 11
-52.197055900320429
 21
1.1000003735360899
 31
0.0
  0
LINE
  5
1DAD
  8
SAPA_ISOLATOR
 10
-53.699999999011823
 20
3.500000373537318
 30
0.0
 11
-53.699999999011823
 21
2.602944472227477
 31
0.0
  0
POLYLINE
  5
1DBC
  8
SAPA_FOGBAND
 66
     1
 10
0.0
 20
0.0
 30
0.0
 70
     1
  0
VERTEX
  5
24A8
  8
SAPA_FOGBAND
 10
-80.740583234060807
 20
-4.1895206841768022
 30
0.0
  0
VERTEX
  5
24A9
  8
SAPA_FOGBAND
 10
-80.517286458802715
 20
-4.189520684176788
 30
0.0
 42
-0.3500011104185251
  0
VERTEX
  5
24AA
  8
SAPA_FOGBAND
 10
-79.737289624367861
 20
-4.8117429063990222
 30
0.0
 42
0.3500011104185275
  0
VERTEX
  5
24AB
  8
SAPA_FOGBAND
 10
-78.762293581324286
 20
-5.5895206841767928
 30
0.0
  0
VERTEX
  5
24AC
  8
SAPA_FOGBAND
 10
-78.437289624367835
 20
-5.5895206841767946
 30
0.0
 42
0.4142135623730992
  0
VERTEX
  5
24AD
  8
SAPA_FOGBAND
 10
-77.43728962436785
 20
-4.5895206841767946
 30
0.0
  0
VERTEX
  5
24AE
  8
SAPA_FOGBAND
 10
-77.43728962436785
 20
4.6104793158232242
 30
0.0
 42
0.4142135623730909
  0
VERTEX
  5
24AF
  8
SAPA_FOGBAND
 10
-78.437289624367835
 20
5.61047931582321
 30
0.0
  0
VERTEX
  5
24B0
  8
SAPA_FOGBAND
 10
-78.762293581324286
 20
5.6104793158232242
 30
0.0
 42
0.3500011104185275
  0
VERTEX
  5
24B1
  8
SAPA_FOGBAND
 10
-79.737289624367833
 20
4.8327015380454519
 30
0.0
 42
-0.3500011104185328
  0
VERTEX
  5
24B2
  8
SAPA_FOGBAND
 10
-80.517286458802715
 20
4.2104793158232043
 30
0.0
  0
VERTEX
  5
24B3
  8
SAPA_FOGBAND
 10
-80.740583234060807
 20
4.2104793158232043
 30
0.0
 42
-0.380963100045198
  0
VERTEX
  5
24B4
  8
SAPA_FOGBAND
 10
-81.237289624367861
 20
4.653183924838058
 30
0.0
 42
-0.0458039546811979
  0
VERTEX
  5
24B5
  8
SAPA_FOGBAND
 10
-81.313936755455245
 20
7.942287484472625
 30
0.0
 42
0.9570085662280619
  0
VERTEX
  5
24B6
  8
SAPA_FOGBAND
 10
-83.299449725939098
 20
8.1659484996099927
 30
0.0
 42
0.0782100801382191
  0
VERTEX
  5
24B7
  8
SAPA_FOGBAND
 10
-83.299449725939127
 20
-8.1449898679635631
 30
0.0
 42
0.9570085662280891
  0
VERTEX
  5
24B8
  8
SAPA_FOGBAND
 10
-81.313936755455245
 20
-7.9213288528261669
 30
0.0
 42
-0.0458039546811975
  0
VERTEX
  5
24B9
  8
SAPA_FOGBAND
 10
-81.237289624367861
 20
-4.6322252931916541
 30
0.0
 42
-0.380963100045198
  0
SEQEND
  5
24BA
  8
SAPA_FOGBAND
  0
CIRCLE
  5
1DBD
  8
SAPA_FOGBAND
 10
-36.800000000001774
 20
23.106097556107599
 30
0.0
 40
0.2549509756796394
  0
POLYLINE
  5
1DBE
  8
SAPA_FOGBAND
 66
     1
 10
0.0
 20
0.0
 30
0.0
 70
     1
  0
VERTEX
  5
24BB
  8
SAPA_FOGBAND
 10
-35.500000000001769
 20
20.75609755610763
 30
0.0
 42
-0.4142135623730951
  0
VERTEX
  5
24BC
  8
SAPA_FOGBAND
 10
-35.300000000001774
 20
20.956097556107618
 30
0.0
  0
VERTEX
  5
24BD
  8
SAPA_FOGBAND
 10
-33.500000000001762
 20
20.956097556107618
 30
0.0
 42
-0.9999999999999998
  0
VERTEX
  5
24BE
  8
SAPA_FOGBAND
 10
-33.500000000001762
 20
19.656097556107611
 30
0.0
  0
VERTEX
  5
24BF
  8
SAPA_FOGBAND
 10
-35.300000000001774
 20
19.656097556107611
 30
0.0
 42
-0.4142135623730951
  0
VERTEX
  5
24C0
  8
SAPA_FOGBAND
 10
-35.500000000001769
 20
19.856097556107589
 30
0.0
  0
VERTEX
  5
24C1
  8
SAPA_FOGBAND
 10
-35.500000000001769
 20
20.606097556107599
 30
0.0
  0
SEQEND
  5
24C2
  8
SAPA_FOGBAND
  0
POLYLINE
  5
1DBF
  8
SAPA_FOGBAND
 66
     1
 10
0.0
 20
0.0
 30
0.0
 70
     1
  0
VERTEX
  5
24C3
  8
SAPA_FOGBAND
 10
-35.500000000001769
 20
16.352507717621371
 30
0.0
 42
0.267949192431121
  0
VERTEX
  5
24C4
  8
SAPA_FOGBAND
 10
-35.400000000001739
 20
16.179302636864499
 30
0.0
 42
-0.7673269879789569
  0
VERTEX
  5
24C5
  8
SAPA_FOGBAND
 10
-35.500000000001769
 20
15.806097556107639
 30
0.0
  0
VERTEX
  5
24C6
  8
SAPA_FOGBAND
 10
-42.782887030406009
 20
15.806097556107639
 30
0.0
 42
-0.4602937089574736
  0
VERTEX
  5
24C7
  8
SAPA_FOGBAND
 10
-42.980497721843051
 20
16.036919863447999
 30
0.0
  0
VERTEX
  5
24C8
  8
SAPA_FOGBAND
 10
-42.387406737847577
 20
18.4962559949747
 30
0.0
 42
0.6910703998708235
  0
VERTEX
  5
24C9
  8
SAPA_FOGBAND
 10
-42.712834204139313
 20
18.680905712309979
 30
0.0
  0
VERTEX
  5
24CA
  8
SAPA_FOGBAND
 10
-43.008274837719739
 20
15.982704989567241
 30
0.0
 42
-0.928378177954751
  0
VERTEX
  5
24CB
  8
SAPA_FOGBAND
 10
-43.423753435875142
 20
16.413282037101439
 30
0.0
  0
VERTEX
  5
24CC
  8
SAPA_FOGBAND
 10
-43.228542559027183
 20
19.55852130638895
 30
0.0
 42
0.6076316918600427
  0
VERTEX
  5
24CD
  8
SAPA_FOGBAND
 10
-43.323096729694377
 20
19.807435679851761
 30
0.0
 42
-0.38070580105552
  0
VERTEX
  5
24CE
  8
SAPA_FOGBAND
 10
-43.500000000001712
 20
20.00609755610764
 30
0.0
  0
VERTEX
  5
24CF
  8
SAPA_FOGBAND
 10
-43.500000000001712
 20
20.306097556107652
 30
0.0
  0
VERTEX
  5
24D0
  8
SAPA_FOGBAND
 10
-43.500000000001712
 20
20.606097556107599
 30
0.0
 42
-0.3807058010555201
  0
VERTEX
  5
24D1
  8
SAPA_FOGBAND
 10
-43.323096729694321
 20
20.804759432363412
 30
0.0
 42
0.6076316918600374
  0
VERTEX
  5
24D2
  8
SAPA_FOGBAND
 10
-43.228542559027183
 20
21.053673805826278
 30
0.0
  0
VERTEX
  5
24D3
  8
SAPA_FOGBAND
 10
-43.423753435875021
 20
24.307288722534949
 30
0.0
 42
-0.9283781779547513
  0
VERTEX
  5
24D4
  8
SAPA_FOGBAND
 10
-43.008274837719561
 20
24.737865770069149
 30
0.0
  0
VERTEX
  5
24D5
  8
SAPA_FOGBAND
 10
-42.709922924871421
 20
21.90135154659264
 30
0.0
 42
0.6910703998708235
  0
VERTEX
  5
24D6
  8
SAPA_FOGBAND
 10
-42.384495458579693
 20
22.086001263927908
 30
0.0
  0
VERTEX
  5
24D7
  8
SAPA_FOGBAND
 10
-42.980497721843051
 20
24.57527524876723
 30
0.0
 42
-0.4602937089574736
  0
VERTEX
  5
24D8
  8
SAPA_FOGBAND
 10
-42.782887030406009
 20
24.806097556107641
 30
0.0
  0
VERTEX
  5
24D9
  8
SAPA_FOGBAND
 10
-35.500000000001769
 20
24.806097556107641
 30
0.0
 42
-0.7673269879789572
  0
VERTEX
  5
24DA
  8
SAPA_FOGBAND
 10
-35.400000000001739
 20
24.43289247535072
 30
0.0
 42
0.267949192431121
  0
VERTEX
  5
24DB
  8
SAPA_FOGBAND
 10
-35.500000000001769
 20
24.25968739459385
 30
0.0
  0
VERTEX
  5
24DC
  8
SAPA_FOGBAND
 10
-35.500000000001769
 20
22.056097556107641
 30
0.0
 42
0.4142135623730946
  0
VERTEX
  5
24DD
  8
SAPA_FOGBAND
 10
-35.400000000001739
 20
21.956097556107618
 30
0.0
  0
VERTEX
  5
24DE
  8
SAPA_FOGBAND
 10
-34.400000000001739
 20
21.956097556107618
 30
0.0
  0
VERTEX
  5
24DF
  8
SAPA_FOGBAND
 10
-34.291388579560873
 20
22.314152802333449
 30
0.0
 42
-0.4364998583843341
  0
VERTEX
  5
24E0
  8
SAPA_FOGBAND
 10
-34.027676570640949
 20
22.442562892203888
 30
0.0
  0
VERTEX
  5
24E1
  8
SAPA_FOGBAND
 10
-32.638382853197591
 20
21.90370409872228
 30
0.0
 42
-0.3095538907669666
  0
VERTEX
  5
24E2
  8
SAPA_FOGBAND
 10
-32.000000000001762
 20
20.97137741824103
 30
0.0
  0
VERTEX
  5
24E3
  8
SAPA_FOGBAND
 10
-32.000000000001762
 20
19.640817693974189
 30
0.0
 42
-0.3095538907669666
  0
VERTEX
  5
24E4
  8
SAPA_FOGBAND
 10
-32.638382853197591
 20
18.708491013492939
 30
0.0
  0
VERTEX
  5
24E5
  8
SAPA_FOGBAND
 10
-34.027676570640949
 20
18.16963222001139
 30
0.0
 42
-0.4364998583843343
  0
VERTEX
  5
24E6
  8
SAPA_FOGBAND
 10
-34.291388579560873
 20
18.298042309881829
 30
0.0
  0
VERTEX
  5
24E7
  8
SAPA_FOGBAND
 10
-34.400000000001739
 20
18.6560975561076
 30
0.0
  0
VERTEX
  5
24E8
  8
SAPA_FOGBAND
 10
-35.400000000001739
 20
18.6560975561076
 30
0.0
 42
0.4142135623730946
  0
VERTEX
  5
24E9
  8
SAPA_FOGBAND
 10
-35.500000000001769
 20
18.556097556107641
 30
0.0
  0
SEQEND
  5
24EA
  8
SAPA_FOGBAND
  0
POLYLINE
  5
1DC0
  8
SAPA_FOGBAND
 66
     1
 10
0.0
 20
0.0
 30
0.0
 70
     1
  0
VERTEX
  5
24EB
  8
SAPA_FOGBAND
 10
-37.800000000001774
 20
18.482229998629389
 30
0.0
 42
-0.3042268896177264
  0
VERTEX
  5
24EC
  8
SAPA_FOGBAND
 10
-37.986088961918078
 20
18.204697522326718
 30
0.0
 42
-0.2901372376591382
  0
VERTEX
  5
24ED
  8
SAPA_FOGBAND
 10
-40.213945402555062
 20
18.254982816544938
 30
0.0
 42
-0.1927175523564936
  0
VERTEX
  5
24EE
  8
SAPA_FOGBAND
 10
-40.368941574663609
 20
18.415282796532018
 30
0.0
 42
-0.1963728951991371
  0
VERTEX
  5
24EF
  8
SAPA_FOGBAND
 10
-40.368941574663609
 20
22.19691231568321
 30
0.0
 42
-0.1927175523564951
  0
VERTEX
  5
24F0
  8
SAPA_FOGBAND
 10
-40.213945402555062
 20
22.357212295670301
 30
0.0
 42
-0.2901372376591384
  0
VERTEX
  5
24F1
  8
SAPA_FOGBAND
 10
-37.986088961918078
 20
22.40749758988856
 30
0.0
 42
-0.3042268896177278
  0
VERTEX
  5
24F2
  8
SAPA_FOGBAND
 10
-37.800000000001774
 20
22.12996511358584
 30
0.0
  0
SEQEND
  5
24F3
  8
SAPA_FOGBAND
  0
POLYLINE
  5
1DC1
  8
SAPA_FOGBAND
 66
     1
 10
0.0
 20
0.0
 30
0.0
 70
     1
  0
VERTEX
  5
24F4
  8
SAPA_FOGBAND
 10
-64.360800493659568
 20
8.6651519732758793
 30
0.0
  0
VERTEX
  5
24F5
  8
SAPA_FOGBAND
 10
-64.852752833549417
 20
11.66647913584436
 30
0.0
 42
-0.4464785874932524
  0
VERTEX
  5
24F6
  8
SAPA_FOGBAND
 10
-63.858675528443662
 20
12.77515439279612
 30
0.0
  0
VERTEX
  5
24F7
  8
SAPA_FOGBAND
 10
-62.313435434750787
 20
12.77515439279612
 30
0.0
 42
-0.622676997742357
  0
VERTEX
  5
24F8
  8
SAPA_FOGBAND
 10
-61.52155370658739
 20
11.164479906182329
 30
0.0
  0
VERTEX
  5
24F9
  8
SAPA_FOGBAND
 10
-62.44077696863998
 20
8.1631527436129367
 30
0.0
 42
-0.232531183213058
  0
VERTEX
  5
24FA
  8
SAPA_FOGBAND
 10
-63.232658696803817
 20
7.773827230225816
 30
0.0
  0
VERTEX
  5
24FB
  8
SAPA_FOGBAND
 10
-63.36672318855382
 20
7.7738272302267246
 30
0.0
 42
-0.3826682380870913
  0
SEQEND
  5
24FC
  8
SAPA_FOGBAND
  0
POLYLINE
  5
1DC2
  8
SAPA_FOGBAND
 66
     1
 10
0.0
 20
0.0
 30
0.0
 70
     1
  0
VERTEX
  5
24FD
  8
SAPA_FOGBAND
 10
-57.296201445460618
 20
21.762137629568301
 30
0.0
 42
-0.4740571810231764
  0
VERTEX
  5
24FE
  8
SAPA_FOGBAND
 10
-57.013918859822311
 20
21.889431491931632
 30
0.0
  0
VERTEX
  5
24FF
  8
SAPA_FOGBAND
 10
-55.567712723061973
 20
21.269330989173781
 30
0.0
 42
-0.2846003776496257
  0
VERTEX
  5
2500
  8
SAPA_FOGBAND
 10
-55.290456274014119
 20
20.821686810712869
 30
0.0
  0
VERTEX
  5
2501
  8
SAPA_FOGBAND
 10
-55.290456274014119
 20
19.199060830383111
 30
0.0
 42
-0.2846003776496159
  0
VERTEX
  5
2502
  8
SAPA_FOGBAND
 10
-55.567712723062421
 20
18.751416651922199
 30
0.0
  0
VERTEX
  5
2503
  8
SAPA_FOGBAND
 10
-57.013918859822311
 20
18.131316149164348
 30
0.0
 42
-0.4740571810232354
  0
VERTEX
  5
2504
  8
SAPA_FOGBAND
 10
-57.296201445460618
 20
18.25861001152677
 30
0.0
  0
VERTEX
  5
2505
  8
SAPA_FOGBAND
 10
-57.363661354771018
 20
18.51037382054799
 30
0.0
  0
VERTEX
  5
2506
  8
SAPA_FOGBAND
 10
-58.305086771653372
 20
18.51037382054799
 30
0.0
 42
0.4142135623730951
  0
VERTEX
  5
2507
  8
SAPA_FOGBAND
 10
-58.805086771653357
 20
18.01037382054799
 30
0.0
  0
VERTEX
  5
2508
  8
SAPA_FOGBAND
 10
-58.80508677165291
 20
14.98227426981337
 30
0.0
 42
-0.1657205760184635
  0
VERTEX
  5
2509
  8
SAPA_FOGBAND
 10
-59.013205043489521
 20
14.37159978319958
 30
0.0
  0
VERTEX
  5
250A
  8
SAPA_FOGBAND
 10
-62.407790128345383
 20
5.0037093927230494
 30
0.0
 42
-0.2325311832130358
  0
VERTEX
  5
250B
  8
SAPA_FOGBAND
 10
-62.803730992427532
 20
4.8090466360290343
 30
0.0
  0
VERTEX
  5
250C
  8
SAPA_FOGBAND
 10
-64.034474548865106
 20
4.8090466360290343
 30
0.0
 42
-0.3826682380870913
  0
VERTEX
  5
250D
  8
SAPA_FOGBAND
 10
-65.028551853970853
 20
5.7003713790790966
 30
0.0
  0
VERTEX
  5
250E
  8
SAPA_FOGBAND
 10
-65.805086771653365
 20
11.30484013937528
 30
0.0
  0
VERTEX
  5
250F
  8
SAPA_FOGBAND
 10
-65.805086771653365
 20
25.010373798598248
 30
0.0
 42
-0.4257917699693507
  0
VERTEX
  5
2510
  8
SAPA_FOGBAND
 10
-65.49327940912282
 20
25.310141352197189
 30
0.0
  0
VERTEX
  5
2511
  8
SAPA_FOGBAND
 10
-59.093279409122268
 20
24.822301537526972
 30
0.0
 42
-0.4027293761437475
  0
VERTEX
  5
2512
  8
SAPA_FOGBAND
 10
-58.80508677165291
 20
24.522533983929851
 30
0.0
  0
VERTEX
  5
2513
  8
SAPA_FOGBAND
 10
-58.805086771653357
 20
22.01037382054799
 30
0.0
 42
0.4142135623730951
  0
VERTEX
  5
2514
  8
SAPA_FOGBAND
 10
-58.305086771653372
 20
21.51037382054799
 30
0.0
  0
VERTEX
  5
2515
  8
SAPA_FOGBAND
 10
-57.363661354771018
 20
21.51037382054799
 30
0.0
  0
SEQEND
  5
2516
  8
SAPA_FOGBAND
  0
POLYLINE
  5
1DC3
  8
SAPA_FOGBAND
 66
     1
 10
0.0
 20
0.0
 30
0.0
 70
     1
  0
VERTEX
  5
2517
  8
SAPA_FOGBAND
 10
-56.890456274014483
 20
19.11037382054835
 30
0.0
  0
VERTEX
  5
2518
  8
SAPA_FOGBAND
 10
-57.490456274014392
 20
19.11037382054835
 30
0.0
 42
-0.9999999999999998
  0
VERTEX
  5
2519
  8
SAPA_FOGBAND
 10
-57.490456274014392
 20
20.91037382054763
 30
0.0
  0
VERTEX
  5
251A
  8
SAPA_FOGBAND
 10
-56.890456274014483
 20
20.91037382054763
 30
0.0
 42
-0.9999999999999998
  0
SEQEND
  5
251B
  8
SAPA_FOGBAND
  0
POLYLINE
  5
1DC4
  8
SAPA_FOGBAND
 66
     1
 10
0.0
 20
0.0
 30
0.0
  0
VERTEX
  5
251C
  8
SAPA_FOGBAND
 10
-58.80508677165291
 20
23.610373820548361
 30
0.0
  0
VERTEX
  5
251D
  8
SAPA_FOGBAND
 10
-59.105086771653092
 20
23.610373820548361
 30
0.0
 42
0.4142135623730951
  0
VERTEX
  5
251E
  8
SAPA_FOGBAND
 10
-59.605086771653092
 20
23.110373820548361
 30
0.0
  0
VERTEX
  5
251F
  8
SAPA_FOGBAND
 10
-59.605086771653092
 20
15.810373820547261
 30
0.0
 42
0.4142135623730951
  0
VERTEX
  5
2520
  8
SAPA_FOGBAND
 10
-59.105086771653092
 20
15.310373820547261
 30
0.0
  0
VERTEX
  5
2521
  8
SAPA_FOGBAND
 10
-58.80508677165291
 20
15.31037382054817
 30
0.0
  0
SEQEND
  5
2522
  8
SAPA_FOGBAND
  0
POLYLINE
  5
1DC5
  8
SAPA_FOGBAND
 10
-62.826656685502826
 20
22.073620954385202
 30
0.0
 66
     1
 70
     8
  0
VERTEX
  8
SAPA_FOGBAND
  5
2523
 10
-62.8267
 20
22.0736
 30
0.000000
  70
    32
  0
VERTEX
  8
SAPA_FOGBAND
  5
2524
 10
-62.7660
 20
22.0703
 30
0.000000
  70
    32
  0
VERTEX
  8
SAPA_FOGBAND
  5
2525
 10
-62.7055
 20
22.0589
 30
0.000000
  70
    32
  0
VERTEX
  8
SAPA_FOGBAND
  5
2526
 10
-62.6451
 20
22.0397
 30
0.000000
  70
    32
  0
VERTEX
  8
SAPA_FOGBAND
  5
2527
 10
-62.5851
 20
22.0126
 30
0.000000
  70
    32
  0
VERTEX
  8
SAPA_FOGBAND
  5
2528
 10
-62.5256
 20
21.9778
 30
0.000000
  70
    32
  0
VERTEX
  8
SAPA_FOGBAND
  5
2529
 10
-62.4668
 20
21.9352
 30
0.000000
  70
    32
  0
VERTEX
  8
SAPA_FOGBAND
  5
252A
 10
-62.4087
 20
21.8850
 30
0.000000
  70
    32
  0
VERTEX
  8
SAPA_FOGBAND
  5
252B
 10
-62.3516
 20
21.8273
 30
0.000000
  70
    32
  0
VERTEX
  8
SAPA_FOGBAND
  5
252C
 10
-62.2955
 20
21.7622
 30
0.000000
  70
    32
  0
VERTEX
  8
SAPA_FOGBAND
  5
252D
 10
-62.2406
 20
21.6900
 30
0.000000
  70
    32
  0
VERTEX
  8
SAPA_FOGBAND
  5
252E
 10
-62.1871
 20
21.6107
 30
0.000000
  70
    32
  0
VERTEX
  8
SAPA_FOGBAND
  5
252F
 10
-62.1350
 20
21.5246
 30
0.000000
  70
    32
  0
VERTEX
  8
SAPA_FOGBAND
  5
2530
 10
-62.0846
 20
21.4319
 30
0.000000
  70
    32
  0
VERTEX
  8
SAPA_FOGBAND
  5
2531
 10
-62.0358
 20
21.3327
 30
0.000000
  70
    32
  0
VERTEX
  8
SAPA_FOGBAND
  5
2532
 10
-61.9888
 20
21.2275
 30
0.000000
  70
    32
  0
VERTEX
  8
SAPA_FOGBAND
  5
2533
 10
-61.9438
 20
21.1163
 30
0.000000
  70
    32
  0
VERTEX
  8
SAPA_FOGBAND
  5
2534
 10
-61.9009
 20
20.9994
 30
0.000000
  70
    32
  0
VERTEX
  8
SAPA_FOGBAND
  5
2535
 10
-61.8601
 20
20.8773
 30
0.000000
  70
    32
  0
VERTEX
  8
SAPA_FOGBAND
  5
2536
 10
-61.8215
 20
20.7500
 30
0.000000
  70
    32
  0
VERTEX
  8
SAPA_FOGBAND
  5
2537
 10
-61.7853
 20
20.6180
 30
0.000000
  70
    32
  0
VERTEX
  8
SAPA_FOGBAND
  5
2538
 10
-61.7515
 20
20.4815
 30
0.000000
  70
    32
  0
VERTEX
  8
SAPA_FOGBAND
  5
2539
 10
-61.7202
 20
20.3410
 30
0.000000
  70
    32
  0
VERTEX
  8
SAPA_FOGBAND
  5
253A
 10
-61.6915
 20
20.1967
 30
0.000000
  70
    32
  0
VERTEX
  8
SAPA_FOGBAND
  5
253B
 10
-61.6655
 20
20.0489
 30
0.000000
  70
    32
  0
VERTEX
  8
SAPA_FOGBAND
  5
253C
 10
-61.6422
 20
19.8981
 30
0.000000
  70
    32
  0
VERTEX
  8
SAPA_FOGBAND
  5
253D
 10
-61.6216
 20
19.7446
 30
0.000000
  70
    32
  0
VERTEX
  8
SAPA_FOGBAND
  5
253E
 10
-61.6039
 20
19.5887
 30
0.000000
  70
    32
  0
VERTEX
  8
SAPA_FOGBAND
  5
253F
 10
-61.5891
 20
19.4309
 30
0.000000
  70
    32
  0
VERTEX
  8
SAPA_FOGBAND
  5
2540
 10
-61.5771
 20
19.2715
 30
0.000000
  70
    32
  0
VERTEX
  8
SAPA_FOGBAND
  5
2541
 10
-61.5681
 20
19.1109
 30
0.000000
  70
    32
  0
VERTEX
  8
SAPA_FOGBAND
  5
2542
 10
-61.5620
 20
18.9495
 30
0.000000
  70
    32
  0
VERTEX
  8
SAPA_FOGBAND
  5
2543
 10
-61.5589
 20
18.7876
 30
0.000000
  70
    32
  0
VERTEX
  8
SAPA_FOGBAND
  5
2544
 10
-61.5588
 20
18.6258
 30
0.000000
  70
    32
  0
VERTEX
  8
SAPA_FOGBAND
  5
2545
 10
-61.5616
 20
18.4643
 30
0.000000
  70
    32
  0
VERTEX
  8
SAPA_FOGBAND
  5
2546
 10
-61.5675
 20
18.3036
 30
0.000000
  70
    32
  0
VERTEX
  8
SAPA_FOGBAND
  5
2547
 10
-61.5762
 20
18.1439
 30
0.000000
  70
    32
  0
VERTEX
  8
SAPA_FOGBAND
  5
2548
 10
-61.5879
 20
17.9859
 30
0.000000
  70
    32
  0
VERTEX
  8
SAPA_FOGBAND
  5
2549
 10
-61.6026
 20
17.8297
 30
0.000000
  70
    32
  0
VERTEX
  8
SAPA_FOGBAND
  5
254A
 10
-61.6200
 20
17.6758
 30
0.000000
  70
    32
  0
VERTEX
  8
SAPA_FOGBAND
  5
254B
 10
-61.6404
 20
17.5245
 30
0.000000
  70
    32
  0
VERTEX
  8
SAPA_FOGBAND
  5
254C
 10
-61.6634
 20
17.3763
 30
0.000000
  70
    32
  0
VERTEX
  8
SAPA_FOGBAND
  5
254D
 10
-61.6893
 20
17.2314
 30
0.000000
  70
    32
  0
VERTEX
  8
SAPA_FOGBAND
  5
254E
 10
-61.7177
 20
17.0902
 30
0.000000
  70
    32
  0
VERTEX
  8
SAPA_FOGBAND
  5
254F
 10
-61.7488
 20
16.9532
 30
0.000000
  70
    32
  0
VERTEX
  8
SAPA_FOGBAND
  5
2550
 10
-61.7824
 20
16.8204
 30
0.000000
  70
    32
  0
VERTEX
  8
SAPA_FOGBAND
  5
2551
 10
-61.8184
 20
16.6925
 30
0.000000
  70
    32
  0
VERTEX
  8
SAPA_FOGBAND
  5
2552
 10
-61.8568
 20
16.5695
 30
0.000000
  70
    32
  0
VERTEX
  8
SAPA_FOGBAND
  5
2553
 10
-61.8974
 20
16.4518
 30
0.000000
  70
    32
  0
VERTEX
  8
SAPA_FOGBAND
  5
2554
 10
-61.9402
 20
16.3398
 30
0.000000
  70
    32
  0
VERTEX
  8
SAPA_FOGBAND
  5
2555
 10
-61.9850
 20
16.2336
 30
0.000000
  70
    32
  0
VERTEX
  8
SAPA_FOGBAND
  5
2556
 10
-62.0318
 20
16.1335
 30
0.000000
  70
    32
  0
VERTEX
  8
SAPA_FOGBAND
  5
2557
 10
-62.0805
 20
16.0398
 30
0.000000
  70
    32
  0
VERTEX
  8
SAPA_FOGBAND
  5
2558
 10
-62.1308
 20
15.9527
 30
0.000000
  70
    32
  0
VERTEX
  8
SAPA_FOGBAND
  5
2559
 10
-62.1827
 20
15.8723
 30
0.000000
  70
    32
  0
VERTEX
  8
SAPA_FOGBAND
  5
255A
 10
-62.2362
 20
15.7990
 30
0.000000
  70
    32
  0
VERTEX
  8
SAPA_FOGBAND
  5
255B
 10
-62.2909
 20
15.7329
 30
0.000000
  70
    32
  0
VERTEX
  8
SAPA_FOGBAND
  5
255C
 10
-62.3469
 20
15.6740
 30
0.000000
  70
    32
  0
VERTEX
  8
SAPA_FOGBAND
  5
255D
 10
-62.4039
 20
15.6227
 30
0.000000
  70
    32
  0
VERTEX
  8
SAPA_FOGBAND
  5
255E
 10
-62.4619
 20
15.5789
 30
0.000000
  70
    32
  0
VERTEX
  8
SAPA_FOGBAND
  5
255F
 10
-62.5207
 20
15.5429
 30
0.000000
  70
    32
  0
VERTEX
  8
SAPA_FOGBAND
  5
2560
 10
-62.5802
 20
15.5146
 30
0.000000
  70
    32
  0
VERTEX
  8
SAPA_FOGBAND
  5
2561
 10
-62.6401
 20
15.4942
 30
0.000000
  70
    32
  0
VERTEX
  8
SAPA_FOGBAND
  5
2562
 10
-62.7004
 20
15.4817
 30
0.000000
  70
    32
  0
VERTEX
  8
SAPA_FOGBAND
  5
2563
 10
-62.7610
 20
15.4771
 30
0.000000
  70
    32
  0
VERTEX
  8
SAPA_FOGBAND
  5
2564
 10
-62.8216
 20
15.4805
 30
0.000000
  70
    32
  0
VERTEX
  8
SAPA_FOGBAND
  5
2565
 10
-62.8822
 20
15.4918
 30
0.000000
  70
    32
  0
VERTEX
  8
SAPA_FOGBAND
  5
2566
 10
-62.9426
 20
15.5110
 30
0.000000
  70
    32
  0
VERTEX
  8
SAPA_FOGBAND
  5
2567
 10
-63.0025
 20
15.5381
 30
0.000000
  70
    32
  0
VERTEX
  8
SAPA_FOGBAND
  5
2568
 10
-63.0620
 20
15.5729
 30
0.000000
  70
    32
  0
VERTEX
  8
SAPA_FOGBAND
  5
2569
 10
-63.1209
 20
15.6155
 30
0.000000
  70
    32
  0
VERTEX
  8
SAPA_FOGBAND
  5
256A
 10
-63.1789
 20
15.6657
 30
0.000000
  70
    32
  0
VERTEX
  8
SAPA_FOGBAND
  5
256B
 10
-63.2361
 20
15.7234
 30
0.000000
  70
    32
  0
VERTEX
  8
SAPA_FOGBAND
  5
256C
 10
-63.2921
 20
15.7885
 30
0.000000
  70
    32
  0
VERTEX
  8
SAPA_FOGBAND
  5
256D
 10
-63.3470
 20
15.8607
 30
0.000000
  70
    32
  0
VERTEX
  8
SAPA_FOGBAND
  5
256E
 10
-63.4005
 20
15.9400
 30
0.000000
  70
    32
  0
VERTEX
  8
SAPA_FOGBAND
  5
256F
 10
-63.4526
 20
16.0261
 30
0.000000
  70
    32
  0
VERTEX
  8
SAPA_FOGBAND
  5
2570
 10
-63.5031
 20
16.1188
 30
0.000000
  70
    32
  0
VERTEX
  8
SAPA_FOGBAND
  5
2571
 10
-63.5519
 20
16.2180
 30
0.000000
  70
    32
  0
VERTEX
  8
SAPA_FOGBAND
  5
2572
 10
-63.5988
 20
16.3232
 30
0.000000
  70
    32
  0
VERTEX
  8
SAPA_FOGBAND
  5
2573
 10
-63.6438
 20
16.4344
 30
0.000000
  70
    32
  0
VERTEX
  8
SAPA_FOGBAND
  5
2574
 10
-63.6868
 20
16.5513
 30
0.000000
  70
    32
  0
VERTEX
  8
SAPA_FOGBAND
  5
2575
 10
-63.7276
 20
16.6735
 30
0.000000
  70
    32
  0
VERTEX
  8
SAPA_FOGBAND
  5
2576
 10
-63.7662
 20
16.8007
 30
0.000000
  70
    32
  0
VERTEX
  8
SAPA_FOGBAND
  5
2577
 10
-63.8024
 20
16.9327
 30
0.000000
  70
    32
  0
VERTEX
  8
SAPA_FOGBAND
  5
2578
 10
-63.8362
 20
17.0692
 30
0.000000
  70
    32
  0
VERTEX
  8
SAPA_FOGBAND
  5
2579
 10
-63.8674
 20
17.2097
 30
0.000000
  70
    32
  0
VERTEX
  8
SAPA_FOGBAND
  5
257A
 10
-63.8961
 20
17.3540
 30
0.000000
  70
    32
  0
VERTEX
  8
SAPA_FOGBAND
  5
257B
 10
-63.9222
 20
17.5018
 30
0.000000
  70
    32
  0
VERTEX
  8
SAPA_FOGBAND
  5
257C
 10
-63.9455
 20
17.6526
 30
0.000000
  70
    32
  0
VERTEX
  8
SAPA_FOGBAND
  5
257D
 10
-63.9660
 20
17.8062
 30
0.000000
  70
    32
  0
VERTEX
  8
SAPA_FOGBAND
  5
257E
 10
-63.9838
 20
17.9620
 30
0.000000
  70
    32
  0
VERTEX
  8
SAPA_FOGBAND
  5
257F
 10
-63.9986
 20
18.1198
 30
0.000000
  70
    32
  0
VERTEX
  8
SAPA_FOGBAND
  5
2580
 10
-64.0106
 20
18.2792
 30
0.000000
  70
    32
  0
VERTEX
  8
SAPA_FOGBAND
  5
2581
 10
-64.0196
 20
18.4398
 30
0.000000
  70
    32
  0
VERTEX
  8
SAPA_FOGBAND
  5
2582
 10
-64.0256
 20
18.6012
 30
0.000000
  70
    32
  0
VERTEX
  8
SAPA_FOGBAND
  5
2583
 10
-64.0287
 20
18.7631
 30
0.000000
  70
    32
  0
VERTEX
  8
SAPA_FOGBAND
  5
2584
 10
-64.0289
 20
18.9249
 30
0.000000
  70
    32
  0
VERTEX
  8
SAPA_FOGBAND
  5
2585
 10
-64.0260
 20
19.0864
 30
0.000000
  70
    32
  0
VERTEX
  8
SAPA_FOGBAND
  5
2586
 10
-64.0202
 20
19.2472
 30
0.000000
  70
    32
  0
VERTEX
  8
SAPA_FOGBAND
  5
2587
 10
-64.0114
 20
19.4068
 30
0.000000
  70
    32
  0
VERTEX
  8
SAPA_FOGBAND
  5
2588
 10
-63.9997
 20
19.5648
 30
0.000000
  70
    32
  0
VERTEX
  8
SAPA_FOGBAND
  5
2589
 10
-63.9851
 20
19.7210
 30
0.000000
  70
    32
  0
VERTEX
  8
SAPA_FOGBAND
  5
258A
 10
-63.9676
 20
19.8749
 30
0.000000
  70
    32
  0
VERTEX
  8
SAPA_FOGBAND
  5
258B
 10
-63.9473
 20
20.0262
 30
0.000000
  70
    32
  0
VERTEX
  8
SAPA_FOGBAND
  5
258C
 10
-63.9242
 20
20.1744
 30
0.000000
  70
    32
  0
VERTEX
  8
SAPA_FOGBAND
  5
258D
 10
-63.8984
 20
20.3193
 30
0.000000
  70
    32
  0
VERTEX
  8
SAPA_FOGBAND
  5
258E
 10
-63.8699
 20
20.4605
 30
0.000000
  70
    32
  0
VERTEX
  8
SAPA_FOGBAND
  5
258F
 10
-63.8389
 20
20.5976
 30
0.000000
  70
    32
  0
VERTEX
  8
SAPA_FOGBAND
  5
2590
 10
-63.8053
 20
20.7303
 30
0.000000
  70
    32
  0
VERTEX
  8
SAPA_FOGBAND
  5
2591
 10
-63.7693
 20
20.8583
 30
0.000000
  70
    32
  0
VERTEX
  8
SAPA_FOGBAND
  5
2592
 10
-63.7309
 20
20.9812
 30
0.000000
  70
    32
  0
VERTEX
  8
SAPA_FOGBAND
  5
2593
 10
-63.6903
 20
21.0989
 30
0.000000
  70
    32
  0
VERTEX
  8
SAPA_FOGBAND
  5
2594
 10
-63.6475
 20
21.2110
 30
0.000000
  70
    32
  0
VERTEX
  8
SAPA_FOGBAND
  5
2595
 10
-63.6026
 20
21.3172
 30
0.000000
  70
    32
  0
VERTEX
  8
SAPA_FOGBAND
  5
2596
 10
-63.5558
 20
21.4172
 30
0.000000
  70
    32
  0
VERTEX
  8
SAPA_FOGBAND
  5
2597
 10
-63.5072
 20
21.5109
 30
0.000000
  70
    32
  0
VERTEX
  8
SAPA_FOGBAND
  5
2598
 10
-63.4569
 20
21.5981
 30
0.000000
  70
    32
  0
VERTEX
  8
SAPA_FOGBAND
  5
2599
 10
-63.4049
 20
21.6784
 30
0.000000
  70
    32
  0
VERTEX
  8
SAPA_FOGBAND
  5
259A
 10
-63.3515
 20
21.7517
 30
0.000000
  70
    32
  0
VERTEX
  8
SAPA_FOGBAND
  5
259B
 10
-63.2967
 20
21.8179
 30
0.000000
  70
    32
  0
VERTEX
  8
SAPA_FOGBAND
  5
259C
 10
-63.2408
 20
21.8767
 30
0.000000
  70
    32
  0
VERTEX
  8
SAPA_FOGBAND
  5
259D
 10
-63.1837
 20
21.9280
 30
0.000000
  70
    32
  0
VERTEX
  8
SAPA_FOGBAND
  5
259E
 10
-63.1257
 20
21.9718
 30
0.000000
  70
    32
  0
VERTEX
  8
SAPA_FOGBAND
  5
259F
 10
-63.0669
 20
22.0078
 30
0.000000
  70
    32
  0
VERTEX
  8
SAPA_FOGBAND
  5
25A0
 10
-63.0075
 20
22.0361
 30
0.000000
  70
    32
  0
VERTEX
  8
SAPA_FOGBAND
  5
25A1
 10
-62.9475
 20
22.0565
 30
0.000000
  70
    32
  0
VERTEX
  8
SAPA_FOGBAND
  5
25A2
 10
-62.8872
 20
22.0690
 30
0.000000
  70
    32
  0
VERTEX
  8
SAPA_FOGBAND
  5
25A3
 10
-62.8267
 20
22.0736
 30
0.000000
  70
    32
  0
SEQEND
  8
SAPA_FOGBAND
  5
25A4
  0
VIEWPORT
  5
C4
 67
     1
  8
0
 10
209.49949014430729
 20
130.70624923706049
 30
0.0
 40
625.55625699991936
 41
256.8421457311839
 68
     1
 69
     1
1001
ACAD
1000
MVIEW
1002
{
1070
    16
1010
0.0
1020
0.0
1030
0.0
1010
0.0
1020
0.0
1030
1.0
1040
0.0
1040
256.8421457311839
1040
209.49949014430729
1040
130.70624923706049
1040
50.0
1040
0.0
1040
0.0
1070
     0
1070
     0
1070
     1
1070
     1
1070
     0
1070
     0
1070
     0
1070
     0
1040
0.0
1040
0.0
1040
0.0
1040
10.0
1040
10.0
1040
10.0
1040
10.0
1070
     0
1002
{
1002
}
1002
}
  0
ENDSEC
  0
EOF
