  0
SECTION
  2
HEADER
  9
$ACADVER
  1
AC1009
  9
$INSBASE
 10
0.0
 20
0.0
 30
0.0
  9
$EXTMIN
 10
-16.173285952479151
 20
0.5785459709081806
 30
0.0
  9
$EXTMAX
 10
229.85749409341349
 20
123.60883946881
 30
0.0
  9
$LIMMIN
 10
0.0
 20
0.0
  9
$LIMMAX
 10
790.0
 20
790.0
  9
$ORTHOMODE
 70
     1
  9
$REGENMODE
 70
     1
  9
$FILLMODE
 70
     1
  9
$QTEXTMODE
 70
     0
  9
$MIRRTEXT
 70
     1
  9
$DRAGMODE
 70
     2
  9
$LTSCALE
 40
4.0
  9
$OSMODE
 70
   167
  9
$ATTMODE
 70
     1
  9
$TEXTSIZE
 40
3.5
  9
$TRACEWID
 40
0.05
  9
$TEXTSTYLE
  7
ISO
  9
$CLAYER
  8
0
  9
$CELTYPE
  6
BYLAYER
  9
$CECOLOR
 62
   256
  9
$DIMSCALE
 40
0.0
  9
$DIMASZ
 40
3.0
  9
$DIMEXO
 40
1.5
  9
$DIMDLI
 40
10.0
  9
$DIMRND
 40
0.0
  9
$DIMDLE
 40
0.0
  9
$DIMEXE
 40
1.5
  9
$DIMTP
 40
0.0
  9
$DIMTM
 40
0.0
  9
$DIMTXT
 40
3.0
  9
$DIMCEN
 40
-5.0
  9
$DIMTSZ
 40
0.0
  9
$DIMTOL
 70
     0
  9
$DIMLIM
 70
     0
  9
$DIMTIH
 70
     0
  9
$DIMTOH
 70
     0
  9
$DIMSE1
 70
     0
  9
$DIMSE2
 70
     0
  9
$DIMTAD
 70
     1
  9
$DIMZIN
 70
     8
  9
$DIMBLK
  1

  9
$DIMASO
 70
     1
  9
$DIMSHO
 70
     1
  9
$DIMPOST
  1

  9
$DIMAPOST
  1

  9
$DIMALT
 70
     0
  9
$DIMALTD
 70
     0
  9
$DIMALTF
 40
25.399999999999999
  9
$DIMLFAC
 40
-1.0
  9
$DIMTOFL
 70
     1
  9
$DIMTVP
 40
0.0
  9
$DIMTIX
 70
     0
  9
$DIMSOXD
 70
     0
  9
$DIMSAH
 70
     0
  9
$DIMBLK1
  1

  9
$DIMBLK2
  1

  9
$DIMSTYLE
  2
MASKIN
  9
$DIMCLRD
 70
   256
  9
$DIMCLRE
 70
   256
  9
$DIMCLRT
 70
     2
  9
$DIMTFAC
 40
1.0
  9
$DIMGAP
 40
1.0
  9
$LUNITS
 70
     2
  9
$LUPREC
 70
     8
  9
$SKETCHINC
 40
0.1
  9
$FILLETRAD
 40
0.0
  9
$AUNITS
 70
     0
  9
$AUPREC
 70
     8
  9
$MENU
  1
ACAD
  9
$ELEVATION
 40
0.0
  9
$PELEVATION
 40
0.0
  9
$THICKNESS
 40
0.0
  9
$LIMCHECK
 70
     0
  9
$BLIPMODE
 70
     0
  9
$CHAMFERA
 40
0.0
  9
$CHAMFERB
 40
0.0
  9
$SKPOLY
 70
     0
  9
$TDCREATE
 40
2457435.5345322569
  9
$TDUPDATE
 40
2457498.357292037
  9
$TDINDWG
 40
0.1119492593
  9
$TDUSRTIMER
 40
0.1119492593
  9
$USRTIMER
 70
     1
  9
$ANGBASE
 50
0.0
  9
$ANGDIR
 70
     0
  9
$PDMODE
 70
     0
  9
$PDSIZE
 40
0.0
  9
$PLINEWID
 40
0.0
  9
$COORDS
 70
     1
  9
$SPLFRAME
 70
     0
  9
$SPLINETYPE
 70
     6
  9
$SPLINESEGS
 70
     8
  9
$ATTDIA
 70
     0
  9
$ATTREQ
 70
     1
  9
$HANDLING
 70
     1
  9
$HANDSEED
  5
14EC
  9
$SURFTAB1
 70
     6
  9
$SURFTAB2
 70
     6
  9
$SURFTYPE
 70
     6
  9
$SURFU
 70
     6
  9
$SURFV
 70
     6
  9
$UCSNAME
  2

  9
$UCSORG
 10
0.0
 20
0.0
 30
0.0
  9
$UCSXDIR
 10
1.0
 20
0.0
 30
0.0
  9
$UCSYDIR
 10
0.0
 20
1.0
 30
0.0
  9
$PUCSNAME
  2

  9
$PUCSORG
 10
0.0
 20
0.0
 30
0.0
  9
$PUCSXDIR
 10
1.0
 20
0.0
 30
0.0
  9
$PUCSYDIR
 10
0.0
 20
1.0
 30
0.0
  9
$USERI1
 70
     0
  9
$USERI2
 70
     0
  9
$USERI3
 70
     0
  9
$USERI4
 70
     0
  9
$USERI5
 70
     0
  9
$USERR1
 40
0.0
  9
$USERR2
 40
0.0
  9
$USERR3
 40
0.0
  9
$USERR4
 40
0.0
  9
$USERR5
 40
0.0
  9
$WORLDVIEW
 70
     1
  9
$SHADEDGE
 70
     3
  9
$SHADEDIF
 70
    70
  9
$TILEMODE
 70
     1
  9
$MAXACTVP
 70
    16
  9
$PLIMCHECK
 70
     0
  9
$PEXTMIN
 10
1.0000000000000000E+020
 20
1.0000000000000000E+020
 30
1.0000000000000000E+020
  9
$PEXTMAX
 10
-1.0000000000000000E+020
 20
-1.0000000000000000E+020
 30
-1.0000000000000000E+020
  9
$PLIMMIN
 10
-5.069427490234375
 20
-5.8737497329711914
  9
$PLIMMAX
 10
291.89889526367187
 20
204.0995779037475
  9
$UNITMODE
 70
     0
  9
$VISRETAIN
 70
     1
  9
$PLINEGEN
 70
     0
  9
$PSLTSCALE
 70
     1
  0
ENDSEC
  0
SECTION
  2
TABLES
  0
TABLE
  2
VPORT
 70
     1
  0
VPORT
  2
*ACTIVE
 70
     0
 10
0.0
 20
0.0
 11
1.0
 21
1.0
 12
131.64138640244599
 22
157.87688151497861
 13
0.0
 23
0.0
 14
1.0
 24
1.0
 15
0.0
 25
0.0
 16
0.0
 26
0.0
 36
1.0
 17
0.0
 27
0.0
 37
0.0
 40
247.55495192039021
 41
1.9285714285714279
 42
50.0
 43
0.0
 44
0.0
 50
0.0
 51
0.0
 71
     0
 72
   100
 73
     1
 74
     1
 75
     0
 76
     0
 77
     0
 78
     0
  0
ENDTAB
  0
TABLE
  2
LTYPE
 70
    33
  0
LTYPE
  2
CONTINUOUS
 70
     0
  3
Solid line
 72
    65
 73
     0
 40
0.0
  0
LTYPE
  2
NEWDOT
 70
     0
  3
____ . ____ . ____ . ____ . ____ . ____ . ____
 72
    65
 73
     4
 40
2.0
 49
1.0
 49
-0.5
 49
0.0
 49
-0.5
  0
LTYPE
  2
DASHDOT
 70
     0
  3
__ . __ . __ . __ . __ . __ . __ . __ . __ . __
 72
    65
 73
     4
 40
1.0
 49
0.5
 49
-0.25
 49
0.0
 49
-0.25
  0
LTYPE
  2
DASHED
 70
     0
  3
__ __ __ __ __ __ __ __ __ __ __ __ __ __ __
 72
    65
 73
     2
 40
0.75
 49
0.5
 49
-0.25
  0
LTYPE
  2
PHANTOM
 70
     0
  3
Phantom ______  __  __  ______  __  __  ______
 72
    65
 73
     6
 40
63.5
 49
31.75
 49
-6.3499999999999988
 49
6.3499999999999988
 49
-6.3499999999999988
 49
6.3499999999999988
 49
-6.3499999999999988
  0
LTYPE
  2
BYGG-014279$0$NEWDOT
 70
     0
  3
____ . ____ . ____ . ____ . ____ . ____ . ____
 72
    65
 73
     4
 40
2.0
 49
1.0
 49
-0.5
 49
0.0
 49
-0.5
  0
LTYPE
  2
BYGG-014279$0$ZIGZAG
 70
     0
  3
Zig zag /\/\/\/\/\/\/\/\/\/\/\/\/\/\/\/\/\/\/\/\/\/\/\/
 72
    65
 73
     4
 40
20.32254
 49
0.00254
 49
-5.0800000000000001
 49
-10.16
 49
-5.0800000000000001
  0
LTYPE
  2
BYGG-01482301$0$NEWDOT
 70
     0
  3
____ . ____ . ____ . ____ . ____ . ____ . ____
 72
    65
 73
     4
 40
2.0
 49
1.0
 49
-0.5
 49
0.0
 49
-0.5
  0
LTYPE
  2
BYGG-01482301$0$ZIGZAG
 70
     0
  3
Zig zag /\/\/\/\/\/\/\/\/\/\/\/\/\/\/\/\/\/\/\/\/\/\/\/
 72
    65
 73
     4
 40
20.32254
 49
0.00254
 49
-5.0800000000000001
 49
-10.16
 49
-5.0800000000000001
  0
LTYPE
  2
BYGG-023714$0$NEWDOT
 70
     0
  3
____ . ____ . ____ . ____ . ____ . ____ . ____
 72
    65
 73
     4
 40
2.0
 49
1.0
 49
-0.5
 49
0.0
 49
-0.5
  0
LTYPE
  2
BYGG-023714$0$DASHDOT
 70
     0
  3
__ . __ . __ . __ . __ . __ . __ . __ . __ . __
 72
    65
 73
     4
 40
1.0
 49
0.5
 49
-0.25
 49
0.0
 49
-0.25
  0
LTYPE
  2
BYGG-023714$0$DASHED
 70
     0
  3
__ __ __ __ __ __ __ __ __ __ __ __ __ __ __
 72
    65
 73
     2
 40
0.75
 49
0.5
 49
-0.25
  0
LTYPE
  2
BYGG-023714$0$PHANTOM
 70
     0
  3
Phantom ______  __  __  ______  __  __  ______
 72
    65
 73
     6
 40
63.5
 49
31.75
 49
-6.3499999999999988
 49
6.3499999999999988
 49
-6.3499999999999988
 49
6.3499999999999988
 49
-6.3499999999999988
  0
LTYPE
  2
BYGG-023714$0$ZIGZAG
 70
     0
  3
Zig zag /\/\/\/\/\/\/\/\/\/\/\/\/\/\/\/\/\/\/\/\/\/\/\/
 72
    65
 73
     4
 40
20.32254
 49
0.00254
 49
-5.0800000000000001
 49
-10.16
 49
-5.0800000000000001
  0
LTYPE
  2
BYGG-021480$0$NEWDOT
 70
     0
  3
____ . ____ . ____ . ____ . ____ . ____ . ____
 72
    65
 73
     4
 40
2.0
 49
1.0
 49
-0.5
 49
0.0
 49
-0.5
  0
LTYPE
  2
BYGG-021480$0$DASHDOT
 70
     0
  3
__ . __ . __ . __ . __ . __ . __ . __ . __ . __
 72
    65
 73
     4
 40
1.0
 49
0.5
 49
-0.25
 49
0.0
 49
-0.25
  0
LTYPE
  2
BYGG-021480$0$DASHED
 70
     0
  3
__ __ __ __ __ __ __ __ __ __ __ __ __ __ __
 72
    65
 73
     2
 40
0.75
 49
0.5
 49
-0.25
  0
LTYPE
  2
BYGG-021480$0$PHANTOM
 70
     0
  3
Phantom ______  __  __  ______  __  __  ______
 72
    65
 73
     6
 40
63.5
 49
31.75
 49
-6.3499999999999988
 49
6.3499999999999988
 49
-6.3499999999999988
 49
6.3499999999999988
 49
-6.3499999999999988
  0
LTYPE
  2
BYGG-035293$0$NEWDOT
 70
     0
  3
____ . ____ . ____ . ____ . ____ . ____ . ____
 72
    65
 73
     4
 40
2.0
 49
1.0
 49
-0.5
 49
0.0
 49
-0.5
  0
LTYPE
  2
BYGG-035293$0$DASHDOT
 70
     0
  3
__ . __ . __ . __ . __ . __ . __ . __ . __ . __
 72
    65
 73
     4
 40
1.0
 49
0.5
 49
-0.25
 49
0.0
 49
-0.25
  0
LTYPE
  2
BYGG-035293$0$DASHED
 70
     0
  3
__ __ __ __ __ __ __ __ __ __ __ __ __ __ __
 72
    65
 73
     2
 40
0.75
 49
0.5
 49
-0.25
  0
LTYPE
  2
BYGG-035293$0$PHANTOM
 70
     0
  3
Phantom ______  __  __  ______  __  __  ______
 72
    65
 73
     6
 40
63.5
 49
31.75
 49
-6.3499999999999988
 49
6.3499999999999988
 49
-6.3499999999999988
 49
6.3499999999999988
 49
-6.3499999999999988
  0
LTYPE
  2
BYGG-020805$0$NEWDOT
 70
     0
  3
____ . ____ . ____ . ____ . ____ . ____ . ____
 72
    65
 73
     4
 40
2.0
 49
1.0
 49
-0.5
 49
0.0
 49
-0.5
  0
LTYPE
  2
BYGG-020805$0$DASHDOT
 70
     0
  3
__ . __ . __ . __ . __ . __ . __ . __ . __ . __
 72
    65
 73
     4
 40
1.0
 49
0.5
 49
-0.25
 49
0.0
 49
-0.25
  0
LTYPE
  2
BYGG-020805$0$DASHED
 70
     0
  3
__ __ __ __ __ __ __ __ __ __ __ __ __ __ __
 72
    65
 73
     2
 40
0.75
 49
0.5
 49
-0.25
  0
LTYPE
  2
BYGG-020805$0$PHANTOM
 70
     0
  3
Phantom ______  __  __  ______  __  __  ______
 72
    65
 73
     6
 40
63.5
 49
31.75
 49
-6.3499999999999988
 49
6.3499999999999988
 49
-6.3499999999999988
 49
6.3499999999999988
 49
-6.3499999999999988
  0
LTYPE
  2
BYGG-035302$0$NEWDOT
 70
     0
  3
____ . ____ . ____ . ____ . ____ . ____ . ____
 72
    65
 73
     4
 40
2.0
 49
1.0
 49
-0.5
 49
0.0
 49
-0.5
  0
LTYPE
  2
BYGG-035302$0$DASHDOT
 70
     0
  3
__ . __ . __ . __ . __ . __ . __ . __ . __ . __
 72
    65
 73
     4
 40
1.0
 49
0.5
 49
-0.25
 49
0.0
 49
-0.25
  0
LTYPE
  2
BYGG-035302$0$DASHED
 70
     0
  3
__ __ __ __ __ __ __ __ __ __ __ __ __ __ __
 72
    65
 73
     2
 40
0.75
 49
0.5
 49
-0.25
  0
LTYPE
  2
BYGG-035302$0$PHANTOM
 70
     0
  3
Phantom ______  __  __  ______  __  __  ______
 72
    65
 73
     6
 40
63.5
 49
31.75
 49
-6.3499999999999988
 49
6.3499999999999988
 49
-6.3499999999999988
 49
6.3499999999999988
 49
-6.3499999999999988
  0
LTYPE
  2
BYGG-014306$0$PHANTOM2
 70
     0
  3
Phantom (.5x) ___ _ _ ___ _ _ ___ _ _ ___ _ _
 72
    65
 73
     6
 40
1.25
 49
0.625
 49
-0.125
 49
0.125
 49
-0.125
 49
0.125
 49
-0.125
  0
LTYPE
  2
BYGG-014279$0$PHANTOM2
 70
     0
  3
Phantom (.5x) ___ _ _ ___ _ _ ___ _ _ ___ _ _
 72
    65
 73
     6
 40
1.25
 49
0.625
 49
-0.125
 49
0.125
 49
-0.125
 49
0.125
 49
-0.125
  0
LTYPE
  2
BYGG-035294$0$PHANTOM2
 70
     0
  3
Phantom (.5x) ___ _ _ ___ _ _ ___ _ _ ___ _ _
 72
    65
 73
     6
 40
1.25
 49
0.625
 49
-0.125
 49
0.125
 49
-0.125
 49
0.125
 49
-0.125
  0
ENDTAB
  0
TABLE
  2
LAYER
 70
   184
  0
LAYER
  2
0
 70
     0
 62
     7
  6
CONTINUOUS
  0
LAYER
  2
SAPA_FYLLNING
 70
     0
 62
     4
  6
CONTINUOUS
  0
LAYER
  2
SAPA_ISOLATOR
 70
     0
 62
     4
  6
CONTINUOUS
  0
LAYER
  2
SAPA_GLAS
 70
     0
 62
     4
  6
CONTINUOUS
  0
LAYER
  2
SAPA_FOGBAND
 70
     0
 62
     2
  6
CONTINUOUS
  0
LAYER
  2
SAPA_PROFIL
 70
     0
 62
     7
  6
CONTINUOUS
  0
ENDTAB
  0
TABLE
  2
STYLE
 70
    30
  0
STYLE
  2
STANDARD
 70
     0
 40
0.0
 41
1.0
 50
0.0
 71
     0
 42
0.2
  3
txt
  4

  0
STYLE
  2
ISO
 70
     0
 40
0.0
 41
1.0
 50
0.0
 71
     0
 42
3.5
  3
txt
  4

  0
STYLE
  2

 70
     1
 40
0.0
 41
1.0
 50
0.0
 71
     0
 42
0.2
  3
ltypeshp.shx
  4

  0
STYLE
  2
BYGG-022681$0$STANDARD
 70
     0
 40
0.0
 41
1.0
 50
0.0
 71
     0
 42
0.2
  3
txt
  4

  0
STYLE
  2
BYGG-022681$0$ISO
 70
     0
 40
0.0
 41
1.0
 50
0.0
 71
     0
 42
3.5
  3
txt
  4

  0
STYLE
  2
BYGG-014306$0$STANDARD
 70
     0
 40
0.0
 41
1.0
 50
0.0
 71
     0
 42
0.2
  3
txt
  4

  0
STYLE
  2
BYGG-021582$0$STANDARD
 70
     0
 40
0.0
 41
1.0
 50
0.0
 71
     0
 42
0.2
  3
txt
  4

  0
STYLE
  2
BYGG-021582$0$ISO
 70
     0
 40
0.0
 41
1.0
 50
0.0
 71
     0
 42
3.5
  3
isocp3.shx
  4

  0
STYLE
  2
BYGG-014279$0$STANDARD
 70
     0
 40
0.0
 41
1.0
 50
0.0
 71
     0
 42
0.2
  3
TXT.shx
  4

  0
STYLE
  2
BYGG-014279$0$ISO
 70
     0
 40
0.0
 41
1.0
 50
0.0
 71
     0
 42
3.5
  3
iso
  4

  0
STYLE
  2
BYGG-021667$0$STANDARD
 70
     0
 40
0.0
 41
1.0
 50
0.0
 71
     0
 42
0.2
  3
txt
  4

  0
STYLE
  2
BYGG-021667$0$ISO
 70
     0
 40
0.0
 41
1.0
 50
0.0
 71
     0
 42
3.5
  3
isocp3.shx
  4

  0
STYLE
  2
BYGG-01482301$0$STANDARD
 70
     0
 40
0.0
 41
1.0
 50
0.0
 71
     0
 42
0.2
  3
txt
  4

  0
STYLE
  2
BYGG-01482301$0$ISO
 70
     0
 40
0.0
 41
1.0
 50
0.0
 71
     0
 42
3.5
  3
isocp3.shx
  4

  0
STYLE
  2
BYGG-035294$0$STANDARD
 70
     0
 40
0.0
 41
1.0
 50
0.0
 71
     0
 42
0.2
  3
txt
  4

  0
STYLE
  2
BYGG-035294$0$ISO
 70
     0
 40
0.0
 41
1.0
 50
0.0
 71
     0
 42
3.5
  3
txt
  4

  0
STYLE
  2
BYGG-035294$0$ANNOTATIVE
 70
     0
 40
0.0
 41
1.0
 50
0.0
 71
     0
 42
0.2
  3
txt
  4

  0
STYLE
  2
BYGG-021480$0$STANDARD
 70
     0
 40
0.0
 41
1.0
 50
0.0
 71
     0
 42
0.2
  3
txt
  4

  0
STYLE
  2
BYGG-021480$0$ISO
 70
     0
 40
0.0
 41
1.0
 50
0.0
 71
     0
 42
3.5
  3
txt
  4

  0
STYLE
  2
BYGG-021480$0$ROMANS
 70
     0
 40
0.0
 41
1.0
 50
0.0
 71
     0
 42
3.5
  3
romans.shx
  4

  0
STYLE
  2
BYGG-035293$0$STANDARD
 70
     0
 40
0.0
 41
1.0
 50
0.0
 71
     0
 42
0.2
  3
txt
  4

  0
STYLE
  2
BYGG-035293$0$ISO
 70
     0
 40
0.0
 41
1.0
 50
0.0
 71
     0
 42
3.5
  3
txt
  4

  0
STYLE
  2
BYGG-020805$0$STANDARD
 70
     0
 40
0.0
 41
1.0
 50
0.0
 71
     0
 42
0.2
  3
txt
  4

  0
STYLE
  2
BYGG-020805$0$ISO
 70
     0
 40
0.0
 41
1.0
 50
0.0
 71
     0
 42
3.5
  3
txt
  4

  0
STYLE
  2
BYGG-014117$0$STANDARD
 70
     0
 40
0.0
 41
1.0
 50
0.0
 71
     0
 42
0.2
  3
txt
  4

  0
STYLE
  2
BYGG-014117$0$ISO
 70
     0
 40
0.0
 41
1.0
 50
0.0
 71
     0
 42
3.5
  3
isocp3.shx
  4

  0
STYLE
  2
BYGG-023714$0$STANDARD
 70
     0
 40
0.0
 41
1.0
 50
0.0
 71
     0
 42
0.2
  3
txt
  4

  0
STYLE
  2
BYGG-023714$0$ISO
 70
     0
 40
0.0
 41
1.0
 50
0.0
 71
     0
 42
3.5
  3
txt
  4

  0
STYLE
  2
BYGG-035302$0$STANDARD
 70
     0
 40
0.0
 41
1.0
 50
0.0
 71
     0
 42
0.2
  3
txt
  4

  0
STYLE
  2
BYGG-035302$0$ISO
 70
     0
 40
0.0
 41
1.0
 50
0.0
 71
     0
 42
3.5
  3
txt
  4

  0
ENDTAB
  0
TABLE
  2
VIEW
 70
     0
  0
ENDTAB
  0
TABLE
  2
UCS
 70
     0
  0
ENDTAB
  0
TABLE
  2
APPID
 70
    27
  0
APPID
  2
ACAD
 70
     0
  0
APPID
  2
ACAD_DSTYLE_DIMTEXT_FILL
 70
     0
  0
APPID
  2
ACAD_DSTYLE_DIMEXT_LENGTH
 70
     0
  0
APPID
  2
ACAD_DSTYLE_DIMEXT_ENABLED
 70
     0
  0
APPID
  2
ACAD_DSTYLE_DIM_LINETYPE
 70
     0
  0
APPID
  2
ACAD_DSTYLE_DIM_EXT1_LINETYPE
 70
     0
  0
APPID
  2
ACAD_DSTYLE_DIM_EXT2_LINETYPE
 70
     0
  0
APPID
  2
ACAD_DSTYLE_DIMJOGGED_JOGA
 70
     0
  0
APPID
  2
ACAD_DSTYLE_DIMARC_LENGTH_
 70
     0
  0
APPID
  2
ACAD_PSEXT
 70
     0
  0
APPID
  2
ACAD_MLEADERVER
 70
     0
  0
APPID
  2
ACAD_NAV_VCDISPLAY
 70
     0
  0
APPID
  2
AMG_ARCHIVE11
 70
     0
  0
APPID
  2
ACADANNOTATIVE
 70
     0
  0
APPID
  2
ACAD_EXEMPT_FROM_CAD_STANDARDS
 70
     0
  0
APPID
  2
ACAECLAYERSTANDARD
 70
     0
  0
APPID
  2
DCO15
 70
     0
  0
APPID
  2
ACDBDYNAMICBLOCKGUID
 70
     0
  0
APPID
  2
ACDBBLOCKREPETAG
 70
     0
  0
APPID
  2
ACAD_DSTYLE_DIMJAG
 70
     0
  0
APPID
  2
ACAD_DSTYLE_DIMBREAK
 70
     0
  0
APPID
  2
ACAD_DSTYLE_DIMTALN
 70
     0
  0
APPID
  2
AME_SOL
 70
     0
  0
APPID
  2
ACCMTRANSPARENCY
 70
     0
  0
APPID
  2
ACAUTHENVIRON
 70
     0
  0
APPID
  2
ACDBDYNAMICBLOCKTRUENAME
 70
     0
  0
APPID
  2
AEC_XDATA_BOUND_SPACE
 70
     0
  0
ENDTAB
  0
TABLE
  2
DIMSTYLE
 70
    26
  0
DIMSTYLE
  2
STANDARD
 70
     0
  3

  4

  5

  6

  7

 40
1.0
 41
0.18
 42
0.0625
 43
0.38
 44
0.18
 45
0.0
 46
0.0
 47
0.0
 48
0.0
140
0.18
141
0.09
142
0.0
143
25.399999999999999
144
1.0
145
0.0
146
1.0
147
0.09
 71
     0
 72
     0
 73
     1
 74
     1
 75
     0
 76
     0
 77
     0
 78
     0
170
     0
171
     2
172
     0
173
     0
174
     0
175
     0
176
     0
177
     0
178
     0
  0
DIMSTYLE
  2
MASKIN
 70
     0
  3

  4

  5

  6

  7

 40
0.0
 41
3.0
 42
1.5
 43
10.0
 44
1.5
 45
0.0
 46
0.0
 47
0.0
 48
0.0
140
3.0
141
-5.0
142
0.0
143
25.399999999999999
144
-1.0
145
0.0
146
1.0
147
1.0
 71
     0
 72
     0
 73
     0
 74
     0
 75
     0
 76
     0
 77
     1
 78
     8
170
     0
171
     0
172
     1
173
     0
174
     0
175
     0
176
   256
177
   256
178
     2
  0
DIMSTYLE
  2
BYGG-022681$0$STANDARD
 70
     0
  3

  4

  5

  6

  7

 40
1.0
 41
0.18
 42
0.0625
 43
0.38
 44
0.18
 45
0.0
 46
0.0
 47
0.0
 48
0.0
140
0.18
141
0.09
142
0.0
143
25.399999999999999
144
1.0
145
0.0
146
1.0
147
0.09
 71
     0
 72
     0
 73
     1
 74
     1
 75
     0
 76
     0
 77
     0
 78
     0
170
     0
171
     2
172
     0
173
     0
174
     0
175
     0
176
     0
177
     0
178
     0
  0
DIMSTYLE
  2
BYGG-022681$0$MASKIN
 70
     0
  3

  4

  5

  6

  7

 40
0.0
 41
3.0
 42
1.5
 43
10.0
 44
1.5
 45
0.0
 46
0.0
 47
0.0
 48
0.0
140
3.0
141
-5.0
142
0.0
143
25.399999999999999
144
-1.0
145
0.0
146
1.0
147
1.0
 71
     0
 72
     0
 73
     0
 74
     0
 75
     0
 76
     0
 77
     1
 78
     8
170
     0
171
     0
172
     1
173
     0
174
     0
175
     0
176
   256
177
   256
178
     2
  0
DIMSTYLE
  2
BYGG-014306$0$STANDARD
 70
     0
  3

  4

  5

  6

  7

 40
1.0
 41
0.18
 42
0.0625
 43
0.38
 44
0.18
 45
0.0
 46
0.0
 47
0.0
 48
0.0
140
0.18
141
0.09
142
0.0
143
25.399999999999999
144
1.0
145
0.0
146
1.0
147
0.09
 71
     0
 72
     0
 73
     1
 74
     1
 75
     0
 76
     0
 77
     0
 78
     0
170
     0
171
     2
172
     0
173
     0
174
     0
175
     0
176
     0
177
     0
178
     0
  0
DIMSTYLE
  2
BYGG-021582$0$MASKIN
 70
     0
  3

  4

  5

  6

  7

 40
0.0
 41
3.0
 42
1.5
 43
10.0
 44
1.5
 45
0.0
 46
0.0
 47
0.0
 48
0.0
140
3.0
141
-5.0
142
0.0
143
25.399999999999999
144
-1.0
145
0.0
146
1.0
147
1.0
 71
     0
 72
     0
 73
     0
 74
     0
 75
     0
 76
     0
 77
     1
 78
     8
170
     0
171
     0
172
     1
173
     0
174
     0
175
     0
176
   256
177
   256
178
   256
  0
DIMSTYLE
  2
BYGG-014279$0$STANDARD
 70
     0
  3

  4

  5

  6

  7

 40
1.0
 41
0.18
 42
0.0625
 43
0.38
 44
0.18
 45
0.0
 46
0.0
 47
0.0
 48
0.0
140
0.18
141
0.09
142
0.0
143
25.399999999999999
144
1.0
145
0.0
146
1.0
147
0.09
 71
     0
 72
     0
 73
     1
 74
     1
 75
     0
 76
     0
 77
     0
 78
     0
170
     0
171
     2
172
     0
173
     0
174
     0
175
     0
176
     0
177
     0
178
     0
  0
DIMSTYLE
  2
BYGG-014279$0$MASKIN
 70
     0
  3

  4

  5

  6

  7

 40
0.0
 41
3.0
 42
1.5
 43
10.0
 44
1.5
 45
0.0
 46
0.0
 47
0.0
 48
0.0
140
3.0
141
-5.0
142
0.0
143
25.399999999999999
144
-1.0
145
0.0
146
1.0
147
1.0
 71
     0
 72
     0
 73
     0
 74
     1
 75
     0
 76
     0
 77
     1
 78
     8
170
     0
171
     0
172
     1
173
     0
174
     0
175
     0
176
   256
177
   256
178
     2
  0
DIMSTYLE
  2
BYGG-021667$0$MASKIN
 70
     0
  3

  4

  5

  6

  7

 40
0.0
 41
3.0
 42
1.5
 43
10.0
 44
1.5
 45
0.0
 46
0.0
 47
0.0
 48
0.0
140
3.0
141
-5.0
142
0.0
143
25.399999999999999
144
-1.0
145
0.0
146
1.0
147
1.0
 71
     0
 72
     0
 73
     0
 74
     0
 75
     0
 76
     0
 77
     1
 78
     8
170
     0
171
     0
172
     1
173
     0
174
     0
175
     0
176
   256
177
   256
178
   256
  0
DIMSTYLE
  2
BYGG-01482301$0$STANDARD
 70
     0
  3

  4

  5

  6

  7

 40
1.0
 41
0.18
 42
0.0625
 43
0.38
 44
0.18
 45
0.0
 46
0.0
 47
0.0
 48
0.0
140
0.18
141
0.09
142
0.0
143
25.399999999999999
144
1.0
145
0.0
146
1.0
147
0.09
 71
     0
 72
     0
 73
     1
 74
     1
 75
     0
 76
     0
 77
     0
 78
     0
170
     0
171
     2
172
     0
173
     0
174
     0
175
     0
176
     0
177
     0
178
     0
  0
DIMSTYLE
  2
BYGG-01482301$0$MASKIN
 70
     0
  3

  4

  5

  6

  7

 40
0.0
 41
3.0
 42
1.5
 43
10.0
 44
1.5
 45
0.0
 46
0.0
 47
0.0
 48
0.0
140
3.0
141
-5.0
142
0.0
143
25.399999999999999
144
-1.0
145
0.0
146
1.0
147
1.0
 71
     0
 72
     0
 73
     0
 74
     1
 75
     0
 76
     0
 77
     1
 78
     8
170
     0
171
     0
172
     1
173
     0
174
     0
175
     0
176
   256
177
   256
178
     2
  0
DIMSTYLE
  2
BYGG-035294$0$STANDARD
 70
     0
  3

  4

  5

  6

  7

 40
1.0
 41
0.18
 42
0.0625
 43
0.38
 44
0.18
 45
0.0
 46
0.0
 47
0.0
 48
0.0
140
0.18
141
0.09
142
0.0
143
25.399999999999999
144
1.0
145
0.0
146
1.0
147
0.09
 71
     0
 72
     0
 73
     1
 74
     1
 75
     0
 76
     0
 77
     0
 78
     0
170
     0
171
     2
172
     0
173
     0
174
     0
175
     0
176
     0
177
     0
178
     0
  0
DIMSTYLE
  2
BYGG-035294$0$MASKIN
 70
     0
  3

  4

  5

  6

  7

 40
0.0
 41
3.0
 42
1.5
 43
10.0
 44
1.5
 45
0.0
 46
0.0
 47
0.0
 48
0.0
140
3.0
141
-5.0
142
0.0
143
25.399999999999999
144
-1.0
145
0.0
146
1.0
147
1.0
 71
     0
 72
     0
 73
     0
 74
     0
 75
     0
 76
     0
 77
     1
 78
     8
170
     0
171
     0
172
     1
173
     0
174
     0
175
     0
176
   256
177
   256
178
     2
  0
DIMSTYLE
  2
BYGG-035294$0$ANNOTATIVE
 70
     0
  3

  4

  5

  6

  7

 40
1.0
 41
0.18
 42
0.0625
 43
0.38
 44
0.18
 45
0.0
 46
0.0
 47
0.0
 48
0.0
140
0.18
141
0.09
142
0.0
143
25.399999999999999
144
1.0
145
0.0
146
1.0
147
0.09
 71
     0
 72
     0
 73
     1
 74
     1
 75
     0
 76
     0
 77
     0
 78
     0
170
     0
171
     2
172
     0
173
     0
174
     0
175
     0
176
     0
177
     0
178
     0
  0
DIMSTYLE
  2
BYGG-021480$0$STANDARD
 70
     0
  3

  4

  5

  6

  7

 40
1.0
 41
0.18
 42
0.0625
 43
0.38
 44
0.18
 45
0.0
 46
0.0
 47
0.0
 48
0.0
140
0.18
141
0.09
142
0.0
143
25.399999999999999
144
1.0
145
0.0
146
1.0
147
0.09
 71
     0
 72
     0
 73
     1
 74
     1
 75
     0
 76
     0
 77
     0
 78
     0
170
     0
171
     2
172
     0
173
     0
174
     0
175
     0
176
     0
177
     0
178
     0
  0
DIMSTYLE
  2
BYGG-021480$0$MASKIN
 70
     0
  3

  4

  5

  6

  7

 40
0.0
 41
3.0
 42
1.5
 43
10.0
 44
1.5
 45
0.0
 46
0.0
 47
0.0
 48
0.0
140
3.0
141
-5.0
142
0.0
143
25.399999999999999
144
-1.0
145
0.0
146
1.0
147
1.0
 71
     0
 72
     0
 73
     0
 74
     0
 75
     0
 76
     0
 77
     1
 78
     8
170
     0
171
     0
172
     1
173
     0
174
     0
175
     0
176
   256
177
   256
178
     2
  0
DIMSTYLE
  2
BYGG-021480$0$PRIMO_2_5-1
 70
     0
  3

  4

  5

  6

  7

 40
0.4
 41
3.0
 42
1.0
 43
5.0
 44
1.0
 45
0.0
 46
0.0
 47
0.0
 48
0.0
140
3.0
141
3.0
142
0.0
143
25.399999999999999
144
1.0
145
0.0
146
1.0
147
1.0
 71
     0
 72
     0
 73
     0
 74
     0
 75
     0
 76
     0
 77
     1
 78
     8
170
     0
171
     2
172
     0
173
     0
174
     0
175
     0
176
   256
177
   256
178
     6
  0
DIMSTYLE
  2
BYGG-035293$0$STANDARD
 70
     0
  3

  4

  5

  6

  7

 40
1.0
 41
0.18
 42
0.0625
 43
0.38
 44
0.18
 45
0.0
 46
0.0
 47
0.0
 48
0.0
140
0.18
141
0.09
142
0.0
143
25.399999999999999
144
1.0
145
0.0
146
1.0
147
0.09
 71
     0
 72
     0
 73
     1
 74
     1
 75
     0
 76
     0
 77
     0
 78
     0
170
     0
171
     2
172
     0
173
     0
174
     0
175
     0
176
     0
177
     0
178
     0
  0
DIMSTYLE
  2
BYGG-035293$0$MASKIN
 70
     0
  3

  4

  5

  6

  7

 40
0.0
 41
3.0
 42
1.5
 43
10.0
 44
1.5
 45
0.0
 46
0.0
 47
0.0
 48
0.0
140
3.0
141
-5.0
142
0.0
143
25.399999999999999
144
-1.0
145
0.0
146
1.0
147
1.0
 71
     0
 72
     0
 73
     0
 74
     0
 75
     0
 76
     0
 77
     1
 78
     8
170
     0
171
     0
172
     1
173
     0
174
     0
175
     0
176
   256
177
   256
178
     2
  0
DIMSTYLE
  2
BYGG-020805$0$STANDARD
 70
     0
  3

  4

  5

  6

  7

 40
1.0
 41
0.18
 42
0.0625
 43
0.38
 44
0.18
 45
0.0
 46
0.0
 47
0.0
 48
0.0
140
0.18
141
0.09
142
0.0
143
25.399999999999999
144
1.0
145
0.0
146
1.0
147
0.09
 71
     0
 72
     0
 73
     1
 74
     1
 75
     0
 76
     0
 77
     0
 78
     0
170
     0
171
     2
172
     0
173
     0
174
     0
175
     0
176
     0
177
     0
178
     0
  0
DIMSTYLE
  2
BYGG-020805$0$MASKIN
 70
     0
  3

  4

  5

  6

  7

 40
0.0
 41
3.0
 42
1.5
 43
10.0
 44
1.5
 45
0.0
 46
0.0
 47
0.0
 48
0.0
140
3.0
141
-5.0
142
0.0
143
25.399999999999999
144
-1.0
145
0.0
146
1.0
147
1.0
 71
     0
 72
     0
 73
     0
 74
     0
 75
     0
 76
     0
 77
     1
 78
     8
170
     0
171
     0
172
     1
173
     0
174
     0
175
     0
176
   256
177
   256
178
     2
  0
DIMSTYLE
  2
BYGG-014117$0$MASKIN
 70
     0
  3

  4

  5

  6

  7

 40
0.0
 41
3.0
 42
1.5
 43
10.0
 44
1.5
 45
0.0
 46
0.0
 47
0.0
 48
0.0
140
3.0
141
-5.0
142
0.0
143
25.399999999999999
144
-1.0
145
0.0
146
1.0
147
1.0
 71
     0
 72
     0
 73
     0
 74
     0
 75
     0
 76
     0
 77
     1
 78
     8
170
     0
171
     0
172
     1
173
     0
174
     0
175
     0
176
   256
177
   256
178
   256
  0
DIMSTYLE
  2
BYGG-023714$0$STANDARD
 70
     0
  3

  4

  5

  6

  7

 40
1.0
 41
0.18
 42
0.0625
 43
0.38
 44
0.18
 45
0.0
 46
0.0
 47
0.0
 48
0.0
140
0.18
141
0.09
142
0.0
143
25.399999999999999
144
1.0
145
0.0
146
1.0
147
0.09
 71
     0
 72
     0
 73
     1
 74
     1
 75
     0
 76
     0
 77
     0
 78
     0
170
     0
171
     2
172
     0
173
     0
174
     0
175
     0
176
     0
177
     0
178
     0
  0
DIMSTYLE
  2
BYGG-023714$0$MASKIN
 70
     0
  3

  4

  5

  6

  7

 40
0.0
 41
3.0
 42
1.5
 43
10.0
 44
1.5
 45
0.0
 46
0.0
 47
0.0
 48
0.0
140
3.0
141
-5.0
142
0.0
143
25.399999999999999
144
-1.0
145
0.0
146
1.0
147
1.0
 71
     0
 72
     0
 73
     0
 74
     0
 75
     0
 76
     0
 77
     1
 78
     8
170
     0
171
     0
172
     1
173
     0
174
     0
175
     0
176
   256
177
   256
178
     2
  0
DIMSTYLE
  2
BYGG-035302$0$STANDARD
 70
     0
  3

  4

  5

  6

  7

 40
1.0
 41
0.18
 42
0.0625
 43
0.38
 44
0.18
 45
0.0
 46
0.0
 47
0.0
 48
0.0
140
0.18
141
0.09
142
0.0
143
25.399999999999999
144
1.0
145
0.0
146
1.0
147
0.09
 71
     0
 72
     0
 73
     1
 74
     1
 75
     0
 76
     0
 77
     0
 78
     0
170
     0
171
     2
172
     0
173
     0
174
     0
175
     0
176
     0
177
     0
178
     0
  0
DIMSTYLE
  2
BYGG-035302$0$MASKIN
 70
     0
  3

  4

  5

  6

  7

 40
0.0
 41
3.0
 42
1.5
 43
10.0
 44
1.5
 45
0.0
 46
0.0
 47
0.0
 48
0.0
140
3.0
141
-5.0
142
0.0
143
25.399999999999999
144
-1.0
145
0.0
146
1.0
147
1.0
 71
     0
 72
     0
 73
     0
 74
     0
 75
     0
 76
     0
 77
     1
 78
     8
170
     0
171
     0
172
     1
173
     0
174
     0
175
     0
176
   256
177
   256
178
     2
  0
ENDTAB
  0
ENDSEC
  0
SECTION
  2
BLOCKS
  0
BLOCK
  8
0
  2
$MODEL_SPACE
 70
     0
 10
0.0
 20
0.0
 30
0.0
  3
$MODEL_SPACE
  1

  0
ENDBLK
  5
37
  8
0
  0
BLOCK
 67
     1
  8
0
  2
$PAPER_SPACE
 70
     0
 10
0.0
 20
0.0
 30
0.0
  3
$PAPER_SPACE
  1

  0
ENDBLK
  5
35
 67
     1
  8
0
  0
BLOCK
  8
0
  2
*U33
 70
     1
 10
0.0
 20
0.0
 30
0.0
  3
*U33
  1

  0
SOLID
  5
1273
  8
SAPA_FOGBAND
  6
CONTINUOUS
 10
22.025283841427662
 20
57.329844007886869
 30
0.0
 11
21.84500627765447
 21
57.255170595980431
 31
0.0
 12
22.205561405200861
 22
57.255170595980431
 32
0.0
 13
22.205561405200861
 23
57.255170595980431
 33
0.0
210
0.0
220
0.0
230
1.0
  0
SOLID
  5
1274
  8
SAPA_FOGBAND
  6
CONTINUOUS
 10
21.84500627765447
 20
57.255170595980431
 30
0.0
 11
21.770332865748021
 21
57.074893032207228
 31
0.0
 12
22.28023481710731
 22
57.074893032207228
 32
0.0
 13
22.28023481710731
 23
57.074893032207228
 33
0.0
210
0.0
220
0.0
230
1.0
  0
SOLID
  5
1275
  8
SAPA_FOGBAND
  6
CONTINUOUS
 10
-21.84500627765447
 20
57.255170595980431
 30
0.0
 11
-22.205561405200861
 21
57.255170595980431
 31
0.0
 12
-22.28023481710731
 22
57.074893032207228
 32
0.0
 13
-22.28023481710731
 23
57.074893032207228
 33
0.0
210
0.0
220
0.0
230
-1.0
  0
SOLID
  5
1276
  8
SAPA_FOGBAND
  6
CONTINUOUS
 10
-21.84500627765447
 20
56.894615468434033
 30
0.0
 11
-22.205561405200861
 21
56.894615468434033
 31
0.0
 12
-22.025283841427662
 22
56.819942056527587
 32
0.0
 13
-22.025283841427662
 23
56.819942056527587
 33
0.0
210
0.0
220
0.0
230
-1.0
  0
SOLID
  5
1277
  8
SAPA_FOGBAND
  6
CONTINUOUS
 10
21.770332865748021
 20
57.074893032207228
 30
0.0
 11
21.84500627765447
 21
56.894615468434033
 31
0.0
 12
22.205561405200861
 22
56.894615468434033
 32
0.0
 13
22.205561405200861
 23
56.894615468434033
 33
0.0
210
0.0
220
0.0
230
1.0
  0
SOLID
  5
1278
  8
SAPA_FOGBAND
  6
CONTINUOUS
 10
-21.770332865748021
 20
57.074893032207228
 30
0.0
 11
-22.28023481710731
 21
57.074893032207228
 31
0.0
 12
-22.205561405200861
 22
56.894615468434033
 32
0.0
 13
-22.205561405200861
 23
56.894615468434033
 33
0.0
210
0.0
220
0.0
230
-1.0
  0
LINE
  5
1279
  8
SAPA_FOGBAND
  6
CONTINUOUS
 10
22.025283841427662
 20
57.329844007886869
 30
0.0
 11
21.84500627765447
 21
57.255170595980431
 31
0.0
  0
LINE
  5
127A
  8
SAPA_FOGBAND
  6
CONTINUOUS
 10
22.205561405200861
 20
57.255170595980431
 30
0.0
 11
22.025283841427662
 21
57.329844007886869
 31
0.0
  0
LINE
  5
127B
  8
SAPA_FOGBAND
  6
CONTINUOUS
 10
21.84500627765447
 20
57.255170595980431
 30
0.0
 11
21.770332865748021
 21
57.074893032207228
 31
0.0
  0
LINE
  5
127C
  8
SAPA_FOGBAND
  6
CONTINUOUS
 10
22.205561405200861
 20
57.255170595980431
 30
0.0
 11
22.28023481710731
 21
57.074893032207228
 31
0.0
  0
LINE
  5
127D
  8
SAPA_FOGBAND
  6
CONTINUOUS
 10
22.205561405200861
 20
56.894615468434033
 30
0.0
 11
22.025283841427662
 21
56.819942056527587
 31
0.0
  0
LINE
  5
127E
  8
SAPA_FOGBAND
  6
CONTINUOUS
 10
22.025283841427662
 20
56.819942056527587
 30
0.0
 11
21.84500627765447
 21
56.894615468434033
 31
0.0
  0
LINE
  5
127F
  8
SAPA_FOGBAND
  6
CONTINUOUS
 10
21.770332865748021
 20
57.074893032207228
 30
0.0
 11
21.84500627765447
 21
56.894615468434033
 31
0.0
  0
LINE
  5
1280
  8
SAPA_FOGBAND
  6
CONTINUOUS
 10
22.28023481710731
 20
57.074893032207228
 30
0.0
 11
22.205561405200861
 21
56.894615468434033
 31
0.0
  0
ENDBLK
  5
1282
  8
0
  0
BLOCK
  8
0
  2
*U34
 70
     1
 10
0.0
 20
0.0
 30
0.0
  3
*U34
  1

  0
SOLID
  5
135E
  8
SAPA_FOGBAND
  6
CONTINUOUS
 10
21.6343852068252
 20
94.714578121323228
 30
0.0
 11
21.454107643052001
 21
94.639904709416797
 31
0.0
 12
21.8146627705984
 22
94.639904709416797
 32
0.0
 13
21.8146627705984
 23
94.639904709416797
 33
0.0
210
0.0
220
0.0
230
1.0
  0
SOLID
  5
135F
  8
SAPA_FOGBAND
  6
CONTINUOUS
 10
21.454107643052001
 20
94.639904709416797
 30
0.0
 11
21.379434231145559
 21
94.459627145643594
 31
0.0
 12
21.889336182504842
 22
94.459627145643594
 32
0.0
 13
21.889336182504842
 23
94.459627145643594
 33
0.0
210
0.0
220
0.0
230
1.0
  0
SOLID
  5
1360
  8
SAPA_FOGBAND
  6
CONTINUOUS
 10
-21.454107643052001
 20
94.639904709416797
 30
0.0
 11
-21.8146627705984
 21
94.639904709416797
 31
0.0
 12
-21.889336182504842
 22
94.459627145643594
 32
0.0
 13
-21.889336182504842
 23
94.459627145643594
 33
0.0
210
0.0
220
0.0
230
-1.0
  0
SOLID
  5
1361
  8
SAPA_FOGBAND
  6
CONTINUOUS
 10
-21.454107643052001
 20
94.279349581870392
 30
0.0
 11
-21.8146627705984
 21
94.279349581870392
 31
0.0
 12
-21.6343852068252
 22
94.204676169963946
 32
0.0
 13
-21.6343852068252
 23
94.204676169963946
 33
0.0
210
0.0
220
0.0
230
-1.0
  0
SOLID
  5
1362
  8
SAPA_FOGBAND
  6
CONTINUOUS
 10
21.379434231145559
 20
94.459627145643594
 30
0.0
 11
21.454107643052001
 21
94.279349581870392
 31
0.0
 12
21.8146627705984
 22
94.279349581870392
 32
0.0
 13
21.8146627705984
 23
94.279349581870392
 33
0.0
210
0.0
220
0.0
230
1.0
  0
SOLID
  5
1363
  8
SAPA_FOGBAND
  6
CONTINUOUS
 10
-21.379434231145559
 20
94.459627145643594
 30
0.0
 11
-21.889336182504842
 21
94.459627145643594
 31
0.0
 12
-21.8146627705984
 22
94.279349581870392
 32
0.0
 13
-21.8146627705984
 23
94.279349581870392
 33
0.0
210
0.0
220
0.0
230
-1.0
  0
LINE
  5
1364
  8
SAPA_FOGBAND
  6
CONTINUOUS
 10
21.6343852068252
 20
94.714578121323228
 30
0.0
 11
21.454107643052001
 21
94.639904709416797
 31
0.0
  0
LINE
  5
1365
  8
SAPA_FOGBAND
  6
CONTINUOUS
 10
21.8146627705984
 20
94.639904709416797
 30
0.0
 11
21.6343852068252
 21
94.714578121323228
 31
0.0
  0
LINE
  5
1366
  8
SAPA_FOGBAND
  6
CONTINUOUS
 10
21.454107643052001
 20
94.639904709416797
 30
0.0
 11
21.379434231145559
 21
94.459627145643594
 31
0.0
  0
LINE
  5
1367
  8
SAPA_FOGBAND
  6
CONTINUOUS
 10
21.8146627705984
 20
94.639904709416797
 30
0.0
 11
21.889336182504842
 21
94.459627145643594
 31
0.0
  0
LINE
  5
1368
  8
SAPA_FOGBAND
  6
CONTINUOUS
 10
21.8146627705984
 20
94.279349581870392
 30
0.0
 11
21.6343852068252
 21
94.204676169963946
 31
0.0
  0
LINE
  5
1369
  8
SAPA_FOGBAND
  6
CONTINUOUS
 10
21.6343852068252
 20
94.204676169963946
 30
0.0
 11
21.454107643052001
 21
94.279349581870392
 31
0.0
  0
LINE
  5
136A
  8
SAPA_FOGBAND
  6
CONTINUOUS
 10
21.379434231145559
 20
94.459627145643594
 30
0.0
 11
21.454107643052001
 21
94.279349581870392
 31
0.0
  0
LINE
  5
136B
  8
SAPA_FOGBAND
  6
CONTINUOUS
 10
21.889336182504842
 20
94.459627145643594
 30
0.0
 11
21.8146627705984
 21
94.279349581870392
 31
0.0
  0
ENDBLK
  5
136D
  8
0
  0
BLOCK
  8
0
  2
*U35
 70
     1
 10
0.0
 20
0.0
 30
0.0
  3
*U35
  1

  0
SOLID
  5
136F
  8
SAPA_FOGBAND
  6
CONTINUOUS
 10
22.025283841427662
 20
57.329844007886869
 30
0.0
 11
21.84500627765447
 21
57.255170595980431
 31
0.0
 12
22.205561405200861
 22
57.255170595980431
 32
0.0
 13
22.205561405200861
 23
57.255170595980431
 33
0.0
210
0.0
220
0.0
230
1.0
  0
SOLID
  5
1370
  8
SAPA_FOGBAND
  6
CONTINUOUS
 10
21.84500627765447
 20
57.255170595980431
 30
0.0
 11
21.770332865748021
 21
57.074893032207228
 31
0.0
 12
22.28023481710731
 22
57.074893032207228
 32
0.0
 13
22.28023481710731
 23
57.074893032207228
 33
0.0
210
0.0
220
0.0
230
1.0
  0
SOLID
  5
1371
  8
SAPA_FOGBAND
  6
CONTINUOUS
 10
-21.84500627765447
 20
57.255170595980431
 30
0.0
 11
-22.205561405200861
 21
57.255170595980431
 31
0.0
 12
-22.28023481710731
 22
57.074893032207228
 32
0.0
 13
-22.28023481710731
 23
57.074893032207228
 33
0.0
210
0.0
220
0.0
230
-1.0
  0
SOLID
  5
1372
  8
SAPA_FOGBAND
  6
CONTINUOUS
 10
-21.84500627765447
 20
56.894615468434033
 30
0.0
 11
-22.205561405200861
 21
56.894615468434033
 31
0.0
 12
-22.025283841427662
 22
56.819942056527587
 32
0.0
 13
-22.025283841427662
 23
56.819942056527587
 33
0.0
210
0.0
220
0.0
230
-1.0
  0
SOLID
  5
1373
  8
SAPA_FOGBAND
  6
CONTINUOUS
 10
21.770332865748021
 20
57.074893032207228
 30
0.0
 11
21.84500627765447
 21
56.894615468434033
 31
0.0
 12
22.205561405200861
 22
56.894615468434033
 32
0.0
 13
22.205561405200861
 23
56.894615468434033
 33
0.0
210
0.0
220
0.0
230
1.0
  0
SOLID
  5
1374
  8
SAPA_FOGBAND
  6
CONTINUOUS
 10
-21.770332865748021
 20
57.074893032207228
 30
0.0
 11
-22.28023481710731
 21
57.074893032207228
 31
0.0
 12
-22.205561405200861
 22
56.894615468434033
 32
0.0
 13
-22.205561405200861
 23
56.894615468434033
 33
0.0
210
0.0
220
0.0
230
-1.0
  0
LINE
  5
1375
  8
SAPA_FOGBAND
  6
CONTINUOUS
 10
22.025283841427662
 20
57.329844007886869
 30
0.0
 11
21.84500627765447
 21
57.255170595980431
 31
0.0
  0
LINE
  5
1376
  8
SAPA_FOGBAND
  6
CONTINUOUS
 10
22.205561405200861
 20
57.255170595980431
 30
0.0
 11
22.025283841427662
 21
57.329844007886869
 31
0.0
  0
LINE
  5
1377
  8
SAPA_FOGBAND
  6
CONTINUOUS
 10
21.84500627765447
 20
57.255170595980431
 30
0.0
 11
21.770332865748021
 21
57.074893032207228
 31
0.0
  0
LINE
  5
1378
  8
SAPA_FOGBAND
  6
CONTINUOUS
 10
22.205561405200861
 20
57.255170595980431
 30
0.0
 11
22.28023481710731
 21
57.074893032207228
 31
0.0
  0
LINE
  5
1379
  8
SAPA_FOGBAND
  6
CONTINUOUS
 10
22.205561405200861
 20
56.894615468434033
 30
0.0
 11
22.025283841427662
 21
56.819942056527587
 31
0.0
  0
LINE
  5
137A
  8
SAPA_FOGBAND
  6
CONTINUOUS
 10
22.025283841427662
 20
56.819942056527587
 30
0.0
 11
21.84500627765447
 21
56.894615468434033
 31
0.0
  0
LINE
  5
137B
  8
SAPA_FOGBAND
  6
CONTINUOUS
 10
21.770332865748021
 20
57.074893032207228
 30
0.0
 11
21.84500627765447
 21
56.894615468434033
 31
0.0
  0
LINE
  5
137C
  8
SAPA_FOGBAND
  6
CONTINUOUS
 10
22.28023481710731
 20
57.074893032207228
 30
0.0
 11
22.205561405200861
 21
56.894615468434033
 31
0.0
  0
ENDBLK
  5
137E
  8
0
  0
BLOCK
  8
0
  2
*U36
 70
     1
 10
0.0
 20
0.0
 30
0.0
  3
*U36
  1

  0
SOLID
  5
145A
  8
SAPA_FOGBAND
  6
CONTINUOUS
 10
21.6343852068252
 20
94.714578121323228
 30
0.0
 11
21.454107643052001
 21
94.639904709416797
 31
0.0
 12
21.8146627705984
 22
94.639904709416797
 32
0.0
 13
21.8146627705984
 23
94.639904709416797
 33
0.0
210
0.0
220
0.0
230
1.0
  0
SOLID
  5
145B
  8
SAPA_FOGBAND
  6
CONTINUOUS
 10
21.454107643052001
 20
94.639904709416797
 30
0.0
 11
21.379434231145559
 21
94.459627145643594
 31
0.0
 12
21.889336182504842
 22
94.459627145643594
 32
0.0
 13
21.889336182504842
 23
94.459627145643594
 33
0.0
210
0.0
220
0.0
230
1.0
  0
SOLID
  5
145C
  8
SAPA_FOGBAND
  6
CONTINUOUS
 10
-21.454107643052001
 20
94.639904709416797
 30
0.0
 11
-21.8146627705984
 21
94.639904709416797
 31
0.0
 12
-21.889336182504842
 22
94.459627145643594
 32
0.0
 13
-21.889336182504842
 23
94.459627145643594
 33
0.0
210
0.0
220
0.0
230
-1.0
  0
SOLID
  5
145D
  8
SAPA_FOGBAND
  6
CONTINUOUS
 10
-21.454107643052001
 20
94.279349581870392
 30
0.0
 11
-21.8146627705984
 21
94.279349581870392
 31
0.0
 12
-21.6343852068252
 22
94.204676169963946
 32
0.0
 13
-21.6343852068252
 23
94.204676169963946
 33
0.0
210
0.0
220
0.0
230
-1.0
  0
SOLID
  5
145E
  8
SAPA_FOGBAND
  6
CONTINUOUS
 10
21.379434231145559
 20
94.459627145643594
 30
0.0
 11
21.454107643052001
 21
94.279349581870392
 31
0.0
 12
21.8146627705984
 22
94.279349581870392
 32
0.0
 13
21.8146627705984
 23
94.279349581870392
 33
0.0
210
0.0
220
0.0
230
1.0
  0
SOLID
  5
145F
  8
SAPA_FOGBAND
  6
CONTINUOUS
 10
-21.379434231145559
 20
94.459627145643594
 30
0.0
 11
-21.889336182504842
 21
94.459627145643594
 31
0.0
 12
-21.8146627705984
 22
94.279349581870392
 32
0.0
 13
-21.8146627705984
 23
94.279349581870392
 33
0.0
210
0.0
220
0.0
230
-1.0
  0
LINE
  5
1460
  8
SAPA_FOGBAND
  6
CONTINUOUS
 10
21.6343852068252
 20
94.714578121323228
 30
0.0
 11
21.454107643052001
 21
94.639904709416797
 31
0.0
  0
LINE
  5
1461
  8
SAPA_FOGBAND
  6
CONTINUOUS
 10
21.8146627705984
 20
94.639904709416797
 30
0.0
 11
21.6343852068252
 21
94.714578121323228
 31
0.0
  0
LINE
  5
1462
  8
SAPA_FOGBAND
  6
CONTINUOUS
 10
21.454107643052001
 20
94.639904709416797
 30
0.0
 11
21.379434231145559
 21
94.459627145643594
 31
0.0
  0
LINE
  5
1463
  8
SAPA_FOGBAND
  6
CONTINUOUS
 10
21.8146627705984
 20
94.639904709416797
 30
0.0
 11
21.889336182504842
 21
94.459627145643594
 31
0.0
  0
LINE
  5
1464
  8
SAPA_FOGBAND
  6
CONTINUOUS
 10
21.8146627705984
 20
94.279349581870392
 30
0.0
 11
21.6343852068252
 21
94.204676169963946
 31
0.0
  0
LINE
  5
1465
  8
SAPA_FOGBAND
  6
CONTINUOUS
 10
21.6343852068252
 20
94.204676169963946
 30
0.0
 11
21.454107643052001
 21
94.279349581870392
 31
0.0
  0
LINE
  5
1466
  8
SAPA_FOGBAND
  6
CONTINUOUS
 10
21.379434231145559
 20
94.459627145643594
 30
0.0
 11
21.454107643052001
 21
94.279349581870392
 31
0.0
  0
LINE
  5
1467
  8
SAPA_FOGBAND
  6
CONTINUOUS
 10
21.889336182504842
 20
94.459627145643594
 30
0.0
 11
21.8146627705984
 21
94.279349581870392
 31
0.0
  0
ENDBLK
  5
1469
  8
0
  0
ENDSEC
  0
SECTION
  2
ENTITIES
  0
LINE
  5
B5B
  8
SAPA_FYLLNING
 10
93.162852062182296
 20
48.84970113826671
 30
0.0
 11
183.3450740910082
 21
48.849701138266603
 31
0.0
  0
ARC
  5
B5C
  8
SAPA_FYLLNING
 10
183.96844758048439
 20
42.860979344554572
 30
0.0
 40
6.0210782447883089
 50
266.73056047312667
 51
95.942587893554176
  0
LINE
  5
B5D
  8
SAPA_FYLLNING
 10
183.62505632191889
 20
36.849701138265686
 30
0.0
 11
93.162852062182296
 21
36.849701138264891
 31
0.0
  0
ARC
  5
B5E
  8
SAPA_FYLLNING
 10
93.162852062182296
 20
30.8497011382658
 30
0.0
 40
5.9999999999990896
 50
90.0
 51
270.0
  0
LINE
  5
B5F
  8
SAPA_FYLLNING
 10
93.162852062182296
 20
24.84970113826671
 30
0.0
 11
186.64978415662489
 21
24.841771429937701
 31
0.0
  0
ARC
  5
B60
  8
SAPA_FYLLNING
 10
187.62973546692189
 20
18.88049718805528
 30
0.0
 40
6.041282575536707
 50
266.6236169596126
 51
99.335146499494286
  0
LINE
  5
B61
  8
SAPA_FYLLNING
 10
187.273934731488
 20
12.849701138266481
 30
0.0
 11
93.162852062182296
 21
12.84970113826671
 31
0.0
  0
ARC
  5
B62
  8
SAPA_FYLLNING
 10
93.162852062182296
 20
6.8497011382676192
 30
0.0
 40
5.9999999999990896
 50
90.0
 51
270.0
  0
LINE
  5
B63
  8
SAPA_FYLLNING
 10
93.162852062182296
 20
0.8497011382685286
 30
0.0
 11
186.64978415662489
 21
0.8417714299395129
 31
0.0
  0
POLYLINE
  5
C2B
  8
SAPA_PROFIL
 62
     4
 66
     1
 10
0.0
 20
0.0
 30
0.0
 70
     1
  0
VERTEX
  5
F10
  8
SAPA_PROFIL
 62
     4
 10
73.101234776645427
 20
68.830269984776692
 30
0.0
 42
0.414213562373114
  0
VERTEX
  5
F11
  8
SAPA_PROFIL
 62
     4
 10
71.101234776645285
 20
70.830269984776692
 30
0.0
  0
VERTEX
  5
F12
  8
SAPA_PROFIL
 62
     4
 10
66.601234776645384
 20
70.830269984776407
 30
0.0
 42
0.4142135623730807
  0
VERTEX
  5
F13
  8
SAPA_PROFIL
 62
     4
 10
66.101234776645427
 20
70.330269984776407
 30
0.0
  0
VERTEX
  5
F14
  8
SAPA_PROFIL
 62
     4
 10
66.101234776645427
 20
69.830269984775782
 30
0.0
 42
0.4142135623730951
  0
VERTEX
  5
F15
  8
SAPA_PROFIL
 62
     4
 10
66.601234776645427
 20
69.330269984775782
 30
0.0
  0
VERTEX
  5
F16
  8
SAPA_PROFIL
 62
     4
 10
71.101234776645484
 20
69.330269984775782
 30
0.0
 42
-0.4142135623730847
  0
VERTEX
  5
F17
  8
SAPA_PROFIL
 62
     4
 10
71.601234776645484
 20
68.830269984775782
 30
0.0
  0
VERTEX
  5
F18
  8
SAPA_PROFIL
 62
     4
 10
71.601234776645541
 20
67.130269984778693
 30
0.0
 42
-0.4142135623731284
  0
VERTEX
  5
F19
  8
SAPA_PROFIL
 62
     4
 10
71.101234776645541
 20
66.630269984778693
 30
0.0
  0
VERTEX
  5
F1A
  8
SAPA_PROFIL
 62
     4
 10
43.101234776645533
 20
66.630269984780512
 30
0.0
 42
-0.4142135623730959
  0
VERTEX
  5
F1B
  8
SAPA_PROFIL
 62
     4
 10
42.601234776645519
 20
67.130269984780512
 30
0.0
  0
VERTEX
  5
F1C
  8
SAPA_PROFIL
 62
     4
 10
42.601234776645413
 20
68.830269984775782
 30
0.0
 42
-0.4142135623730951
  0
VERTEX
  5
F1D
  8
SAPA_PROFIL
 62
     4
 10
43.101234776645413
 20
69.330269984775782
 30
0.0
  0
VERTEX
  5
F1E
  8
SAPA_PROFIL
 62
     4
 10
47.60123477664456
 20
69.330269984775782
 30
0.0
 42
0.4142135623730951
  0
VERTEX
  5
F1F
  8
SAPA_PROFIL
 62
     4
 10
48.10123477664456
 20
69.830269984775782
 30
0.0
  0
VERTEX
  5
F20
  8
SAPA_PROFIL
 62
     4
 10
48.10123477664456
 20
70.330269984775242
 30
0.0
 42
0.4142135623731129
  0
VERTEX
  5
F21
  8
SAPA_PROFIL
 62
     4
 10
47.601234776644517
 20
70.830269984775242
 30
0.0
  0
VERTEX
  5
F22
  8
SAPA_PROFIL
 62
     4
 10
41.60123477664456
 20
70.830269984774873
 30
0.0
 42
0.4142135623730951
  0
VERTEX
  5
F23
  8
SAPA_PROFIL
 62
     4
 10
41.10123477664456
 20
70.330269984774873
 30
0.0
  0
VERTEX
  5
F24
  8
SAPA_PROFIL
 62
     4
 10
41.101234776645242
 20
58.030269984778322
 30
0.0
  0
VERTEX
  5
F25
  8
SAPA_PROFIL
 62
     4
 10
41.566158196211063
 20
57.443885969017508
 30
0.0
 42
0.7105995015669819
  0
VERTEX
  5
F26
  8
SAPA_PROFIL
 62
     4
 10
42.101234776646152
 20
57.630269984778693
 30
0.0
  0
VERTEX
  5
F27
  8
SAPA_PROFIL
 62
     4
 10
42.101234776645242
 20
58.630269984778693
 30
0.0
 42
-0.4142135623731117
  0
VERTEX
  5
F28
  8
SAPA_PROFIL
 62
     4
 10
42.601234776645242
 20
59.130269984778693
 30
0.0
  0
VERTEX
  5
F29
  8
SAPA_PROFIL
 62
     4
 10
46.601234776645242
 20
59.130269984778693
 30
0.0
 42
-0.4142135623730951
  0
VERTEX
  5
F2A
  8
SAPA_PROFIL
 62
     4
 10
47.101234776645242
 20
58.630269984778693
 30
0.0
  0
VERTEX
  5
F2B
  8
SAPA_PROFIL
 62
     4
 10
47.101234776645242
 20
53.030269984778322
 30
0.0
 42
-0.4142135623730951
  0
VERTEX
  5
F2C
  8
SAPA_PROFIL
 62
     4
 10
46.601234776645242
 20
52.530269984778329
 30
0.0
  0
VERTEX
  5
F2D
  8
SAPA_PROFIL
 62
     4
 10
42.601234776646152
 20
52.530269984778329
 30
0.0
 42
-0.4142135623730784
  0
VERTEX
  5
F2E
  8
SAPA_PROFIL
 62
     4
 10
42.101234776646152
 20
53.030269984778322
 30
0.0
  0
VERTEX
  5
F2F
  8
SAPA_PROFIL
 62
     4
 10
42.101234776645242
 20
54.030269984778329
 30
0.0
 42
0.7105995015654651
  0
VERTEX
  5
F30
  8
SAPA_PROFIL
 62
     4
 10
41.566158196211063
 20
54.216654000538597
 30
0.0
  0
VERTEX
  5
F31
  8
SAPA_PROFIL
 62
     4
 10
41.101234776645242
 20
53.630269984778693
 30
0.0
  0
VERTEX
  5
F32
  8
SAPA_PROFIL
 62
     4
 10
41.101234776645242
 20
51.530269984778329
 30
0.0
 42
0.4142135623730951
  0
VERTEX
  5
F33
  8
SAPA_PROFIL
 62
     4
 10
41.601234776645228
 20
51.030269984778329
 30
0.0
  0
VERTEX
  5
F34
  8
SAPA_PROFIL
 62
     4
 10
48.601234776645242
 20
51.030269984778329
 30
0.0
 42
0.4142135623730951
  0
VERTEX
  5
F35
  8
SAPA_PROFIL
 62
     4
 10
49.101234776645242
 20
51.530269984778329
 30
0.0
  0
VERTEX
  5
F36
  8
SAPA_PROFIL
 62
     4
 10
49.101234776646152
 20
53.130269984778693
 30
0.0
  0
VERTEX
  5
F37
  8
SAPA_PROFIL
 62
     4
 10
49.101234776646152
 20
53.130269984778693
 30
0.0
 42
-0.4142135623730951
  0
VERTEX
  5
F38
  8
SAPA_PROFIL
 62
     4
 10
48.601234776646152
 20
53.630269984778693
 30
0.0
  0
VERTEX
  5
F39
  8
SAPA_PROFIL
 62
     4
 10
48.601234776646152
 20
60.130269984777783
 30
0.0
 42
0.4142135623730951
  0
VERTEX
  5
F3A
  8
SAPA_PROFIL
 62
     4
 10
48.101234776646152
 20
60.630269984777783
 30
0.0
  0
VERTEX
  5
F3B
  8
SAPA_PROFIL
 62
     4
 10
43.101234776645242
 20
60.630269984777783
 30
0.0
 42
-0.4142135623730951
  0
VERTEX
  5
F3C
  8
SAPA_PROFIL
 62
     4
 10
42.601234776645242
 20
61.130269984777783
 30
0.0
  0
VERTEX
  5
F3D
  8
SAPA_PROFIL
 62
     4
 10
42.601234776645349
 20
64.630269984778693
 30
0.0
 42
-0.4142135623731117
  0
VERTEX
  5
F3E
  8
SAPA_PROFIL
 62
     4
 10
43.101234776645349
 20
65.130269984778693
 30
0.0
  0
VERTEX
  5
F3F
  8
SAPA_PROFIL
 62
     4
 10
88.601234776645967
 20
65.130269984776859
 30
0.0
 42
-0.4142135623724291
  0
VERTEX
  5
F40
  8
SAPA_PROFIL
 62
     4
 10
88.901234776646135
 20
64.830269984777587
 30
0.0
  0
VERTEX
  5
F41
  8
SAPA_PROFIL
 62
     4
 10
88.901234776646135
 20
63.530269984776801
 30
0.0
 42
0.6681786379194817
  0
VERTEX
  5
F42
  8
SAPA_PROFIL
 62
     4
 10
89.413366811002149
 20
63.31813795042099
 30
0.0
  0
VERTEX
  5
F43
  8
SAPA_PROFIL
 62
     4
 10
91.613366811002251
 20
65.518137950420183
 30
0.0
 42
0.1989123673797118
  0
VERTEX
  5
F44
  8
SAPA_PROFIL
 62
     4
 10
91.701234776646331
 20
65.7302699847762
 30
0.0
  0
VERTEX
  5
F45
  8
SAPA_PROFIL
 62
     4
 10
91.701234776646331
 20
66.330269984777587
 30
0.0
 42
0.4142135623724291
  0
VERTEX
  5
F46
  8
SAPA_PROFIL
 62
     4
 10
91.401234776646135
 20
66.630269984776859
 30
0.0
  0
VERTEX
  5
F47
  8
SAPA_PROFIL
 62
     4
 10
73.601234776645427
 20
66.630269984776874
 30
0.0
 42
-0.4142135623730951
  0
VERTEX
  5
F48
  8
SAPA_PROFIL
 62
     4
 10
73.101234776645427
 20
67.130269984776874
 30
0.0
  0
SEQEND
  5
F49
  8
SAPA_PROFIL
 62
     4
  0
LINE
  5
C2C
  8
SAPA_PROFIL
 62
     4
 10
49.162852062183113
 20
62.830270350030098
 30
0.0
 11
49.162852062183113
 21
0.8302703500291528
 31
0.0
  0
LINE
  5
C2D
  8
SAPA_PROFIL
 62
     4
 10
57.162852062183099
 20
62.830270350030098
 30
0.0
 11
49.162852062183113
 21
62.830270350030098
 31
0.0
  0
LINE
  5
C2E
  8
SAPA_PROFIL
 62
     4
 10
57.162852062183099
 20
0.8302703500291528
 30
0.0
 11
57.162852062183099
 21
62.830270350030098
 31
0.0
  0
LINE
  5
C2F
  8
SAPA_PROFIL
 62
     4
 10
24.162852062183159
 20
64.830270350029082
 30
0.0
 11
24.162852062183159
 21
0.8302703500291528
 31
0.0
  0
LINE
  5
C30
  8
SAPA_PROFIL
 62
     4
 10
30.162852062183159
 20
64.830270350029082
 30
0.0
 11
24.162852062183159
 21
64.830270350029082
 31
0.0
  0
LINE
  5
C31
  8
SAPA_PROFIL
 62
     4
 10
30.162852062183159
 20
0.8302703500291528
 30
0.0
 11
30.162852062183159
 21
64.830270350029082
 31
0.0
  0
POLYLINE
  5
C32
  8
SAPA_PROFIL
 66
     1
 10
0.0
 20
0.0
 30
0.0
 70
     1
  0
VERTEX
  5
F4A
  8
SAPA_PROFIL
 10
22.162852062181539
 20
63.891895075024607
 30
0.0
 42
-0.2216946626428728
  0
VERTEX
  5
F4B
  8
SAPA_PROFIL
 10
21.805639671868018
 20
63.125850631905969
 30
0.0
  0
VERTEX
  5
F4C
  8
SAPA_PROFIL
 10
20.520064452496879
 20
62.047124939481087
 30
0.0
 42
0.2216946626428911
  0
VERTEX
  5
F4D
  8
SAPA_PROFIL
 10
20.162852062183411
 20
61.28108049636235
 30
0.0
  0
VERTEX
  5
F4E
  8
SAPA_PROFIL
 10
20.1628520621829
 20
59.504534418740789
 30
0.0
 42
-0.1989123673796749
  0
VERTEX
  5
F4F
  8
SAPA_PROFIL
 10
20.074984096538991
 20
59.292402384384523
 30
0.0
  0
VERTEX
  5
F50
  8
SAPA_PROFIL
 10
19.50427341842023
 20
58.721691706266213
 30
0.0
 42
-0.6681786379193591
  0
VERTEX
  5
F51
  8
SAPA_PROFIL
 10
19.1628520621829
 20
58.863113062503729
 30
0.0
  0
VERTEX
  5
F52
  8
SAPA_PROFIL
 10
19.162852062183131
 20
59.830270350028918
 30
0.0
 42
0.4142135623730951
  0
VERTEX
  5
F53
  8
SAPA_PROFIL
 10
18.662852062183351
 20
60.330270350028918
 30
0.0
  0
VERTEX
  5
F54
  8
SAPA_PROFIL
 10
18.272043132462748
 20
60.330270350028918
 30
0.0
 42
0.1763269807084316
  0
VERTEX
  5
F55
  8
SAPA_PROFIL
 10
18.079206849556972
 20
60.260083682964662
 30
0.0
  0
VERTEX
  5
F56
  8
SAPA_PROFIL
 10
16.341458257340172
 20
58.801939480156719
 30
0.0
 42
0.2216946626429586
  0
VERTEX
  5
F57
  8
SAPA_PROFIL
 10
16.162852062183411
 20
58.418917258597233
 30
0.0
  0
VERTEX
  5
F58
  8
SAPA_PROFIL
 10
16.162852062183351
 20
55.848361909829869
 30
0.0
 42
0.2216946626429592
  0
VERTEX
  5
F59
  8
SAPA_PROFIL
 10
16.270015779277308
 20
55.618548576893957
 30
0.0
  0
VERTEX
  5
F5A
  8
SAPA_PROFIL
 10
18.079206849556972
 20
54.100457017093227
 30
0.0
 42
0.1763269807084563
  0
VERTEX
  5
F5B
  8
SAPA_PROFIL
 10
18.272043132462748
 20
54.030270350028971
 30
0.0
  0
VERTEX
  5
F5C
  8
SAPA_PROFIL
 10
18.662852062183351
 20
54.030270350028971
 30
0.0
 42
0.4142135623730951
  0
VERTEX
  5
F5D
  8
SAPA_PROFIL
 10
19.1628520621829
 20
54.530270350028971
 30
0.0
  0
VERTEX
  5
F5E
  8
SAPA_PROFIL
 10
19.1628520621829
 20
55.497427637554388
 30
0.0
 42
-0.6681786379193841
  0
VERTEX
  5
F5F
  8
SAPA_PROFIL
 10
19.50427341842023
 20
55.638848993791463
 30
0.0
  0
VERTEX
  5
F60
  8
SAPA_PROFIL
 10
20.074984096538991
 20
55.068138315672698
 30
0.0
 42
-0.1989123673796471
  0
VERTEX
  5
F61
  8
SAPA_PROFIL
 10
20.162852062183362
 20
54.85600628131688
 30
0.0
  0
VERTEX
  5
F62
  8
SAPA_PROFIL
 10
20.1628520621829
 20
52.530270350028971
 30
0.0
 42
-0.4142135623730951
  0
VERTEX
  5
F63
  8
SAPA_PROFIL
 10
19.6628520621829
 20
52.030270350028971
 30
0.0
  0
VERTEX
  5
F64
  8
SAPA_PROFIL
 10
15.962852062183019
 20
52.030270350028403
 30
0.0
 42
-0.4142135623729843
  0
VERTEX
  5
F65
  8
SAPA_PROFIL
 10
15.662852062182839
 20
52.330270350028471
 30
0.0
  0
VERTEX
  5
F66
  8
SAPA_PROFIL
 10
15.662852062182949
 20
53.357065269270791
 30
0.0
 42
0.26794919243117
  0
VERTEX
  5
F67
  8
SAPA_PROFIL
 10
15.51285206218286
 20
53.616872890406469
 30
0.0
  0
VERTEX
  5
F68
  8
SAPA_PROFIL
 10
14.004774925588571
 20
54.487561631177712
 30
0.0
 42
0.4142135623734465
  0
VERTEX
  5
F69
  8
SAPA_PROFIL
 10
13.594967304453309
 20
54.377754010042459
 30
0.0
  0
VERTEX
  5
F6A
  8
SAPA_PROFIL
 10
13.278877465967319
 20
53.830270350028577
 30
0.0
 42
-0.4663076581550835
  0
VERTEX
  5
F6B
  8
SAPA_PROFIL
 10
11.77006445249647
 20
53.564225906909613
 30
0.0
  0
VERTEX
  5
F6C
  8
SAPA_PROFIL
 10
8.2700157792770792
 20
56.501115457711833
 30
0.0
 42
-0.2216946626429129
  0
VERTEX
  5
F6D
  8
SAPA_PROFIL
 10
8.1628520621830702
 20
56.730928790647532
 30
0.0
  0
VERTEX
  5
F6E
  8
SAPA_PROFIL
 10
8.1628520621830702
 20
57.880270350029107
 30
0.0
 42
-0.4142135623732061
  0
VERTEX
  5
F6F
  8
SAPA_PROFIL
 10
8.4628520621831385
 20
58.180270350029062
 30
0.0
  0
VERTEX
  5
F70
  8
SAPA_PROFIL
 10
11.969591567431531
 20
58.180270350028493
 30
0.0
 42
0.1763269807085094
  0
VERTEX
  5
F71
  8
SAPA_PROFIL
 10
12.61237917711823
 20
58.414225906909522
 30
0.0
  0
VERTEX
  5
F72
  8
SAPA_PROFIL
 10
15.3556883450893
 20
60.716135617959317
 30
0.0
 42
0.2216946626429509
  0
VERTEX
  5
F73
  8
SAPA_PROFIL
 10
15.462852062183361
 20
60.945948950895009
 30
0.0
  0
VERTEX
  5
F74
  8
SAPA_PROFIL
 10
15.462852062183361
 20
61.806056653448493
 30
0.0
 42
-0.4142135623731506
  0
VERTEX
  5
F75
  8
SAPA_PROFIL
 10
15.762852062183381
 20
62.106056653448448
 30
0.0
  0
VERTEX
  5
F76
  8
SAPA_PROFIL
 10
16.902940662276329
 20
62.106056653448448
 30
0.0
 42
0.1763269807084654
  0
VERTEX
  5
F77
  8
SAPA_PROFIL
 10
17.095776945182269
 20
62.176243320512711
 30
0.0
  0
VERTEX
  5
F78
  8
SAPA_PROFIL
 10
19.105639671870009
 20
63.862718393193362
 30
0.0
 42
0.2216946626429509
  0
VERTEX
  5
F79
  8
SAPA_PROFIL
 10
19.46285206218348
 20
64.628762836312333
 30
0.0
  0
VERTEX
  5
F7A
  8
SAPA_PROFIL
 10
19.462852062183369
 20
87.031777863745972
 30
0.0
 42
0.2216946626429508
  0
VERTEX
  5
F7B
  8
SAPA_PROFIL
 10
19.105639671869909
 20
87.797822306864944
 30
0.0
  0
VERTEX
  5
F7C
  8
SAPA_PROFIL
 10
17.095776945182159
 20
89.484297379545595
 30
0.0
 42
0.1763269807084657
  0
VERTEX
  5
F7D
  8
SAPA_PROFIL
 10
16.902940662276219
 20
89.554484046609858
 30
0.0
  0
VERTEX
  5
F7E
  8
SAPA_PROFIL
 10
15.762852062183381
 20
89.554484046609858
 30
0.0
 42
-0.4142135623730951
  0
VERTEX
  5
F7F
  8
SAPA_PROFIL
 10
15.46285206218343
 20
89.854484046609812
 30
0.0
  0
VERTEX
  5
F80
  8
SAPA_PROFIL
 10
15.46285206218343
 20
90.71459174916329
 30
0.0
 42
0.2216946626429889
  0
VERTEX
  5
F81
  8
SAPA_PROFIL
 10
15.35568834508936
 20
90.944405082098967
 30
0.0
  0
VERTEX
  5
F82
  8
SAPA_PROFIL
 10
12.612379177118131
 20
93.246314793148784
 30
0.0
 42
0.1763269807085052
  0
VERTEX
  5
F83
  8
SAPA_PROFIL
 10
11.96959156743136
 20
93.480270350029812
 30
0.0
  0
VERTEX
  5
F84
  8
SAPA_PROFIL
 10
8.4628520621831438
 20
93.480270350029116
 30
0.0
 42
-0.4142135623732062
  0
VERTEX
  5
F85
  8
SAPA_PROFIL
 10
8.1628520621830756
 20
93.780270350029085
 30
0.0
  0
VERTEX
  5
F86
  8
SAPA_PROFIL
 10
8.1628520621830774
 20
94.929611909410653
 30
0.0
 42
-0.2216946626429129
  0
VERTEX
  5
F87
  8
SAPA_PROFIL
 10
8.2700157792770881
 20
95.159425242346359
 30
0.0
  0
VERTEX
  5
F88
  8
SAPA_PROFIL
 10
11.77006445249642
 20
98.096314793148693
 30
0.0
 42
-0.4663076581550919
  0
VERTEX
  5
F89
  8
SAPA_PROFIL
 10
13.278877465967319
 20
97.830270350029735
 30
0.0
  0
VERTEX
  5
F8A
  8
SAPA_PROFIL
 10
13.59496730445326
 20
97.28278669001584
 30
0.0
 42
0.4142135623731708
  0
VERTEX
  5
F8B
  8
SAPA_PROFIL
 10
14.004774925588579
 20
97.172979068880593
 30
0.0
  0
VERTEX
  5
F8C
  8
SAPA_PROFIL
 10
15.512852062182869
 20
98.043667809651836
 30
0.0
 42
0.26794919243117
  0
VERTEX
  5
F8D
  8
SAPA_PROFIL
 10
15.66285206218296
 20
98.303475430787515
 30
0.0
  0
VERTEX
  5
F8E
  8
SAPA_PROFIL
 10
15.66285206218296
 20
99.330270350029835
 30
0.0
 42
-0.4142135623729287
  0
VERTEX
  5
F8F
  8
SAPA_PROFIL
 10
15.96285206218303
 20
99.630270350029903
 30
0.0
  0
VERTEX
  5
F90
  8
SAPA_PROFIL
 10
19.66285206218291
 20
99.630270350029335
 30
0.0
 42
-0.4142135623730951
  0
VERTEX
  5
F91
  8
SAPA_PROFIL
 10
20.16285206218291
 20
99.130270350029335
 30
0.0
  0
VERTEX
  5
F92
  8
SAPA_PROFIL
 10
20.162852062183362
 20
96.804534418741426
 30
0.0
 42
-0.1989123673796819
  0
VERTEX
  5
F93
  8
SAPA_PROFIL
 10
20.074984096539001
 20
96.592402384385608
 30
0.0
  0
VERTEX
  5
F94
  8
SAPA_PROFIL
 10
19.50427341842024
 20
96.021691706266864
 30
0.0
 42
-0.6681786379193841
  0
VERTEX
  5
F95
  8
SAPA_PROFIL
 10
19.1628520621829
 20
96.163113062503911
 30
0.0
  0
VERTEX
  5
F96
  8
SAPA_PROFIL
 10
19.1628520621829
 20
97.130270350029335
 30
0.0
 42
0.4142135623730951
  0
VERTEX
  5
F97
  8
SAPA_PROFIL
 10
18.662852062183362
 20
97.630270350029335
 30
0.0
  0
VERTEX
  5
F98
  8
SAPA_PROFIL
 10
18.272043132462748
 20
97.630270350029335
 30
0.0
 42
0.1763269807084561
  0
VERTEX
  5
F99
  8
SAPA_PROFIL
 10
18.079206849556979
 20
97.560083682965072
 30
0.0
  0
VERTEX
  5
F9A
  8
SAPA_PROFIL
 10
16.270015779277308
 20
96.041992123164349
 30
0.0
 42
0.2216946626429592
  0
VERTEX
  5
F9B
  8
SAPA_PROFIL
 10
16.162852062183362
 20
95.812178790228415
 30
0.0
  0
VERTEX
  5
F9C
  8
SAPA_PROFIL
 10
16.162852062183418
 20
93.241623441461087
 30
0.0
 42
0.2216946626429736
  0
VERTEX
  5
F9D
  8
SAPA_PROFIL
 10
16.341458257340179
 20
92.858601219901587
 30
0.0
  0
VERTEX
  5
F9E
  8
SAPA_PROFIL
 10
18.079206849556979
 20
91.400457017093643
 30
0.0
 42
0.1763269807084407
  0
VERTEX
  5
F9F
  8
SAPA_PROFIL
 10
18.272043132462748
 20
91.330270350029366
 30
0.0
  0
VERTEX
  5
FA0
  8
SAPA_PROFIL
 10
18.662852062183362
 20
91.330270350029366
 30
0.0
 42
0.4142135623730951
  0
VERTEX
  5
FA1
  8
SAPA_PROFIL
 10
19.1628520621829
 20
91.83027035002938
 30
0.0
  0
VERTEX
  5
FA2
  8
SAPA_PROFIL
 10
19.1628520621829
 20
92.797427637554577
 30
0.0
 42
-0.6681786379193591
  0
VERTEX
  5
FA3
  8
SAPA_PROFIL
 10
19.50427341842024
 20
92.938848993792092
 30
0.0
  0
VERTEX
  5
FA4
  8
SAPA_PROFIL
 10
20.074984096539001
 20
92.368138315673804
 30
0.0
 42
-0.1989123673796749
  0
VERTEX
  5
FA5
  8
SAPA_PROFIL
 10
20.16285206218291
 20
92.156006281317516
 30
0.0
  0
VERTEX
  5
FA6
  8
SAPA_PROFIL
 10
20.162852062183418
 20
90.379460203696084
 30
0.0
 42
0.2216946626428804
  0
VERTEX
  5
FA7
  8
SAPA_PROFIL
 10
20.520064452496939
 20
89.613415760577325
 30
0.0
  0
VERTEX
  5
FA8
  8
SAPA_PROFIL
 10
21.805639671868079
 20
88.534690068152329
 30
0.0
 42
-0.2216946626428499
  0
VERTEX
  5
FA9
  8
SAPA_PROFIL
 10
22.162852062181539
 20
87.768645625033685
 30
0.0
  0
VERTEX
  5
FAA
  8
SAPA_PROFIL
 10
22.162852062183362
 20
82.480270350029244
 30
0.0
 42
0.4142135623730951
  0
VERTEX
  5
FAB
  8
SAPA_PROFIL
 10
22.462852062183082
 20
82.180270350029062
 30
0.0
  0
VERTEX
  5
FAC
  8
SAPA_PROFIL
 10
22.86285206218318
 20
82.180270350029062
 30
0.0
 42
-0.4142135623730951
  0
VERTEX
  5
FAD
  8
SAPA_PROFIL
 10
23.162852062183362
 20
81.880270350029335
 30
0.0
  0
VERTEX
  5
FAE
  8
SAPA_PROFIL
 10
23.162852062183362
 20
81.480270350029244
 30
0.0
 42
-0.4142135623730951
  0
VERTEX
  5
FAF
  8
SAPA_PROFIL
 10
22.86285206218318
 20
81.180270350029062
 30
0.0
  0
VERTEX
  5
FB0
  8
SAPA_PROFIL
 10
22.462852062183082
 20
81.180270350029062
 30
0.0
 42
0.4142135623730951
  0
VERTEX
  5
FB1
  8
SAPA_PROFIL
 10
22.162852062183362
 20
80.880270350029335
 30
0.0
  0
VERTEX
  5
FB2
  8
SAPA_PROFIL
 10
22.162852062183362
 20
76.454534418741062
 30
0.0
 42
-0.1989123673795535
  0
VERTEX
  5
FB3
  8
SAPA_PROFIL
 10
22.074984096539449
 20
76.242402384385244
 30
0.0
  0
VERTEX
  5
FB4
  8
SAPA_PROFIL
 10
21.662852062183362
 20
75.830270350029153
 30
0.0
  0
VERTEX
  5
FB5
  8
SAPA_PROFIL
 10
22.074984096539449
 20
75.418138315673062
 30
0.0
 42
-0.1989123673795536
  0
VERTEX
  5
FB6
  8
SAPA_PROFIL
 10
22.162852062183351
 20
75.206006281317244
 30
0.0
  0
VERTEX
  5
FB7
  8
SAPA_PROFIL
 10
22.162852062183351
 20
70.780270350029426
 30
0.0
 42
0.4142135623730951
  0
VERTEX
  5
FB8
  8
SAPA_PROFIL
 10
22.462852062183082
 20
70.480270350029244
 30
0.0
  0
VERTEX
  5
FB9
  8
SAPA_PROFIL
 10
22.862852062183169
 20
70.480270350029244
 30
0.0
 42
-0.4142135623730951
  0
VERTEX
  5
FBA
  8
SAPA_PROFIL
 10
23.162852062183351
 20
70.180270350029062
 30
0.0
  0
VERTEX
  5
FBB
  8
SAPA_PROFIL
 10
23.162852062183351
 20
69.780270350028971
 30
0.0
 42
-0.4142135623730951
  0
VERTEX
  5
FBC
  8
SAPA_PROFIL
 10
22.862852062183169
 20
69.480270350029244
 30
0.0
  0
VERTEX
  5
FBD
  8
SAPA_PROFIL
 10
22.462852062183082
 20
69.480270350029244
 30
0.0
 42
0.414213562373095
  0
VERTEX
  5
FBE
  8
SAPA_PROFIL
 10
22.162852062183351
 20
69.180270350029062
 30
0.0
  0
SEQEND
  5
FBF
  8
SAPA_PROFIL
  0
POLYLINE
  5
C33
  8
SAPA_PROFIL
 66
     1
 10
0.0
 20
0.0
 30
0.0
 70
     1
  0
VERTEX
  5
FC0
  8
SAPA_PROFIL
 10
191.4628520621834
 20
30.83027035002976
 30
0.0
  0
VERTEX
  5
FC1
  8
SAPA_PROFIL
 10
193.4628520621834
 20
30.83027035002976
 30
0.0
  0
VERTEX
  5
FC2
  8
SAPA_PROFIL
 10
193.4628520621834
 20
45.173416100537331
 30
0.0
  0
VERTEX
  5
FC3
  8
SAPA_PROFIL
 10
187.80599781269089
 20
50.830270350029757
 30
0.0
  0
VERTEX
  5
FC4
  8
SAPA_PROFIL
 10
168.4628520621834
 20
50.830270350029757
 30
0.0
  0
VERTEX
  5
FC5
  8
SAPA_PROFIL
 10
168.4628520621834
 20
48.830270350029757
 30
0.0
  0
VERTEX
  5
FC6
  8
SAPA_PROFIL
 10
173.77003173915591
 20
48.830270350029757
 30
0.0
  0
VERTEX
  5
FC7
  8
SAPA_PROFIL
 10
174.4628520621834
 20
49.230270350029627
 30
0.0
  0
VERTEX
  5
FC8
  8
SAPA_PROFIL
 10
175.15567238521109
 20
48.830270350029757
 30
0.0
  0
VERTEX
  5
FC9
  8
SAPA_PROFIL
 10
186.14914356319881
 20
48.830270350029757
 30
0.0
 42
-0.1989123673796584
  0
VERTEX
  5
FCA
  8
SAPA_PROFIL
 10
187.56335712557191
 20
48.24448391240287
 30
0.0
  0
VERTEX
  5
FCB
  8
SAPA_PROFIL
 10
190.87706562455651
 20
44.930775413418019
 30
0.0
 42
-0.1989123673796572
  0
VERTEX
  5
FCC
  8
SAPA_PROFIL
 10
191.4628520621834
 20
43.516561851044912
 30
0.0
  0
VERTEX
  5
FCD
  8
SAPA_PROFIL
 10
191.4628520621834
 20
37.523090673057261
 30
0.0
  0
VERTEX
  5
FCE
  8
SAPA_PROFIL
 10
191.86285206218349
 20
36.830270350029771
 30
0.0
  0
VERTEX
  5
FCF
  8
SAPA_PROFIL
 10
191.4628520621834
 20
36.137450027002053
 30
0.0
  0
SEQEND
  5
FD0
  8
SAPA_PROFIL
  0
POLYLINE
  5
C34
  8
SAPA_PROFIL
 66
     1
 10
0.0
 20
0.0
 30
0.0
 70
     1
  0
VERTEX
  5
FD1
  8
SAPA_PROFIL
 10
87.379263460734137
 20
57.557321774849008
 30
0.0
 42
-0.1691807452125083
  0
VERTEX
  5
FD2
  8
SAPA_PROFIL
 10
87.162852062183205
 20
58.178601827384909
 30
0.0
  0
VERTEX
  5
FD3
  8
SAPA_PROFIL
 10
87.162852062183205
 20
64.53027035003015
 30
0.0
 42
-0.4142135623730951
  0
VERTEX
  5
FD4
  8
SAPA_PROFIL
 10
87.462852062183174
 20
64.830270350030105
 30
0.0
  0
VERTEX
  5
FD5
  8
SAPA_PROFIL
 10
88.162852062183234
 20
64.830270350030105
 30
0.0
 42
-0.4142135623730951
  0
VERTEX
  5
FD6
  8
SAPA_PROFIL
 10
88.462852062183174
 20
64.53027035003015
 30
0.0
  0
VERTEX
  5
FD7
  8
SAPA_PROFIL
 10
88.462852062183174
 20
61.630270350030287
 30
0.0
 42
0.4142135623730951
  0
VERTEX
  5
FD8
  8
SAPA_PROFIL
 10
88.962852062183174
 20
61.13027035003028
 30
0.0
  0
VERTEX
  5
FD9
  8
SAPA_PROFIL
 10
92.162852062183205
 20
61.13027035003028
 30
0.0
 42
0.4142135623730951
  0
VERTEX
  5
FDA
  8
SAPA_PROFIL
 10
92.662852062183219
 20
61.630270350030287
 30
0.0
  0
VERTEX
  5
FDB
  8
SAPA_PROFIL
 10
92.662852062183276
 20
69.830270350030105
 30
0.0
 42
0.4142135623730951
  0
VERTEX
  5
FDC
  8
SAPA_PROFIL
 10
91.662852062183276
 20
70.830270350030105
 30
0.0
  0
VERTEX
  5
FDD
  8
SAPA_PROFIL
 10
70.462852062183231
 20
70.830270350030105
 30
0.0
 42
-0.4142135623730948
  0
VERTEX
  5
FDE
  8
SAPA_PROFIL
 10
70.162852062183276
 20
71.130270350030287
 30
0.0
  0
VERTEX
  5
FDF
  8
SAPA_PROFIL
 10
70.162852062183276
 20
72.620265009160676
 30
0.0
 42
-0.2135746067194863
  0
VERTEX
  5
FE0
  8
SAPA_PROFIL
 10
70.262982842308077
 20
72.843988711406155
 30
0.0
  0
VERTEX
  5
FE1
  8
SAPA_PROFIL
 10
71.100720027827322
 20
73.592402384386105
 30
0.0
 42
-0.6681786379193474
  0
VERTEX
  5
FE2
  8
SAPA_PROFIL
 10
71.612852062183094
 20
73.380270350030287
 30
0.0
  0
VERTEX
  5
FE3
  8
SAPA_PROFIL
 10
71.612852062183094
 20
73.130270350030287
 30
0.0
  0
VERTEX
  5
FE4
  8
SAPA_PROFIL
 10
72.989086655759635
 20
73.653550653332104
 30
0.0
 42
-0.5450207798986705
  0
VERTEX
  5
FE5
  8
SAPA_PROFIL
 10
73.412852062183276
 20
73.380270350030287
 30
0.0
  0
VERTEX
  5
FE6
  8
SAPA_PROFIL
 10
73.412852062183276
 20
73.130270350030287
 30
0.0
  0
VERTEX
  5
FE7
  8
SAPA_PROFIL
 10
74.789086655759832
 20
73.653550653332104
 30
0.0
 42
-0.5450207798987319
  0
VERTEX
  5
FE8
  8
SAPA_PROFIL
 10
75.212852062183231
 20
73.380270350030287
 30
0.0
  0
VERTEX
  5
FE9
  8
SAPA_PROFIL
 10
75.212852062183231
 20
73.130270350030287
 30
0.0
  0
VERTEX
  5
FEA
  8
SAPA_PROFIL
 10
76.589086655759559
 20
73.653550653332104
 30
0.0
 42
-0.5450207798986705
  0
VERTEX
  5
FEB
  8
SAPA_PROFIL
 10
77.012852062183185
 20
73.380270350030287
 30
0.0
  0
VERTEX
  5
FEC
  8
SAPA_PROFIL
 10
77.012852062183185
 20
73.130270350030287
 30
0.0
  0
VERTEX
  5
FED
  8
SAPA_PROFIL
 10
78.389086655759741
 20
73.653550653332104
 30
0.0
 42
-0.5450207798986705
  0
VERTEX
  5
FEE
  8
SAPA_PROFIL
 10
78.812852062183353
 20
73.380270350030287
 30
0.0
  0
VERTEX
  5
FEF
  8
SAPA_PROFIL
 10
78.812852062183353
 20
73.130270350030287
 30
0.0
  0
VERTEX
  5
FF0
  8
SAPA_PROFIL
 10
79.536569356989332
 20
73.358033067414226
 30
0.0
 42
0.2945484962562833
  0
VERTEX
  5
FF1
  8
SAPA_PROFIL
 10
79.712804021937529
 20
73.631387881092664
 30
0.0
  0
VERTEX
  5
FF2
  8
SAPA_PROFIL
 10
79.712596839971241
 20
74.565970412282013
 30
0.0
 42
-0.3475954753796645
  0
VERTEX
  5
FF3
  8
SAPA_PROFIL
 10
79.943350884140102
 20
74.857943839352174
 30
0.0
 42
0.7905229096113513
  0
VERTEX
  5
FF4
  8
SAPA_PROFIL
 10
79.943361088580616
 20
76.803934439895784
 30
0.0
 42
-0.3476065658631767
  0
VERTEX
  5
FF5
  8
SAPA_PROFIL
 10
79.71261010984864
 20
77.095922160917326
 30
0.0
  0
VERTEX
  5
FF6
  8
SAPA_PROFIL
 10
79.712756830557566
 20
77.680263012123532
 30
0.0
 42
0.4102317530970184
  0
VERTEX
  5
FF7
  8
SAPA_PROFIL
 10
79.416905182404037
 20
77.980298648615872
 30
0.0
 42
-0.0712587206050455
  0
VERTEX
  5
FF8
  8
SAPA_PROFIL
 10
79.332861257475599
 20
77.993525962485592
 30
0.0
  0
VERTEX
  5
FF9
  8
SAPA_PROFIL
 10
77.912852062183276
 20
78.53027035003015
 30
0.0
  0
VERTEX
  5
FFA
  8
SAPA_PROFIL
 10
77.912852062183276
 20
78.28027035003015
 30
0.0
 42
-0.5450200690651181
  0
VERTEX
  5
FFB
  8
SAPA_PROFIL
 10
77.489087062183273
 20
78.006989350030153
 30
0.0
  0
VERTEX
  5
FFC
  8
SAPA_PROFIL
 10
76.112852062183094
 20
78.53027035003015
 30
0.0
  0
VERTEX
  5
FFD
  8
SAPA_PROFIL
 10
76.112852062183322
 20
78.28027035003015
 30
0.0
 42
-0.5450200690652297
  0
VERTEX
  5
FFE
  8
SAPA_PROFIL
 10
75.689087062183091
 20
78.006989350030153
 30
0.0
  0
VERTEX
  5
FFF
  8
SAPA_PROFIL
 10
74.312852062183367
 20
78.53027035003015
 30
0.0
  0
VERTEX
  5
1000
  8
SAPA_PROFIL
 10
74.312852062183367
 20
78.28027035003015
 30
0.0
 42
-0.5450200690651181
  0
VERTEX
  5
1001
  8
SAPA_PROFIL
 10
73.889087062183364
 20
78.006989350030153
 30
0.0
  0
VERTEX
  5
1002
  8
SAPA_PROFIL
 10
72.512852062183185
 20
78.53027035003015
 30
0.0
  0
VERTEX
  5
1003
  8
SAPA_PROFIL
 10
72.512852062183185
 20
77.980270350030196
 30
0.0
  0
VERTEX
  5
1004
  8
SAPA_PROFIL
 10
71.312852062183353
 20
77.980270350030196
 30
0.0
 42
-0.1989123673797028
  0
VERTEX
  5
1005
  8
SAPA_PROFIL
 10
71.100720062183257
 20
78.068138350030253
 30
0.0
  0
VERTEX
  5
1006
  8
SAPA_PROFIL
 10
70.262982850937576
 20
78.816551987889625
 30
0.0
 42
-0.2135746168025217
  0
VERTEX
  5
1007
  8
SAPA_PROFIL
 10
70.162852062183276
 20
79.040275697844663
 30
0.0
  0
VERTEX
  5
1008
  8
SAPA_PROFIL
 10
70.162852062183276
 20
80.53027035003015
 30
0.0
 42
-0.4142135623730951
  0
VERTEX
  5
1009
  8
SAPA_PROFIL
 10
70.462852062183231
 20
80.830270350030105
 30
0.0
  0
VERTEX
  5
100A
  8
SAPA_PROFIL
 10
91.662852062183276
 20
80.830270350030105
 30
0.0
 42
0.4142135623730951
  0
VERTEX
  5
100B
  8
SAPA_PROFIL
 10
92.662852062183276
 20
81.830270350030105
 30
0.0
  0
VERTEX
  5
100C
  8
SAPA_PROFIL
 10
92.662852062183276
 20
90.03027035003015
 30
0.0
 42
0.4142135623730951
  0
VERTEX
  5
100D
  8
SAPA_PROFIL
 10
92.162852062183276
 20
90.53027035003015
 30
0.0
  0
VERTEX
  5
100E
  8
SAPA_PROFIL
 10
88.962852062183231
 20
90.53027035003015
 30
0.0
 42
0.4142135623730951
  0
VERTEX
  5
100F
  8
SAPA_PROFIL
 10
88.462852062183245
 20
90.03027035003015
 30
0.0
  0
VERTEX
  5
1010
  8
SAPA_PROFIL
 10
88.462852062183245
 20
87.130270350030287
 30
0.0
 42
-0.4142135623730951
  0
VERTEX
  5
1011
  8
SAPA_PROFIL
 10
88.162852062183276
 20
86.830270350030105
 30
0.0
  0
VERTEX
  5
1012
  8
SAPA_PROFIL
 10
87.462852062183217
 20
86.830270350030105
 30
0.0
 42
-0.4142135623730948
  0
VERTEX
  5
1013
  8
SAPA_PROFIL
 10
87.162852062183276
 20
87.130270350030287
 30
0.0
  0
VERTEX
  5
1014
  8
SAPA_PROFIL
 10
87.162852062183276
 20
93.4819388726753
 30
0.0
 42
-0.1691807452125083
  0
VERTEX
  5
1015
  8
SAPA_PROFIL
 10
87.379263460734194
 20
94.103218925211195
 30
0.0
  0
VERTEX
  5
1016
  8
SAPA_PROFIL
 10
87.627775481542173
 20
94.416654365530803
 30
0.0
 42
-0.7105995019815232
  0
VERTEX
  5
1017
  8
SAPA_PROFIL
 10
88.162852062183276
 20
94.230270350030196
 30
0.0
  0
VERTEX
  5
1018
  8
SAPA_PROFIL
 10
88.162852062183276
 20
92.330270350030105
 30
0.0
 42
0.4142135623730951
  0
VERTEX
  5
1019
  8
SAPA_PROFIL
 10
88.462852062183245
 20
92.030270350030165
 30
0.0
  0
VERTEX
  5
101A
  8
SAPA_PROFIL
 10
92.362852062183308
 20
92.030270350030165
 30
0.0
 42
0.4142135623730951
  0
VERTEX
  5
101B
  8
SAPA_PROFIL
 10
92.662852062183276
 20
92.330270350030105
 30
0.0
  0
VERTEX
  5
101C
  8
SAPA_PROFIL
 10
92.662852062183276
 20
99.03027035003015
 30
0.0
 42
0.4142135623730951
  0
VERTEX
  5
101D
  8
SAPA_PROFIL
 10
92.362852062183094
 20
99.330270350030105
 30
0.0
  0
VERTEX
  5
101E
  8
SAPA_PROFIL
 10
88.462852062183245
 20
99.330270350030105
 30
0.0
 42
0.4142135623730951
  0
VERTEX
  5
101F
  8
SAPA_PROFIL
 10
88.162852062183276
 20
99.03027035003015
 30
0.0
  0
VERTEX
  5
1020
  8
SAPA_PROFIL
 10
88.162852062183276
 20
97.830270350030105
 30
0.0
 42
-0.7105990647992588
  0
VERTEX
  5
1021
  8
SAPA_PROFIL
 10
87.627776062183159
 20
97.643886350030243
 30
0.0
  0
VERTEX
  5
1022
  8
SAPA_PROFIL
 10
87.379263846465889
 20
97.957321636444945
 30
0.0
 42
-0.1691809048716788
  0
VERTEX
  5
1023
  8
SAPA_PROFIL
 10
87.162852062183276
 20
98.578602175484562
 30
0.0
  0
VERTEX
  5
1024
  8
SAPA_PROFIL
 10
87.162852062183276
 20
100.53027035003009
 30
0.0
 42
-0.4142135623730951
  0
VERTEX
  5
1025
  8
SAPA_PROFIL
 10
87.462852062183217
 20
100.8302703500301
 30
0.0
  0
VERTEX
  5
1026
  8
SAPA_PROFIL
 10
206.66285206218311
 20
100.8302703500301
 30
0.0
 42
-0.4142135623730951
  0
VERTEX
  5
1027
  8
SAPA_PROFIL
 10
207.16285206218311
 20
100.3302703500301
 30
0.0
  0
VERTEX
  5
1028
  8
SAPA_PROFIL
 10
207.16285206218311
 20
51.330270350030098
 30
0.0
 42
-0.4142135623730951
  0
VERTEX
  5
1029
  8
SAPA_PROFIL
 10
206.66285206218311
 20
50.830270350030098
 30
0.0
  0
VERTEX
  5
102A
  8
SAPA_PROFIL
 10
87.462852062183174
 20
50.830270350030098
 30
0.0
 42
-0.4142135623730948
  0
VERTEX
  5
102B
  8
SAPA_PROFIL
 10
87.162852062183205
 20
51.13027035003028
 30
0.0
  0
VERTEX
  5
102C
  8
SAPA_PROFIL
 10
87.162852062183205
 20
53.081938872675437
 30
0.0
 42
-0.1691807452125083
  0
VERTEX
  5
102D
  8
SAPA_PROFIL
 10
87.379263460734137
 20
53.703218925211331
 30
0.0
  0
VERTEX
  5
102E
  8
SAPA_PROFIL
 10
87.62777548154213
 20
54.016654365530712
 30
0.0
 42
-0.7105995019815232
  0
VERTEX
  5
102F
  8
SAPA_PROFIL
 10
88.162852062183276
 20
53.830270350030098
 30
0.0
  0
VERTEX
  5
1030
  8
SAPA_PROFIL
 10
88.162852062183234
 20
52.630270350030287
 30
0.0
 42
0.4142135623730948
  0
VERTEX
  5
1031
  8
SAPA_PROFIL
 10
88.462852062183174
 20
52.330270350030112
 30
0.0
  0
VERTEX
  5
1032
  8
SAPA_PROFIL
 10
92.362852062183023
 20
52.330270350030112
 30
0.0
 42
0.4142135623730951
  0
VERTEX
  5
1033
  8
SAPA_PROFIL
 10
92.662852062183219
 20
52.630270350030287
 30
0.0
  0
VERTEX
  5
1034
  8
SAPA_PROFIL
 10
92.662852062183219
 20
59.330270350030112
 30
0.0
 42
0.4142135623730951
  0
VERTEX
  5
1035
  8
SAPA_PROFIL
 10
92.362852062183265
 20
59.630270350030287
 30
0.0
  0
VERTEX
  5
1036
  8
SAPA_PROFIL
 10
88.462852062183174
 20
59.630270350030287
 30
0.0
 42
0.414213562373095
  0
VERTEX
  5
1037
  8
SAPA_PROFIL
 10
88.162852062183234
 20
59.330270350030112
 30
0.0
  0
VERTEX
  5
1038
  8
SAPA_PROFIL
 10
88.162852062183234
 20
57.430270350030241
 30
0.0
 42
-0.7105995019815232
  0
VERTEX
  5
1039
  8
SAPA_PROFIL
 10
87.627775481542173
 20
57.243886334529641
 30
0.0
  0
SEQEND
  5
103A
  8
SAPA_PROFIL
  0
POLYLINE
  5
C35
  8
SAPA_PROFIL
 66
     1
 10
0.0
 20
0.0
 30
0.0
 70
     1
  0
VERTEX
  5
103B
  8
SAPA_PROFIL
 10
89.612852062183094
 20
73.130270350030287
 30
0.0
  0
VERTEX
  5
103C
  8
SAPA_PROFIL
 10
89.612852062183094
 20
73.480270350030196
 30
0.0
 42
0.545020779898761
  0
VERTEX
  5
103D
  8
SAPA_PROFIL
 10
89.189086655759695
 20
73.75355065333224
 30
0.0
  0
VERTEX
  5
103E
  8
SAPA_PROFIL
 10
87.812852062183367
 20
73.130270350030287
 30
0.0
  0
VERTEX
  5
103F
  8
SAPA_PROFIL
 10
87.812852062183367
 20
73.480270350030196
 30
0.0
 42
0.54502077989874
  0
VERTEX
  5
1040
  8
SAPA_PROFIL
 10
87.389086655759755
 20
73.75355065333224
 30
0.0
  0
VERTEX
  5
1041
  8
SAPA_PROFIL
 10
86.012852062183185
 20
73.130270350030287
 30
0.0
  0
VERTEX
  5
1042
  8
SAPA_PROFIL
 10
86.012852062183185
 20
73.480270350030196
 30
0.0
 42
0.545020779898768
  0
VERTEX
  5
1043
  8
SAPA_PROFIL
 10
85.589086655759544
 20
73.75355065333224
 30
0.0
  0
VERTEX
  5
1044
  8
SAPA_PROFIL
 10
84.212852062183231
 20
73.130270350030287
 30
0.0
  0
VERTEX
  5
1045
  8
SAPA_PROFIL
 10
84.212852062183231
 20
73.480270350030196
 30
0.0
 42
0.5450205149791638
  0
VERTEX
  5
1046
  8
SAPA_PROFIL
 10
83.789087062183228
 20
73.753550350030082
 30
0.0
  0
VERTEX
  5
1047
  8
SAPA_PROFIL
 10
82.412852062183276
 20
73.130270350030287
 30
0.0
  0
VERTEX
  5
1048
  8
SAPA_PROFIL
 10
82.412852062183276
 20
73.480270350030196
 30
0.0
 42
0.5450207798987328
  0
VERTEX
  5
1049
  8
SAPA_PROFIL
 10
81.98908665575965
 20
73.75355065333224
 30
0.0
  0
VERTEX
  5
104A
  8
SAPA_PROFIL
 10
81.212852062183217
 20
73.402002716519505
 30
0.0
  0
VERTEX
  5
104B
  8
SAPA_PROFIL
 10
81.212852062183217
 20
78.53027035003015
 30
0.0
  0
VERTEX
  5
104C
  8
SAPA_PROFIL
 10
81.512852062183185
 20
78.53027035003015
 30
0.0
  0
VERTEX
  5
104D
  8
SAPA_PROFIL
 10
82.889087062183364
 20
77.906989350030244
 30
0.0
 42
0.5450200690651692
  0
VERTEX
  5
104E
  8
SAPA_PROFIL
 10
83.312852062183367
 20
78.180270350030241
 30
0.0
  0
VERTEX
  5
104F
  8
SAPA_PROFIL
 10
83.312852062183367
 20
78.53027035003015
 30
0.0
  0
VERTEX
  5
1050
  8
SAPA_PROFIL
 10
84.689087062183091
 20
77.906989350030244
 30
0.0
 42
0.5450200690651619
  0
VERTEX
  5
1051
  8
SAPA_PROFIL
 10
85.112852062183322
 20
78.180270350030241
 30
0.0
  0
VERTEX
  5
1052
  8
SAPA_PROFIL
 10
85.112852062183094
 20
78.53027035003015
 30
0.0
  0
VERTEX
  5
1053
  8
SAPA_PROFIL
 10
86.489087062183259
 20
77.906989350030244
 30
0.0
 42
0.5450200690651619
  0
VERTEX
  5
1054
  8
SAPA_PROFIL
 10
86.912852062183276
 20
78.180270350030241
 30
0.0
  0
VERTEX
  5
1055
  8
SAPA_PROFIL
 10
86.912852062183276
 20
78.53027035003015
 30
0.0
  0
VERTEX
  5
1056
  8
SAPA_PROFIL
 10
88.289087062183228
 20
77.906989350030244
 30
0.0
 42
0.5450200690651692
  0
VERTEX
  5
1057
  8
SAPA_PROFIL
 10
88.712852062183217
 20
78.180270350030241
 30
0.0
  0
VERTEX
  5
1058
  8
SAPA_PROFIL
 10
88.712852062183217
 20
78.53027035003015
 30
0.0
  0
VERTEX
  5
1059
  8
SAPA_PROFIL
 10
90.089087062183197
 20
77.906989350030244
 30
0.0
 42
0.5450200690651551
  0
VERTEX
  5
105A
  8
SAPA_PROFIL
 10
90.512852062183185
 20
78.180270350030241
 30
0.0
  0
VERTEX
  5
105B
  8
SAPA_PROFIL
 10
90.512852062183185
 20
78.53027035003015
 30
0.0
  0
VERTEX
  5
105C
  8
SAPA_PROFIL
 10
91.662852062183276
 20
78.53027035003015
 30
0.0
 42
-0.4142135623730951
  0
VERTEX
  5
105D
  8
SAPA_PROFIL
 10
92.662852062183276
 20
77.53027035003015
 30
0.0
  0
VERTEX
  5
105E
  8
SAPA_PROFIL
 10
92.662852062183276
 20
74.130270350030287
 30
0.0
 42
-0.4142135623730951
  0
VERTEX
  5
105F
  8
SAPA_PROFIL
 10
91.662852062183276
 20
73.130270350030287
 30
0.0
  0
VERTEX
  5
1060
  8
SAPA_PROFIL
 10
91.412852062183276
 20
73.130270350030287
 30
0.0
  0
VERTEX
  5
1061
  8
SAPA_PROFIL
 10
91.412852062183276
 20
73.480270350030196
 30
0.0
 42
0.5450207798987328
  0
VERTEX
  5
1062
  8
SAPA_PROFIL
 10
90.98908665575965
 20
73.75355065333224
 30
0.0
  0
SEQEND
  5
1063
  8
SAPA_PROFIL
  0
POLYLINE
  5
C36
  8
SAPA_PROFIL
 66
     1
 10
0.0
 20
0.0
 30
0.0
 70
     1
  0
VERTEX
  5
1064
  8
SAPA_PROFIL
 10
202.66285206218311
 20
53.03027035003015
 30
0.0
  0
VERTEX
  5
1065
  8
SAPA_PROFIL
 10
200.48711613089509
 20
53.03027035003015
 30
0.0
 42
-0.1989123673796407
  0
VERTEX
  5
1066
  8
SAPA_PROFIL
 10
200.27498409653899
 20
53.118138315674287
 30
0.0
  0
VERTEX
  5
1067
  8
SAPA_PROFIL
 10
198.75072002782721
 20
54.642402384386287
 30
0.0
 42
0.1989123673796753
  0
VERTEX
  5
1068
  8
SAPA_PROFIL
 10
198.5385879934712
 20
54.730270350030203
 30
0.0
  0
VERTEX
  5
1069
  8
SAPA_PROFIL
 10
197.962852062183
 20
54.730270350030203
 30
0.0
 42
0.4142135623730951
  0
VERTEX
  5
106A
  8
SAPA_PROFIL
 10
197.66285206218311
 20
54.430270350030241
 30
0.0
  0
VERTEX
  5
106B
  8
SAPA_PROFIL
 10
197.66285206218311
 20
53.330270350030098
 30
0.0
 42
-0.4142135623730951
  0
VERTEX
  5
106C
  8
SAPA_PROFIL
 10
197.3628520621829
 20
53.03027035003015
 30
0.0
  0
VERTEX
  5
106D
  8
SAPA_PROFIL
 10
194.962852062183
 20
53.030270350030371
 30
0.0
 42
-0.4142135623730951
  0
VERTEX
  5
106E
  8
SAPA_PROFIL
 10
194.66285206218311
 20
53.330270350030098
 30
0.0
  0
VERTEX
  5
106F
  8
SAPA_PROFIL
 10
194.66285206218311
 20
54.430270350030241
 30
0.0
 42
0.4142135623730951
  0
VERTEX
  5
1070
  8
SAPA_PROFIL
 10
194.3628520621829
 20
54.730270350030203
 30
0.0
  0
VERTEX
  5
1071
  8
SAPA_PROFIL
 10
193.78711613089499
 20
54.730270350030203
 30
0.0
 42
0.198912367379658
  0
VERTEX
  5
1072
  8
SAPA_PROFIL
 10
193.57498409653891
 20
54.642402384386287
 30
0.0
  0
VERTEX
  5
1073
  8
SAPA_PROFIL
 10
192.05072002782691
 20
53.118138315674287
 30
0.0
 42
-0.198912367379658
  0
VERTEX
  5
1074
  8
SAPA_PROFIL
 10
191.8385879934709
 20
53.03027035003015
 30
0.0
  0
VERTEX
  5
1075
  8
SAPA_PROFIL
 10
152.66285206218319
 20
53.03027035003015
 30
0.0
 42
-0.4142135623730951
  0
VERTEX
  5
1076
  8
SAPA_PROFIL
 10
151.66285206218319
 20
54.03027035003015
 30
0.0
  0
VERTEX
  5
1077
  8
SAPA_PROFIL
 10
151.66285206218319
 20
58.230270350030189
 30
0.0
 42
0.4142135623730951
  0
VERTEX
  5
1078
  8
SAPA_PROFIL
 10
151.36285206218301
 20
58.53027035003015
 30
0.0
  0
VERTEX
  5
1079
  8
SAPA_PROFIL
 10
149.06285206218331
 20
58.53027035003015
 30
0.0
 42
0.4142135623730951
  0
VERTEX
  5
107A
  8
SAPA_PROFIL
 10
148.7628520621831
 20
58.230270350030189
 30
0.0
  0
VERTEX
  5
107B
  8
SAPA_PROFIL
 10
148.7628520621831
 20
57.730270350030189
 30
0.0
 42
0.4142135623730951
  0
VERTEX
  5
107C
  8
SAPA_PROFIL
 10
149.06285206218331
 20
57.430270350030241
 30
0.0
  0
VERTEX
  5
107D
  8
SAPA_PROFIL
 10
149.39947898681771
 20
57.430270350030241
 30
0.0
 42
-0.5535245743249297
  0
VERTEX
  5
107E
  8
SAPA_PROFIL
 10
147.6269596643078
 20
53.119716138498909
 30
0.0
  0
VERTEX
  5
107F
  8
SAPA_PROFIL
 10
147.3396287574798
 20
53.407047045326863
 30
0.0
 42
0.4142135623729421
  0
VERTEX
  5
1080
  8
SAPA_PROFIL
 10
146.9860753668865
 20
53.407047045326863
 30
0.0
  0
VERTEX
  5
1081
  8
SAPA_PROFIL
 10
146.69874446005861
 20
53.119716138498909
 30
0.0
 42
-0.5535245743249292
  0
VERTEX
  5
1082
  8
SAPA_PROFIL
 10
144.9262251375487
 20
57.430270350030241
 30
0.0
  0
VERTEX
  5
1083
  8
SAPA_PROFIL
 10
145.2628520621831
 20
57.430270350030241
 30
0.0
 42
0.4142135623730951
  0
VERTEX
  5
1084
  8
SAPA_PROFIL
 10
145.56285206218331
 20
57.730270350030189
 30
0.0
  0
VERTEX
  5
1085
  8
SAPA_PROFIL
 10
145.56285206218331
 20
58.230270350030189
 30
0.0
 42
0.4142135623730951
  0
VERTEX
  5
1086
  8
SAPA_PROFIL
 10
145.2628520621831
 20
58.53027035003015
 30
0.0
  0
VERTEX
  5
1087
  8
SAPA_PROFIL
 10
144.16285206218319
 20
58.53027035003015
 30
0.0
 42
0.4142135623730951
  0
VERTEX
  5
1088
  8
SAPA_PROFIL
 10
142.66285206218319
 20
57.03027035003015
 30
0.0
  0
VERTEX
  5
1089
  8
SAPA_PROFIL
 10
142.66285206218319
 20
54.396295753814677
 30
0.0
 42
0.267949192431143
  0
VERTEX
  5
108A
  8
SAPA_PROFIL
 10
142.91285206218319
 20
53.96328305192241
 30
0.0
 42
-0.767326987978956
  0
VERTEX
  5
108B
  8
SAPA_PROFIL
 10
142.66285206218319
 20
53.03027035003015
 30
0.0
  0
VERTEX
  5
108C
  8
SAPA_PROFIL
 10
107.66285206218321
 20
53.03027035003015
 30
0.0
 42
-0.4142135623730951
  0
VERTEX
  5
108D
  8
SAPA_PROFIL
 10
106.66285206218321
 20
54.03027035003015
 30
0.0
  0
VERTEX
  5
108E
  8
SAPA_PROFIL
 10
106.66285206218321
 20
58.230270350030189
 30
0.0
 42
0.4142135623730951
  0
VERTEX
  5
108F
  8
SAPA_PROFIL
 10
106.36285206218319
 20
58.53027035003015
 30
0.0
  0
VERTEX
  5
1090
  8
SAPA_PROFIL
 10
104.0628520621833
 20
58.53027035003015
 30
0.0
 42
0.4142135623730951
  0
VERTEX
  5
1091
  8
SAPA_PROFIL
 10
103.7628520621831
 20
58.230270350030189
 30
0.0
  0
VERTEX
  5
1092
  8
SAPA_PROFIL
 10
103.7628520621831
 20
57.730270350030189
 30
0.0
 42
0.4142135623730951
  0
VERTEX
  5
1093
  8
SAPA_PROFIL
 10
104.0628520621833
 20
57.430270350030241
 30
0.0
  0
VERTEX
  5
1094
  8
SAPA_PROFIL
 10
104.3994789868177
 20
57.430270350030241
 30
0.0
 42
-0.5535245743249297
  0
VERTEX
  5
1095
  8
SAPA_PROFIL
 10
102.6269596643078
 20
53.119716138498909
 30
0.0
  0
VERTEX
  5
1096
  8
SAPA_PROFIL
 10
102.3396287574799
 20
53.407047045326863
 30
0.0
 42
0.4142135623730243
  0
VERTEX
  5
1097
  8
SAPA_PROFIL
 10
101.9860753668865
 20
53.407047045326863
 30
0.0
  0
VERTEX
  5
1098
  8
SAPA_PROFIL
 10
101.69874446005861
 20
53.119716138498909
 30
0.0
 42
-0.5535245743249292
  0
VERTEX
  5
1099
  8
SAPA_PROFIL
 10
99.926225137548741
 20
57.430270350030241
 30
0.0
  0
VERTEX
  5
109A
  8
SAPA_PROFIL
 10
100.2628520621831
 20
57.430270350030241
 30
0.0
 42
0.4142135623730951
  0
VERTEX
  5
109B
  8
SAPA_PROFIL
 10
100.5628520621833
 20
57.730270350030189
 30
0.0
  0
VERTEX
  5
109C
  8
SAPA_PROFIL
 10
100.5628520621833
 20
58.230270350030189
 30
0.0
 42
0.4142135623730951
  0
VERTEX
  5
109D
  8
SAPA_PROFIL
 10
100.2628520621831
 20
58.53027035003015
 30
0.0
  0
VERTEX
  5
109E
  8
SAPA_PROFIL
 10
99.162852062183219
 20
58.53027035003015
 30
0.0
 42
0.4142135623730951
  0
VERTEX
  5
109F
  8
SAPA_PROFIL
 10
97.662852062183219
 20
57.03027035003015
 30
0.0
  0
VERTEX
  5
10A0
  8
SAPA_PROFIL
 10
97.662852062183219
 20
54.049885592300832
 30
0.0
 42
0.2679491924311188
  0
VERTEX
  5
10A1
  8
SAPA_PROFIL
 10
97.81285206218331
 20
53.790077971165601
 30
0.0
 42
-0.7673269879789557
  0
VERTEX
  5
10A2
  8
SAPA_PROFIL
 10
97.662852062183219
 20
53.230270350030189
 30
0.0
  0
VERTEX
  5
10A3
  8
SAPA_PROFIL
 10
95.662852062183234
 20
53.230270350030651
 30
0.0
 42
-0.4142137811865366
  0
VERTEX
  5
10A4
  8
SAPA_PROFIL
 10
94.662852062183205
 20
54.23026960295487
 30
0.0
  0
VERTEX
  5
10A5
  8
SAPA_PROFIL
 10
94.662852062183276
 20
97.430270350030241
 30
0.0
 42
-0.4142140000000124
  0
VERTEX
  5
10A6
  8
SAPA_PROFIL
 10
95.662852062183276
 20
98.430270350030256
 30
0.0
  0
VERTEX
  5
10A7
  8
SAPA_PROFIL
 10
97.662852062183276
 20
98.430270350030256
 30
0.0
 42
-0.7673269879789457
  0
VERTEX
  5
10A8
  8
SAPA_PROFIL
 10
97.812852062183367
 20
97.870462728895063
 30
0.0
 42
0.2679491924311191
  0
VERTEX
  5
10A9
  8
SAPA_PROFIL
 10
97.662852062183276
 20
97.610655107759627
 30
0.0
  0
VERTEX
  5
10AA
  8
SAPA_PROFIL
 10
97.662852062183276
 20
94.630270350030287
 30
0.0
 42
0.4142135623730951
  0
VERTEX
  5
10AB
  8
SAPA_PROFIL
 10
99.162852062183276
 20
93.130270350030287
 30
0.0
  0
VERTEX
  5
10AC
  8
SAPA_PROFIL
 10
100.2628520621832
 20
93.130270350030287
 30
0.0
 42
0.4142135623730951
  0
VERTEX
  5
10AD
  8
SAPA_PROFIL
 10
100.5628520621833
 20
93.430270350030227
 30
0.0
  0
VERTEX
  5
10AE
  8
SAPA_PROFIL
 10
100.5628520621833
 20
93.930270350030241
 30
0.0
 42
0.4142135623730951
  0
VERTEX
  5
10AF
  8
SAPA_PROFIL
 10
100.2628520621832
 20
94.230270350030196
 30
0.0
  0
VERTEX
  5
10B0
  8
SAPA_PROFIL
 10
99.926225137548784
 20
94.230270350030196
 30
0.0
 42
-0.5535245743249307
  0
VERTEX
  5
10B1
  8
SAPA_PROFIL
 10
101.69874446005861
 20
98.540824561561521
 30
0.0
  0
VERTEX
  5
10B2
  8
SAPA_PROFIL
 10
101.9860753668866
 20
98.253493654733575
 30
0.0
 42
0.4142135623730951
  0
VERTEX
  5
10B3
  8
SAPA_PROFIL
 10
102.3396287574799
 20
98.253493654733575
 30
0.0
  0
VERTEX
  5
10B4
  8
SAPA_PROFIL
 10
102.6269596643079
 20
98.540824561561521
 30
0.0
 42
-0.553524574324932
  0
VERTEX
  5
10B5
  8
SAPA_PROFIL
 10
104.3994789868177
 20
94.230270350030196
 30
0.0
  0
VERTEX
  5
10B6
  8
SAPA_PROFIL
 10
104.0628520621833
 20
94.230270350030196
 30
0.0
 42
0.4142135623730951
  0
VERTEX
  5
10B7
  8
SAPA_PROFIL
 10
103.7628520621832
 20
93.930270350030241
 30
0.0
  0
VERTEX
  5
10B8
  8
SAPA_PROFIL
 10
103.7628520621832
 20
93.430270350030227
 30
0.0
 42
0.4142135623730951
  0
VERTEX
  5
10B9
  8
SAPA_PROFIL
 10
104.0628520621833
 20
93.130270350030287
 30
0.0
  0
VERTEX
  5
10BA
  8
SAPA_PROFIL
 10
106.36285206218329
 20
93.130270350030287
 30
0.0
 42
0.4142135623730951
  0
VERTEX
  5
10BB
  8
SAPA_PROFIL
 10
106.6628520621833
 20
93.430270350030227
 30
0.0
  0
VERTEX
  5
10BC
  8
SAPA_PROFIL
 10
106.6628520621833
 20
97.630270350030287
 30
0.0
 42
-0.4142135623730951
  0
VERTEX
  5
10BD
  8
SAPA_PROFIL
 10
107.6628520621833
 20
98.630270350030287
 30
0.0
  0
VERTEX
  5
10BE
  8
SAPA_PROFIL
 10
142.66285206218319
 20
98.630270350030287
 30
0.0
 42
-0.7673269879789505
  0
VERTEX
  5
10BF
  8
SAPA_PROFIL
 10
142.91285206218319
 20
97.697257648137793
 30
0.0
 42
0.2679491924311202
  0
VERTEX
  5
10C0
  8
SAPA_PROFIL
 10
142.66285206218319
 20
97.264244946245753
 30
0.0
  0
VERTEX
  5
10C1
  8
SAPA_PROFIL
 10
142.66285206218319
 20
94.630270350030287
 30
0.0
 42
0.4142135623730951
  0
VERTEX
  5
10C2
  8
SAPA_PROFIL
 10
144.16285206218319
 20
93.130270350030287
 30
0.0
  0
VERTEX
  5
10C3
  8
SAPA_PROFIL
 10
145.2628520621831
 20
93.130270350030287
 30
0.0
 42
0.4142135623730951
  0
VERTEX
  5
10C4
  8
SAPA_PROFIL
 10
145.56285206218331
 20
93.430270350030227
 30
0.0
  0
VERTEX
  5
10C5
  8
SAPA_PROFIL
 10
145.56285206218331
 20
93.930270350030241
 30
0.0
 42
0.4142135623730951
  0
VERTEX
  5
10C6
  8
SAPA_PROFIL
 10
145.2628520621831
 20
94.230270350030196
 30
0.0
  0
VERTEX
  5
10C7
  8
SAPA_PROFIL
 10
144.9262251375487
 20
94.230270350030196
 30
0.0
 42
-0.5535245743249307
  0
VERTEX
  5
10C8
  8
SAPA_PROFIL
 10
146.69874446005861
 20
98.540824561561521
 30
0.0
  0
VERTEX
  5
10C9
  8
SAPA_PROFIL
 10
146.9860753668865
 20
98.253493654733575
 30
0.0
 42
0.4142135623731068
  0
VERTEX
  5
10CA
  8
SAPA_PROFIL
 10
147.3396287574798
 20
98.253493654733575
 30
0.0
  0
VERTEX
  5
10CB
  8
SAPA_PROFIL
 10
147.6269596643078
 20
98.540824561561521
 30
0.0
 42
-0.553524574324932
  0
VERTEX
  5
10CC
  8
SAPA_PROFIL
 10
149.39947898681771
 20
94.230270350030196
 30
0.0
  0
VERTEX
  5
10CD
  8
SAPA_PROFIL
 10
149.06285206218331
 20
94.230270350030196
 30
0.0
 42
0.4142135623730951
  0
VERTEX
  5
10CE
  8
SAPA_PROFIL
 10
148.7628520621831
 20
93.930270350030241
 30
0.0
  0
VERTEX
  5
10CF
  8
SAPA_PROFIL
 10
148.7628520621831
 20
93.430270350030227
 30
0.0
 42
0.4142135623730951
  0
VERTEX
  5
10D0
  8
SAPA_PROFIL
 10
149.06285206218331
 20
93.130270350030287
 30
0.0
  0
VERTEX
  5
10D1
  8
SAPA_PROFIL
 10
151.36285206218301
 20
93.130270350030287
 30
0.0
 42
0.4142135623730951
  0
VERTEX
  5
10D2
  8
SAPA_PROFIL
 10
151.66285206218319
 20
93.430270350030227
 30
0.0
  0
VERTEX
  5
10D3
  8
SAPA_PROFIL
 10
151.66285206218319
 20
97.630270350030287
 30
0.0
 42
-0.4142135623730951
  0
VERTEX
  5
10D4
  8
SAPA_PROFIL
 10
152.66285206218319
 20
98.630270350030287
 30
0.0
  0
VERTEX
  5
10D5
  8
SAPA_PROFIL
 10
191.8385879934709
 20
98.630270350030287
 30
0.0
 42
-0.198912367379658
  0
VERTEX
  5
10D6
  8
SAPA_PROFIL
 10
192.05072002782691
 20
98.542402384386151
 30
0.0
  0
VERTEX
  5
10D7
  8
SAPA_PROFIL
 10
193.57498409653871
 20
97.01813831567415
 30
0.0
 42
0.1989123673797102
  0
VERTEX
  5
10D8
  8
SAPA_PROFIL
 10
193.78711613089499
 20
96.930270350030014
 30
0.0
  0
VERTEX
  5
10D9
  8
SAPA_PROFIL
 10
194.3628520621829
 20
96.930270350030256
 30
0.0
 42
0.4142135623730951
  0
VERTEX
  5
10DA
  8
SAPA_PROFIL
 10
194.66285206218311
 20
97.23027035003021
 30
0.0
  0
VERTEX
  5
10DB
  8
SAPA_PROFIL
 10
194.66285206218311
 20
98.330270350030105
 30
0.0
 42
-0.4142135623730951
  0
VERTEX
  5
10DC
  8
SAPA_PROFIL
 10
194.962852062183
 20
98.630270350030287
 30
0.0
  0
VERTEX
  5
10DD
  8
SAPA_PROFIL
 10
197.3628520621829
 20
98.630270350030287
 30
0.0
 42
-0.4142135623730951
  0
VERTEX
  5
10DE
  8
SAPA_PROFIL
 10
197.66285206218311
 20
98.330270350030105
 30
0.0
  0
VERTEX
  5
10DF
  8
SAPA_PROFIL
 10
197.66285206218311
 20
97.23027035003021
 30
0.0
 42
0.4142135623730951
  0
VERTEX
  5
10E0
  8
SAPA_PROFIL
 10
197.962852062183
 20
96.930270350030256
 30
0.0
  0
VERTEX
  5
10E1
  8
SAPA_PROFIL
 10
198.5385879934712
 20
96.930270350030256
 30
0.0
 42
0.1989123673796752
  0
VERTEX
  5
10E2
  8
SAPA_PROFIL
 10
198.75072002782699
 20
97.018138315674378
 30
0.0
  0
VERTEX
  5
10E3
  8
SAPA_PROFIL
 10
200.27498409653899
 20
98.542402384386151
 30
0.0
 42
-0.1989123673797102
  0
VERTEX
  5
10E4
  8
SAPA_PROFIL
 10
200.48711613089509
 20
98.630270350030287
 30
0.0
  0
VERTEX
  5
10E5
  8
SAPA_PROFIL
 10
202.66285206218311
 20
98.630270350030287
 30
0.0
 42
-0.4142135623730951
  0
VERTEX
  5
10E6
  8
SAPA_PROFIL
 10
203.66285206218311
 20
97.630270350030287
 30
0.0
  0
VERTEX
  5
10E7
  8
SAPA_PROFIL
 10
203.66285206218311
 20
54.03027035003015
 30
0.0
 42
-0.4142135623730951
  0
SEQEND
  5
10E8
  8
SAPA_PROFIL
  0
POLYLINE
  5
C37
  8
SAPA_PROFIL
 66
     1
 10
0.0
 20
0.0
 30
0.0
 70
     1
  0
VERTEX
  5
10E9
  8
SAPA_PROFIL
 10
15.56437699097704
 20
53.030270350030598
 30
0.0
  0
VERTEX
  5
10EA
  8
SAPA_PROFIL
 10
15.56437699097704
 20
52.030270350030598
 30
0.0
  0
VERTEX
  5
10EB
  8
SAPA_PROFIL
 10
18.1643769909772
 20
52.030270350030598
 30
0.0
 42
-0.4142135623730951
  0
VERTEX
  5
10EC
  8
SAPA_PROFIL
 10
18.66437699097721
 20
51.530270350030591
 30
0.0
  0
VERTEX
  5
10ED
  8
SAPA_PROFIL
 10
18.66437699097721
 20
51.1302703500305
 30
0.0
 42
-0.4142135623730951
  0
VERTEX
  5
10EE
  8
SAPA_PROFIL
 10
18.364376990977249
 20
50.830270350030553
 30
0.0
  0
VERTEX
  5
10EF
  8
SAPA_PROFIL
 10
0.6628520631745581
 20
50.830270350030553
 30
0.0
 42
-0.4142135623730951
  0
VERTEX
  5
10F0
  8
SAPA_PROFIL
 10
0.162852063174558
 20
51.33027035003056
 30
0.0
  0
VERTEX
  5
10F1
  8
SAPA_PROFIL
 10
0.1628520631745669
 20
100.3302703500305
 30
0.0
 42
-0.4142135623730951
  0
VERTEX
  5
10F2
  8
SAPA_PROFIL
 10
0.6628520631745669
 20
100.8302703500305
 30
0.0
  0
VERTEX
  5
10F3
  8
SAPA_PROFIL
 10
18.364376990977259
 20
100.8302703500305
 30
0.0
 42
-0.4142135623730951
  0
VERTEX
  5
10F4
  8
SAPA_PROFIL
 10
18.66437699097721
 20
100.53027035003061
 30
0.0
  0
VERTEX
  5
10F5
  8
SAPA_PROFIL
 10
18.66437699097721
 20
100.1302703500305
 30
0.0
 42
-0.4142135623730951
  0
VERTEX
  5
10F6
  8
SAPA_PROFIL
 10
18.16437699097721
 20
99.630270350030514
 30
0.0
  0
VERTEX
  5
10F7
  8
SAPA_PROFIL
 10
15.564376990977051
 20
99.630270350030514
 30
0.0
  0
VERTEX
  5
10F8
  8
SAPA_PROFIL
 10
15.564376990977051
 20
98.630270350030514
 30
0.0
  0
VERTEX
  5
10F9
  8
SAPA_PROFIL
 10
14.560344231344059
 20
98.050609571609357
 30
0.0
 42
-0.4155392929676362
  0
VERTEX
  5
10FA
  8
SAPA_PROFIL
 10
13.46572525955207
 20
98.34658299791522
 30
0.0
  0
VERTEX
  5
10FB
  8
SAPA_PROFIL
 10
12.72458802125311
 20
99.630270350030514
 30
0.0
  0
VERTEX
  5
10FC
  8
SAPA_PROFIL
 10
2.56285206317443
 20
99.630270350030514
 30
0.0
 42
0.4142135623730951
  0
VERTEX
  5
10FD
  8
SAPA_PROFIL
 10
1.56285206317443
 20
98.630270350030514
 30
0.0
  0
VERTEX
  5
10FE
  8
SAPA_PROFIL
 10
1.5628520631744209
 20
53.030270350030612
 30
0.0
 42
0.4142135623730951
  0
VERTEX
  5
10FF
  8
SAPA_PROFIL
 10
2.5628520631744212
 20
52.030270350030598
 30
0.0
  0
VERTEX
  5
1100
  8
SAPA_PROFIL
 10
12.7245880212531
 20
52.030270350030598
 30
0.0
  0
VERTEX
  5
1101
  8
SAPA_PROFIL
 10
13.465725259552061
 20
53.313957702145892
 30
0.0
 42
-0.4155392929676362
  0
VERTEX
  5
1102
  8
SAPA_PROFIL
 10
14.56034423134405
 20
53.609931128451748
 30
0.0
  0
SEQEND
  5
1103
  8
SAPA_PROFIL
  0
POLYLINE
  5
C65
  8
SAPA_GLAS
 66
     1
 10
0.0
 20
0.0
 30
0.0
  0
VERTEX
  5
111F
  8
SAPA_GLAS
 10
48.162852063173332
 20
116.8302703500252
 30
0.0
  0
VERTEX
  5
1120
  8
SAPA_GLAS
 10
48.162852063173332
 20
86.830270350025202
 30
0.0
  0
VERTEX
  5
1121
  8
SAPA_GLAS
 10
52.162852063173332
 20
86.830270350025202
 30
0.0
  0
VERTEX
  5
1122
  8
SAPA_GLAS
 10
52.162852063173332
 20
116.8302703500252
 30
0.0
  0
SEQEND
  5
1123
  8
SAPA_GLAS
  0
POLYLINE
  5
C66
  8
SAPA_GLAS
 66
     1
 10
0.0
 20
0.0
 30
0.0
  0
VERTEX
  5
1124
  8
SAPA_GLAS
 10
24.162852063173339
 20
116.8302703500252
 30
0.0
  0
VERTEX
  5
1125
  8
SAPA_GLAS
 10
24.162852063173329
 20
86.830270350025216
 30
0.0
  0
VERTEX
  5
1126
  8
SAPA_GLAS
 10
32.162852063173332
 20
86.830270350025216
 30
0.0
  0
VERTEX
  5
1127
  8
SAPA_GLAS
 10
32.162852063173332
 20
116.8302703500252
 30
0.0
  0
SEQEND
  5
1128
  8
SAPA_GLAS
  0
POLYLINE
  5
C67
  8
SAPA_GLAS
 66
     1
 10
0.0
 20
0.0
 30
0.0
  0
VERTEX
  5
1129
  8
SAPA_GLAS
 10
68.162852063174924
 20
116.8302703500261
 30
0.0
  0
VERTEX
  5
112A
  8
SAPA_GLAS
 10
68.162852063174924
 20
86.830270350026112
 30
0.0
  0
VERTEX
  5
112B
  8
SAPA_GLAS
 10
74.162852063174924
 20
86.830270350026112
 30
0.0
  0
VERTEX
  5
112C
  8
SAPA_GLAS
 10
74.162852063174924
 20
116.8302703500261
 30
0.0
  0
SEQEND
  5
112D
  8
SAPA_GLAS
  0
POLYLINE
  5
C68
  8
SAPA_GLAS
 66
     1
 10
0.0
 20
0.0
 30
0.0
  0
VERTEX
  5
112E
  8
SAPA_GLAS
 10
32.162852063174917
 20
96.830270350025216
 30
0.0
  0
VERTEX
  5
112F
  8
SAPA_GLAS
 10
48.162852063174917
 20
96.830270350025202
 30
0.0
  0
VERTEX
  5
1130
  8
SAPA_GLAS
 10
48.162852063174917
 20
86.830270350026112
 30
0.0
  0
VERTEX
  5
1131
  8
SAPA_GLAS
 10
32.162852063174917
 20
86.830270350026126
 30
0.0
  0
VERTEX
  5
1132
  8
SAPA_GLAS
 10
32.162852063174917
 20
96.830270350025216
 30
0.0
  0
SEQEND
  5
1133
  8
SAPA_GLAS
  0
POLYLINE
  5
C69
  8
SAPA_GLAS
 66
     1
 10
0.0
 20
0.0
 30
0.0
  0
VERTEX
  5
1134
  8
SAPA_GLAS
 10
52.162852063174917
 20
96.830270350025202
 30
0.0
  0
VERTEX
  5
1135
  8
SAPA_GLAS
 10
68.162852063174924
 20
96.830270350025202
 30
0.0
  0
VERTEX
  5
1136
  8
SAPA_GLAS
 10
68.162852063174924
 20
86.830270350026112
 30
0.0
  0
VERTEX
  5
1137
  8
SAPA_GLAS
 10
52.162852063174917
 20
86.830270350026112
 30
0.0
  0
VERTEX
  5
1138
  8
SAPA_GLAS
 10
52.162852063174917
 20
96.830270350025202
 30
0.0
  0
SEQEND
  5
1139
  8
SAPA_GLAS
  0
LINE
  5
C71
  8
SAPA_FYLLNING
 10
195.16285206218311
 20
49.830270350030112
 30
0.0
 11
195.16285206218299
 21
0.8302703500301049
 31
0.0
  0
POLYLINE
  5
C72
  8
SAPA_FYLLNING
 66
     1
 10
0.0
 20
0.0
 30
0.0
  0
VERTEX
  5
115A
  8
SAPA_FYLLNING
 10
193.66285206218299
 20
0.8302703500301049
 30
0.0
  0
VERTEX
  5
115B
  8
SAPA_FYLLNING
 10
193.66285206218299
 20
49.830270350030112
 30
0.0
  0
VERTEX
  5
115C
  8
SAPA_FYLLNING
 10
205.16285206218311
 20
49.830270350030098
 30
0.0
  0
VERTEX
  5
115D
  8
SAPA_FYLLNING
 10
205.16285206218311
 20
0.8302703500301049
 30
0.0
  0
SEQEND
  5
115E
  8
SAPA_FYLLNING
  0
POLYLINE
  5
C73
  8
SAPA_FYLLNING
 66
     1
 10
0.0
 20
0.0
 30
0.0
  0
VERTEX
  5
115F
  8
SAPA_FYLLNING
 10
84.680093392260005
 20
65.130269984776973
 30
0.0
 42
-0.9999999999999998
  0
VERTEX
  5
1160
  8
SAPA_FYLLNING
 10
84.680093406248488
 20
60.164752658919042
 30
0.0
  0
VERTEX
  5
1161
  8
SAPA_FYLLNING
 10
59.604231530049219
 20
60.164752504348598
 30
0.0
 42
0.9999999999999998
  0
VERTEX
  5
1162
  8
SAPA_FYLLNING
 10
59.604231530049219
 20
55.199235280346777
 30
0.0
  0
VERTEX
  5
1163
  8
SAPA_FYLLNING
 10
84.680093406248488
 20
55.199235434917227
 30
0.0
 42
-1.0
  0
VERTEX
  5
1164
  8
SAPA_FYLLNING
 10
84.680093427230531
 20
50.233718210919051
 30
0.0
  0
VERTEX
  5
1165
  8
SAPA_FYLLNING
 10
59.604231558026193
 20
50.233718056348607
 30
0.0
 42
0.9999999999999998
  0
VERTEX
  5
1166
  8
SAPA_FYLLNING
 10
59.604231558026193
 20
45.268200832346793
 30
0.0
  0
VERTEX
  5
1167
  8
SAPA_FYLLNING
 10
84.680093434224545
 20
45.268201088773367
 30
0.0
 42
-0.9999999999999998
  0
VERTEX
  5
1168
  8
SAPA_FYLLNING
 10
84.680093448212574
 20
40.302683762915422
 30
0.0
  0
VERTEX
  5
1169
  8
SAPA_FYLLNING
 10
59.604231572014221
 20
40.302683608344971
 30
0.0
 42
0.9999999999999998
  0
VERTEX
  5
116A
  8
SAPA_FYLLNING
 10
59.604231572014221
 20
35.33716638434317
 30
0.0
  0
VERTEX
  5
116B
  8
SAPA_FYLLNING
 10
84.680093448212574
 20
35.337166538913607
 30
0.0
 42
-1.0
  0
VERTEX
  5
116C
  8
SAPA_FYLLNING
 10
84.680093469194617
 20
30.37164931491543
 30
0.0
  0
VERTEX
  5
116D
  8
SAPA_FYLLNING
 10
59.604231599990271
 20
30.37164916034499
 30
0.0
 42
0.9999999999999998
  0
VERTEX
  5
116E
  8
SAPA_FYLLNING
 10
59.604231599990271
 20
25.406131936343169
 30
0.0
  0
VERTEX
  5
116F
  8
SAPA_FYLLNING
 10
84.680093476188631
 20
25.40613219276975
 30
0.0
 42
-0.9999999999999998
  0
VERTEX
  5
1170
  8
SAPA_FYLLNING
 10
84.68009349017666
 20
20.440614866911801
 30
0.0
  0
VERTEX
  5
1171
  8
SAPA_FYLLNING
 10
59.6042316139783
 20
20.440614712341361
 30
0.0
 42
0.9999999999999998
  0
VERTEX
  5
1172
  8
SAPA_FYLLNING
 10
59.6042316139783
 20
15.475097488339539
 30
0.0
  0
VERTEX
  5
1173
  8
SAPA_FYLLNING
 10
84.68009349017666
 20
15.47509764290999
 30
0.0
 42
-1.0000000000000011
  0
VERTEX
  5
1174
  8
SAPA_FYLLNING
 10
84.680093511158702
 20
10.50958041891181
 30
0.0
  0
VERTEX
  5
1175
  8
SAPA_FYLLNING
 10
59.604231641954357
 20
10.509580264341359
 30
0.0
 42
0.9999999999999998
  0
VERTEX
  5
1176
  8
SAPA_FYLLNING
 10
59.604231641954357
 20
5.5440630403395508
 30
0.0
  0
VERTEX
  5
1177
  8
SAPA_FYLLNING
 10
84.680093518152717
 20
5.544063296766125
 30
0.0
 42
-0.9999999999999998
  0
VERTEX
  5
1178
  8
SAPA_FYLLNING
 10
84.680093532140745
 20
0.5785459709081806
 30
0.0
  0
SEQEND
  5
1179
  8
SAPA_FYLLNING
  0
POLYLINE
  5
C82
  8
SAPA_ISOLATOR
 66
     1
 10
0.0
 20
0.0
 30
0.0
 70
     1
  0
VERTEX
  5
11F6
  8
SAPA_ISOLATOR
 10
64.427774007511744
 20
66.996322963883529
 30
0.0
 42
0.2133140774071598
  0
VERTEX
  5
11F7
  8
SAPA_ISOLATOR
 10
65.917936539249695
 20
66.330270350029068
 30
0.0
  0
VERTEX
  5
11F8
  8
SAPA_ISOLATOR
 10
66.089793447908619
 20
66.330270350029068
 30
0.0
 42
-0.9999999999999998
  0
VERTEX
  5
11F9
  8
SAPA_ISOLATOR
 10
66.089793447908619
 20
65.830270350029053
 30
0.0
  0
VERTEX
  5
11FA
  8
SAPA_ISOLATOR
 10
65.130668908622056
 20
65.830270350029082
 30
0.0
 42
-0.2072397715914422
  0
VERTEX
  5
11FB
  8
SAPA_ISOLATOR
 10
63.307264865701647
 20
66.619949416326335
 30
0.0
 42
-0.1421101772925093
  0
VERTEX
  5
11FC
  8
SAPA_ISOLATOR
 10
61.162852062183212
 20
70.830270350029082
 30
0.0
  0
VERTEX
  5
11FD
  8
SAPA_ISOLATOR
 10
62.975017306728198
 20
70.830270350029082
 30
0.0
 42
0.1860725815673001
  0
SEQEND
  5
11FE
  8
SAPA_ISOLATOR
  0
POLYLINE
  5
C83
  8
SAPA_ISOLATOR
 66
     1
 10
0.0
 20
0.0
 30
0.0
 70
     1
  0
VERTEX
  5
11FF
  8
SAPA_ISOLATOR
 10
64.427774007511744
 20
84.664217736174734
 30
0.0
 42
-0.2133140774071598
  0
VERTEX
  5
1200
  8
SAPA_ISOLATOR
 10
65.917936539249695
 20
85.330270350029195
 30
0.0
  0
VERTEX
  5
1201
  8
SAPA_ISOLATOR
 10
66.089793447908619
 20
85.330270350029195
 30
0.0
 42
0.9999999999999998
  0
VERTEX
  5
1202
  8
SAPA_ISOLATOR
 10
66.089793447908619
 20
85.830270350029195
 30
0.0
  0
VERTEX
  5
1203
  8
SAPA_ISOLATOR
 10
65.130668908622056
 20
85.830270350029195
 30
0.0
 42
0.2072397715914422
  0
VERTEX
  5
1204
  8
SAPA_ISOLATOR
 10
63.307264865701647
 20
85.040591283731942
 30
0.0
 42
0.1421101772925093
  0
VERTEX
  5
1205
  8
SAPA_ISOLATOR
 10
61.162852062183212
 20
80.830270350029195
 30
0.0
  0
VERTEX
  5
1206
  8
SAPA_ISOLATOR
 10
62.975017306728198
 20
80.830270350029195
 30
0.0
 42
-0.1860725815673001
  0
SEQEND
  5
1207
  8
SAPA_ISOLATOR
  0
POLYLINE
  5
C84
  8
SAPA_ISOLATOR
 66
     1
 10
0.0
 20
0.0
 30
0.0
 70
     1
  0
VERTEX
  5
1208
  8
SAPA_ISOLATOR
 10
47.427774007511744
 20
84.664217736174734
 30
0.0
 42
-0.2133140774071598
  0
VERTEX
  5
1209
  8
SAPA_ISOLATOR
 10
48.917936539249702
 20
85.330270350029195
 30
0.0
  0
VERTEX
  5
120A
  8
SAPA_ISOLATOR
 10
49.089793447908619
 20
85.330270350029195
 30
0.0
 42
0.9999999999999998
  0
VERTEX
  5
120B
  8
SAPA_ISOLATOR
 10
49.089793447908619
 20
85.830270350029195
 30
0.0
  0
VERTEX
  5
120C
  8
SAPA_ISOLATOR
 10
48.130668908622063
 20
85.830270350029195
 30
0.0
 42
0.2072397715914422
  0
VERTEX
  5
120D
  8
SAPA_ISOLATOR
 10
46.307264865701647
 20
85.040591283731942
 30
0.0
 42
0.1421101772925093
  0
VERTEX
  5
120E
  8
SAPA_ISOLATOR
 10
44.162852062183212
 20
80.830270350029195
 30
0.0
  0
VERTEX
  5
120F
  8
SAPA_ISOLATOR
 10
45.975017306728198
 20
80.830270350029195
 30
0.0
 42
-0.1860725815673001
  0
SEQEND
  5
1210
  8
SAPA_ISOLATOR
  0
POLYLINE
  5
C85
  8
SAPA_ISOLATOR
 66
     1
 10
0.0
 20
0.0
 30
0.0
 70
     1
  0
VERTEX
  5
1211
  8
SAPA_ISOLATOR
 10
30.427774007512198
 20
84.664217736174692
 30
0.0
 42
-0.2133140774071598
  0
VERTEX
  5
1212
  8
SAPA_ISOLATOR
 10
31.91793653925015
 20
85.330270350029139
 30
0.0
  0
VERTEX
  5
1213
  8
SAPA_ISOLATOR
 10
32.089793447909081
 20
85.330270350029139
 30
0.0
 42
0.9999999999999998
  0
VERTEX
  5
1214
  8
SAPA_ISOLATOR
 10
32.089793447909081
 20
85.830270350029124
 30
0.0
  0
VERTEX
  5
1215
  8
SAPA_ISOLATOR
 10
31.130668908622511
 20
85.830270350029124
 30
0.0
 42
0.2072397715914422
  0
VERTEX
  5
1216
  8
SAPA_ISOLATOR
 10
29.307264865702109
 20
85.040591283731885
 30
0.0
 42
0.1421101772925093
  0
VERTEX
  5
1217
  8
SAPA_ISOLATOR
 10
27.162852062183681
 20
80.830270350029124
 30
0.0
  0
VERTEX
  5
1218
  8
SAPA_ISOLATOR
 10
28.97501730672866
 20
80.830270350029124
 30
0.0
 42
-0.1860725815673001
  0
SEQEND
  5
1219
  8
SAPA_ISOLATOR
  0
POLYLINE
  5
C86
  8
SAPA_ISOLATOR
 66
     1
 10
0.0
 20
0.0
 30
0.0
 70
     1
  0
VERTEX
  5
121A
  8
SAPA_ISOLATOR
 10
47.427774007511744
 20
66.996322963883529
 30
0.0
 42
0.2133140774071598
  0
VERTEX
  5
121B
  8
SAPA_ISOLATOR
 10
48.917936539249702
 20
66.330270350029082
 30
0.0
  0
VERTEX
  5
121C
  8
SAPA_ISOLATOR
 10
49.089793447908619
 20
66.330270350029082
 30
0.0
 42
-0.9999999999999998
  0
VERTEX
  5
121D
  8
SAPA_ISOLATOR
 10
49.089793447908619
 20
65.830270350029082
 30
0.0
  0
VERTEX
  5
121E
  8
SAPA_ISOLATOR
 10
48.130668908622063
 20
65.830270350029082
 30
0.0
 42
-0.2072397715914422
  0
VERTEX
  5
121F
  8
SAPA_ISOLATOR
 10
46.307264865701647
 20
66.619949416326335
 30
0.0
 42
-0.1421101772925093
  0
VERTEX
  5
1220
  8
SAPA_ISOLATOR
 10
44.162852062183212
 20
70.830270350029082
 30
0.0
  0
VERTEX
  5
1221
  8
SAPA_ISOLATOR
 10
45.975017306728198
 20
70.830270350029082
 30
0.0
 42
0.1860725815673001
  0
SEQEND
  5
1222
  8
SAPA_ISOLATOR
  0
POLYLINE
  5
C87
  8
SAPA_ISOLATOR
 66
     1
 10
0.0
 20
0.0
 30
0.0
 70
     1
  0
VERTEX
  5
1223
  8
SAPA_ISOLATOR
 10
30.427774007512198
 20
66.996322963883586
 30
0.0
 42
0.2133140774071598
  0
VERTEX
  5
1224
  8
SAPA_ISOLATOR
 10
31.91793653925015
 20
66.330270350029139
 30
0.0
  0
VERTEX
  5
1225
  8
SAPA_ISOLATOR
 10
32.089793447909081
 20
66.330270350029139
 30
0.0
 42
-0.9999999999999998
  0
VERTEX
  5
1226
  8
SAPA_ISOLATOR
 10
32.089793447909081
 20
65.830270350029124
 30
0.0
  0
VERTEX
  5
1227
  8
SAPA_ISOLATOR
 10
31.130668908622511
 20
65.830270350029124
 30
0.0
 42
-0.2072397715914422
  0
VERTEX
  5
1228
  8
SAPA_ISOLATOR
 10
29.307264865702109
 20
66.619949416326392
 30
0.0
 42
-0.1421101772925093
  0
VERTEX
  5
1229
  8
SAPA_ISOLATOR
 10
27.162852062183681
 20
70.830270350029124
 30
0.0
  0
VERTEX
  5
122A
  8
SAPA_ISOLATOR
 10
28.97501730672866
 20
70.830270350029124
 30
0.0
 42
0.1860725815673001
  0
SEQEND
  5
122B
  8
SAPA_ISOLATOR
  0
POLYLINE
  5
C88
  8
SAPA_ISOLATOR
 66
     1
 10
0.0
 20
0.0
 30
0.0
 70
     1
  0
VERTEX
  5
122C
  8
SAPA_ISOLATOR
 10
22.250720027604071
 20
79.242402384423428
 30
0.0
 42
-0.1989123671061558
  0
VERTEX
  5
122D
  8
SAPA_ISOLATOR
 10
22.16285206218334
 20
79.454534418556136
 30
0.0
  0
VERTEX
  5
122E
  8
SAPA_ISOLATOR
 10
22.16285206218345
 20
80.530270350029227
 30
0.0
 42
-0.4142135623730605
  0
VERTEX
  5
122F
  8
SAPA_ISOLATOR
 10
22.462852062183462
 20
80.830270350029195
 30
0.0
  0
VERTEX
  5
1230
  8
SAPA_ISOLATOR
 10
69.662852062183333
 20
80.830270350029195
 30
0.0
 42
-0.4142135623730951
  0
VERTEX
  5
1231
  8
SAPA_ISOLATOR
 10
70.162852062183219
 20
80.330270350029068
 30
0.0
  0
VERTEX
  5
1232
  8
SAPA_ISOLATOR
 10
70.162852062183333
 20
79.104534418741068
 30
0.0
 42
0.1989123673796248
  0
VERTEX
  5
1233
  8
SAPA_ISOLATOR
 10
70.250720027827356
 20
78.892402384385079
 30
0.0
  0
VERTEX
  5
1234
  8
SAPA_ISOLATOR
 10
70.92498409653922
 20
78.218138315673215
 30
0.0
 42
0.1989123673796571
  0
VERTEX
  5
1235
  8
SAPA_ISOLATOR
 10
71.137116130895265
 20
78.130270350029193
 30
0.0
  0
VERTEX
  5
1236
  8
SAPA_ISOLATOR
 10
75.567885020398634
 20
78.130270350029193
 30
0.0
 42
-0.0912836897734216
  0
VERTEX
  5
1237
  8
SAPA_ISOLATOR
 10
77.687442054000599
 20
76.911628682219302
 30
0.0
 42
-0.4396415083054796
  0
VERTEX
  5
1238
  8
SAPA_ISOLATOR
 10
77.687442054000712
 20
74.748912017839132
 30
0.0
 42
-0.0912836897734209
  0
VERTEX
  5
1239
  8
SAPA_ISOLATOR
 10
75.567885020398634
 20
73.530270350029156
 30
0.0
  0
VERTEX
  5
123A
  8
SAPA_ISOLATOR
 10
71.137116130895265
 20
73.530270350029156
 30
0.0
 42
0.1989123673796602
  0
VERTEX
  5
123B
  8
SAPA_ISOLATOR
 10
70.92498409653922
 20
73.44240238438509
 30
0.0
  0
VERTEX
  5
123C
  8
SAPA_ISOLATOR
 10
70.250720027827356
 20
72.768138315673227
 30
0.0
 42
0.1989123673796276
  0
VERTEX
  5
123D
  8
SAPA_ISOLATOR
 10
70.162852062183333
 20
72.556006281317224
 30
0.0
  0
VERTEX
  5
123E
  8
SAPA_ISOLATOR
 10
70.162852062183333
 20
71.330270350029124
 30
0.0
 42
-0.4142135623730951
  0
VERTEX
  5
123F
  8
SAPA_ISOLATOR
 10
69.662852062183333
 20
70.830270350029124
 30
0.0
  0
VERTEX
  5
1240
  8
SAPA_ISOLATOR
 10
22.462852062183401
 20
70.830270350029124
 30
0.0
 42
-0.4142135623731471
  0
VERTEX
  5
1241
  8
SAPA_ISOLATOR
 10
22.16285206218339
 20
71.130270350029136
 30
0.0
  0
VERTEX
  5
1242
  8
SAPA_ISOLATOR
 10
22.16285206218334
 20
72.206006281132304
 30
0.0
 42
-0.1989123676531289
  0
VERTEX
  5
1243
  8
SAPA_ISOLATOR
 10
22.25072002805064
 20
72.418138315711531
 30
0.0
  0
VERTEX
  5
1244
  8
SAPA_ISOLATOR
 10
25.30929867159012
 20
75.476716952813149
 30
0.0
 42
0.4142135623730478
  0
VERTEX
  5
1245
  8
SAPA_ISOLATOR
 10
25.30929867159012
 20
76.183823733999702
 30
0.0
  0
SEQEND
  5
1246
  8
SAPA_ISOLATOR
  0
POLYLINE
  5
C89
  8
SAPA_ISOLATOR
 66
     1
 10
0.0
 20
0.0
 30
0.0
 70
     1
  0
VERTEX
  5
1247
  8
SAPA_ISOLATOR
 10
70.469349177928848
 20
74.542402384385113
 30
0.0
 42
-0.198912367379658
  0
VERTEX
  5
1248
  8
SAPA_ISOLATOR
 10
70.68148121228478
 20
74.630270350029136
 30
0.0
  0
VERTEX
  5
1249
  8
SAPA_ISOLATOR
 10
75.332606950392801
 20
74.630270350029136
 30
0.0
 42
0.0949127563617268
  0
VERTEX
  5
124A
  8
SAPA_ISOLATOR
 10
75.406515544635852
 20
74.644427621635487
 30
0.0
 42
0.0825355669758324
  0
VERTEX
  5
124B
  8
SAPA_ISOLATOR
 10
76.992990313938023
 20
75.602354128664842
 30
0.0
 42
0.4603672002713016
  0
VERTEX
  5
124C
  8
SAPA_ISOLATOR
 10
76.992990313938023
 20
76.058186571393477
 30
0.0
 42
0.08253556697594
  0
VERTEX
  5
124D
  8
SAPA_ISOLATOR
 10
75.406515544633635
 20
77.016113078423373
 30
0.0
 42
0.0949127563615792
  0
VERTEX
  5
124E
  8
SAPA_ISOLATOR
 10
75.332606950390471
 20
77.03027035002917
 30
0.0
  0
VERTEX
  5
124F
  8
SAPA_ISOLATOR
 10
70.68148121228478
 20
77.03027035002917
 30
0.0
 42
-0.1989123673796566
  0
VERTEX
  5
1250
  8
SAPA_ISOLATOR
 10
70.469349177928962
 20
77.118138315673193
 30
0.0
  0
VERTEX
  5
1251
  8
SAPA_ISOLATOR
 10
69.150720027827333
 20
78.436767465774707
 30
0.0
 42
-0.1989123673796571
  0
VERTEX
  5
1252
  8
SAPA_ISOLATOR
 10
69.06285206218331
 20
78.648899500130639
 30
0.0
  0
VERTEX
  5
1253
  8
SAPA_ISOLATOR
 10
69.06285206218331
 20
79.430270350029147
 30
0.0
 42
0.4142135623730395
  0
VERTEX
  5
1254
  8
SAPA_ISOLATOR
 10
68.762852062183356
 20
79.730270350029159
 30
0.0
  0
VERTEX
  5
1255
  8
SAPA_ISOLATOR
 10
56.562852062183367
 20
79.730270350029173
 30
0.0
 42
0.4142135623730673
  0
VERTEX
  5
1256
  8
SAPA_ISOLATOR
 10
56.262852062183413
 20
79.430270350029161
 30
0.0
  0
VERTEX
  5
1257
  8
SAPA_ISOLATOR
 10
56.262852062183413
 20
72.230270350029173
 30
0.0
 42
0.4142135623731228
  0
VERTEX
  5
1258
  8
SAPA_ISOLATOR
 10
56.562852062183367
 20
71.93027035002919
 30
0.0
  0
VERTEX
  5
1259
  8
SAPA_ISOLATOR
 10
68.762852062183356
 20
71.930270350029147
 30
0.0
 42
0.4142135623730743
  0
VERTEX
  5
125A
  8
SAPA_ISOLATOR
 10
69.06285206218331
 20
72.230270350029102
 30
0.0
  0
VERTEX
  5
125B
  8
SAPA_ISOLATOR
 10
69.06285206218331
 20
73.011641199927666
 30
0.0
 42
-0.1989123673796576
  0
VERTEX
  5
125C
  8
SAPA_ISOLATOR
 10
69.150720027827447
 20
73.223773234283598
 30
0.0
  0
SEQEND
  5
125D
  8
SAPA_ISOLATOR
  0
POLYLINE
  5
C8A
  8
SAPA_ISOLATOR
 66
     1
 10
0.0
 20
0.0
 30
0.0
 70
     1
  0
VERTEX
  5
125E
  8
SAPA_ISOLATOR
 10
55.16285206218339
 20
79.430270350029161
 30
0.0
 42
0.4142135623731076
  0
VERTEX
  5
125F
  8
SAPA_ISOLATOR
 10
54.862852062183322
 20
79.730270350029173
 30
0.0
  0
VERTEX
  5
1260
  8
SAPA_ISOLATOR
 10
39.562852062183431
 20
79.730270350029144
 30
0.0
 42
0.4142135623730659
  0
VERTEX
  5
1261
  8
SAPA_ISOLATOR
 10
39.26285206218347
 20
79.430270350029133
 30
0.0
  0
VERTEX
  5
1262
  8
SAPA_ISOLATOR
 10
39.262852062183363
 20
72.230270350029087
 30
0.0
 42
0.414213562373041
  0
VERTEX
  5
1263
  8
SAPA_ISOLATOR
 10
39.562852062183431
 20
71.930270350029133
 30
0.0
  0
VERTEX
  5
1264
  8
SAPA_ISOLATOR
 10
54.862852062183322
 20
71.930270350029161
 30
0.0
 42
0.4142135623730784
  0
VERTEX
  5
1265
  8
SAPA_ISOLATOR
 10
55.162852062183269
 20
72.230270350029116
 30
0.0
  0
SEQEND
  5
1266
  8
SAPA_ISOLATOR
  0
POLYLINE
  5
C8B
  8
SAPA_ISOLATOR
 66
     1
 10
0.0
 20
0.0
 30
0.0
 70
     1
  0
VERTEX
  5
1267
  8
SAPA_ISOLATOR
 10
38.16285206218334
 20
79.430270350029133
 30
0.0
 42
0.4142135623730659
  0
VERTEX
  5
1268
  8
SAPA_ISOLATOR
 10
37.862852062183379
 20
79.730270350029144
 30
0.0
  0
VERTEX
  5
1269
  8
SAPA_ISOLATOR
 10
23.801329691754521
 20
79.730270350029173
 30
0.0
 42
0.6681786375387276
  0
VERTEX
  5
126A
  8
SAPA_ISOLATOR
 10
23.65990833536836
 20
79.388848993940698
 30
0.0
  0
VERTEX
  5
126B
  8
SAPA_ISOLATOR
 10
26.087116131713859
 20
76.961641192486297
 30
0.0
 42
-0.4142135623730892
  0
VERTEX
  5
126C
  8
SAPA_ISOLATOR
 10
26.087116130895311
 20
74.698899493507952
 30
0.0
  0
VERTEX
  5
126D
  8
SAPA_ISOLATOR
 10
23.65990833869375
 20
72.271691706415311
 30
0.0
 42
0.6681786382998753
  0
VERTEX
  5
126E
  8
SAPA_ISOLATOR
 10
23.801329694782229
 20
71.930270350029161
 30
0.0
  0
VERTEX
  5
126F
  8
SAPA_ISOLATOR
 10
37.862852062183272
 20
71.930270350029133
 30
0.0
 42
0.4142135623730951
  0
VERTEX
  5
1270
  8
SAPA_ISOLATOR
 10
38.16285206218334
 20
72.230270350029144
 30
0.0
  0
SEQEND
  5
1271
  8
SAPA_ISOLATOR
  0
CIRCLE
  5
CA2
  8
SAPA_FOGBAND
 10
22.025283841427662
 20
57.074893032207228
 30
0.0
 40
0.2549509756796394
  0
INSERT
  5
CA3
  8
SAPA_FOGBAND
  6
CONTINUOUS
  2
*U35
 10
0.0
 20
0.0
 30
0.0
1001
ACAD
1002
{
1000
R14_HATCH_DATA
1000
CA3
1011
1.0
1021
0.0
1031
0.0
1021
0.0
1031
0.0
1011
0.0
1021
0.0
1031
0.0
1021
1.0
1031
0.0
1011
0.0
1021
0.0
1031
0.0
1021
0.0
1031
1.0
1040
0.0
1010
0.0
1020
0.0
1030
1.0
1000
SOLID
1070
     1
1070
     1
1071
        1
1071
        1
1071
        1
1070
     2
1040
22.025283841427662
1040
57.074893032207228
1040
0.2549509756796394
1040
-1.5707963267948959
1040
4.7123889803846888
1070
     0
1071
        1
1005
CA2
1070
     0
1070
     1
1071
        1
1040
22.10713533875656
1040
56.838154130637122
1040
0.0
1002
}
  0
POLYLINE
  5
CA4
  8
SAPA_FOGBAND
 66
     1
 10
0.0
 20
0.0
 30
0.0
 70
     1
  0
VERTEX
  5
137F
  8
SAPA_FOGBAND
 10
19.06285206218314
 20
57.974893032207213
 30
0.0
 42
-0.9999999999999998
  0
VERTEX
  5
1380
  8
SAPA_FOGBAND
 10
19.06285206218314
 20
56.174893032207251
 30
0.0
  0
VERTEX
  5
1381
  8
SAPA_FOGBAND
 10
18.46285206218311
 20
56.174893032207251
 30
0.0
 42
-0.9999999999999998
  0
VERTEX
  5
1382
  8
SAPA_FOGBAND
 10
18.46285206218311
 20
57.974893032207213
 30
0.0
  0
SEQEND
  5
1383
  8
SAPA_FOGBAND
  0
POLYLINE
  5
CA5
  8
SAPA_FOGBAND
 66
     1
 10
0.0
 20
0.0
 30
0.0
 70
     1
  0
VERTEX
  5
1384
  8
SAPA_FOGBAND
 10
24.162852062183159
 20
48.447016724034022
 30
0.0
 42
-0.0775891054856093
  0
VERTEX
  5
1385
  8
SAPA_FOGBAND
 10
23.84621607812182
 20
51.913798454456582
 30
0.0
  0
VERTEX
  5
1386
  8
SAPA_FOGBAND
 10
24.0628520621832
 20
52.151687947285382
 30
0.0
 42
0.5773502691896298
  0
VERTEX
  5
1387
  8
SAPA_FOGBAND
 10
24.0628520621832
 20
52.49809810879924
 30
0.0
  0
VERTEX
  5
1388
  8
SAPA_FOGBAND
 10
23.84594220796015
 20
52.736145725530037
 30
0.0
  0
VERTEX
  5
1389
  8
SAPA_FOGBAND
 10
23.84594220796015
 20
53.513640335446659
 30
0.0
  0
VERTEX
  5
138A
  8
SAPA_FOGBAND
 10
24.0628520621832
 20
53.751687947285411
 30
0.0
 42
0.577350269189699
  0
VERTEX
  5
138B
  8
SAPA_FOGBAND
 10
24.0628520621832
 20
54.098098108799149
 30
0.0
  0
VERTEX
  5
138C
  8
SAPA_FOGBAND
 10
23.84594220796015
 20
54.336145725529938
 30
0.0
  0
VERTEX
  5
138D
  8
SAPA_FOGBAND
 10
23.84594220796015
 20
55.113640335446689
 30
0.0
  0
VERTEX
  5
138E
  8
SAPA_FOGBAND
 10
24.0628520621832
 20
55.351687947285427
 30
0.0
 42
0.577350269189699
  0
VERTEX
  5
138F
  8
SAPA_FOGBAND
 10
24.0628520621832
 20
55.698098108799172
 30
0.0
  0
VERTEX
  5
1390
  8
SAPA_FOGBAND
 10
23.84594220796015
 20
55.936145725529968
 30
0.0
  0
VERTEX
  5
1391
  8
SAPA_FOGBAND
 10
23.84594220796015
 20
56.713640335446712
 30
0.0
  0
VERTEX
  5
1392
  8
SAPA_FOGBAND
 10
24.0628520621832
 20
56.951687947285343
 30
0.0
 42
0.5773502691896298
  0
VERTEX
  5
1393
  8
SAPA_FOGBAND
 10
24.0628520621832
 20
57.298098108799202
 30
0.0
  0
VERTEX
  5
1394
  8
SAPA_FOGBAND
 10
23.84594220796015
 20
57.536145725529991
 30
0.0
  0
VERTEX
  5
1395
  8
SAPA_FOGBAND
 10
23.84594220796015
 20
58.313640335446728
 30
0.0
  0
VERTEX
  5
1396
  8
SAPA_FOGBAND
 10
24.0628520621832
 20
58.551687947285359
 30
0.0
 42
0.5773502691896298
  0
VERTEX
  5
1397
  8
SAPA_FOGBAND
 10
24.0628520621832
 20
58.898098108799211
 30
0.0
  0
VERTEX
  5
1398
  8
SAPA_FOGBAND
 10
23.84594220796015
 20
59.136145725530007
 30
0.0
  0
VERTEX
  5
1399
  8
SAPA_FOGBAND
 10
23.84594220796015
 20
59.913640339611682
 30
0.0
  0
VERTEX
  5
139A
  8
SAPA_FOGBAND
 10
24.0628520621832
 20
60.151687951450413
 30
0.0
 42
0.577350269189699
  0
VERTEX
  5
139B
  8
SAPA_FOGBAND
 10
24.0628520621832
 20
60.498098112964158
 30
0.0
  0
VERTEX
  5
139C
  8
SAPA_FOGBAND
 10
22.989521993698698
 20
61.298098112519249
 30
0.0
 42
0.1316524987190269
  0
VERTEX
  5
139D
  8
SAPA_FOGBAND
 10
22.889521992928
 20
61.324893032207221
 30
0.0
  0
VERTEX
  5
139E
  8
SAPA_FOGBAND
 10
20.362852062183212
 20
61.324893032207342
 30
0.0
 42
0.4142135623730951
  0
VERTEX
  5
139F
  8
SAPA_FOGBAND
 10
20.162852062183159
 20
61.124893032207297
 30
0.0
  0
VERTEX
  5
13A0
  8
SAPA_FOGBAND
 10
20.162852062183159
 20
59.074893032207228
 30
0.0
 42
-0.4142135623730951
  0
VERTEX
  5
13A1
  8
SAPA_FOGBAND
 10
19.662852062183159
 20
58.574893032207228
 30
0.0
  0
VERTEX
  5
13A2
  8
SAPA_FOGBAND
 10
18.936057142940001
 20
58.574893032207228
 30
0.0
  0
VERTEX
  5
13A3
  8
SAPA_FOGBAND
 10
18.8685972336296
 20
58.826656841227759
 30
0.0
 42
0.4740571810232869
  0
VERTEX
  5
13A4
  8
SAPA_FOGBAND
 10
18.586314647990939
 20
58.953950703591318
 30
0.0
  0
VERTEX
  5
13A5
  8
SAPA_FOGBAND
 10
17.140108511231169
 20
58.333850200832778
 30
0.0
 42
0.2846003776495916
  0
VERTEX
  5
13A6
  8
SAPA_FOGBAND
 10
16.862852062183212
 20
57.886206022372562
 30
0.0
  0
VERTEX
  5
13A7
  8
SAPA_FOGBAND
 10
16.862852062183212
 20
56.263580042042008
 30
0.0
 42
0.2846003776495917
  0
VERTEX
  5
13A8
  8
SAPA_FOGBAND
 10
17.140108511231169
 20
55.815935863581778
 30
0.0
  0
VERTEX
  5
13A9
  8
SAPA_FOGBAND
 10
18.586314647990939
 20
55.195835360823253
 30
0.0
 42
0.4740571810232869
  0
VERTEX
  5
13AA
  8
SAPA_FOGBAND
 10
18.8685972336296
 20
55.323129223186811
 30
0.0
  0
VERTEX
  5
13AB
  8
SAPA_FOGBAND
 10
18.936057142940001
 20
55.574893032207228
 30
0.0
  0
VERTEX
  5
13AC
  8
SAPA_FOGBAND
 10
19.662852062183159
 20
55.574893032207228
 30
0.0
 42
-0.4142135623730951
  0
VERTEX
  5
13AD
  8
SAPA_FOGBAND
 10
20.162852062183159
 20
55.074893032207221
 30
0.0
  0
VERTEX
  5
13AE
  8
SAPA_FOGBAND
 10
20.162852062183159
 20
52.024893032207267
 30
0.0
 42
-0.4142135623730951
  0
VERTEX
  5
13AF
  8
SAPA_FOGBAND
 10
19.962852062183121
 20
51.824893032207228
 30
0.0
  0
VERTEX
  5
13B0
  8
SAPA_FOGBAND
 10
19.06285206218314
 20
51.824893032207342
 30
0.0
 42
0.4142135623731784
  0
VERTEX
  5
13B1
  8
SAPA_FOGBAND
 10
18.862852062183212
 20
51.624893032207297
 30
0.0
  0
VERTEX
  5
13B2
  8
SAPA_FOGBAND
 10
18.862852062183091
 20
50.924893032207251
 30
0.0
 42
0.4142135623730398
  0
VERTEX
  5
13B3
  8
SAPA_FOGBAND
 10
19.162852062183159
 20
50.624893032207289
 30
0.0
  0
VERTEX
  5
13B4
  8
SAPA_FOGBAND
 10
19.9733638388347
 20
50.624893032207289
 30
0.0
 42
-0.1316524975873973
  0
VERTEX
  5
13B5
  8
SAPA_FOGBAND
 10
20.9733638388347
 20
50.356943839776129
 30
0.0
  0
VERTEX
  5
13B6
  8
SAPA_FOGBAND
 10
23.56293183092663
 20
45.194098689735704
 30
0.0
 42
0.7057658529986604
  0
VERTEX
  5
13B7
  8
SAPA_FOGBAND
 10
24.162852062183159
 20
45.461691865094053
 30
0.0
  0
SEQEND
  5
13B8
  8
SAPA_FOGBAND
  0
POLYLINE
  5
CA6
  8
SAPA_FOGBAND
 66
     1
 10
0.0
 20
0.0
 30
0.0
 70
     1
  0
VERTEX
  5
13B9
  8
SAPA_FOGBAND
 10
42.415865274283867
 20
56.732899750467581
 30
0.0
 42
0.9999999999999998
  0
VERTEX
  5
13BA
  8
SAPA_FOGBAND
 10
42.415865274283867
 20
54.932899750467563
 30
0.0
  0
VERTEX
  5
13BB
  8
SAPA_FOGBAND
 10
43.015865274283897
 20
54.932899750467563
 30
0.0
 42
0.9999999999999998
  0
VERTEX
  5
13BC
  8
SAPA_FOGBAND
 10
43.015865274283897
 20
56.732899750467581
 30
0.0
  0
SEQEND
  5
13BD
  8
SAPA_FOGBAND
  0
POLYLINE
  5
CA7
  8
SAPA_FOGBAND
 66
     1
 10
0.0
 20
0.0
 30
0.0
  0
VERTEX
  5
13BE
  8
SAPA_FOGBAND
 10
40.80123477664506
 20
52.232899750467581
 30
0.0
  0
VERTEX
  5
13BF
  8
SAPA_FOGBAND
 10
41.101234776645128
 20
52.232899750467581
 30
0.0
  0
VERTEX
  5
13C0
  8
SAPA_FOGBAND
 10
40.80123477664506
 20
52.232899750467581
 30
0.0
 42
-0.4142135623730951
  0
VERTEX
  5
13C1
  8
SAPA_FOGBAND
 10
40.301234776645053
 20
52.732899750467581
 30
0.0
  0
VERTEX
  5
13C2
  8
SAPA_FOGBAND
 10
40.301234776645053
 20
60.032899750467543
 30
0.0
 42
-0.4142135623730951
  0
VERTEX
  5
13C3
  8
SAPA_FOGBAND
 10
40.80123477664506
 20
60.532899750467529
 30
0.0
  0
VERTEX
  5
13C4
  8
SAPA_FOGBAND
 10
41.101234776645128
 20
60.532899750467529
 30
0.0
  0
SEQEND
  5
13C5
  8
SAPA_FOGBAND
  0
POLYLINE
  5
CA8
  8
SAPA_FOGBAND
 66
     1
 10
0.0
 20
0.0
 30
0.0
 70
     1
  0
VERTEX
  5
13C6
  8
SAPA_FOGBAND
 10
36.601234776645128
 20
58.881968249962867
 30
0.0
  0
VERTEX
  5
13C7
  8
SAPA_FOGBAND
 10
36.601234776645128
 20
55.796034713186813
 30
0.0
 42
-0.9695372397405709
  0
VERTEX
  5
13C8
  8
SAPA_FOGBAND
 10
33.019702983859631
 20
55.796034713186813
 30
0.0
  0
VERTEX
  5
13C9
  8
SAPA_FOGBAND
 10
33.019702983859631
 20
58.881968249962867
 30
0.0
 42
-0.9063837695480113
  0
SEQEND
  5
13CA
  8
SAPA_FOGBAND
  0
POLYLINE
  5
CA9
  8
SAPA_FOGBAND
 66
     1
 10
0.0
 20
0.0
 30
0.0
 70
     1
  0
VERTEX
  5
13CB
  8
SAPA_FOGBAND
 10
34.089637242760972
 20
68.163988951399219
 30
0.0
  0
VERTEX
  5
13CC
  8
SAPA_FOGBAND
 10
34.089637242760972
 20
68.163988951399219
 30
0.0
 42
0.611149385816862
  0
VERTEX
  5
13CD
  8
SAPA_FOGBAND
 10
32.209395113395878
 20
68.132237784334492
 30
0.0
  0
VERTEX
  5
13CE
  8
SAPA_FOGBAND
 10
31.64355320114144
 20
64.141575007418325
 30
0.0
 42
0.4464785874932439
  0
VERTEX
  5
13CF
  8
SAPA_FOGBAND
 10
32.637630506247348
 20
63.032899750467529
 30
0.0
  0
VERTEX
  5
13D0
  8
SAPA_FOGBAND
 10
35.660941831112062
 20
63.032899750467529
 30
0.0
 42
0.622676997742357
  0
VERTEX
  5
13D1
  8
SAPA_FOGBAND
 10
36.452823559275508
 20
64.643574237081154
 30
0.0
  0
VERTEX
  5
13D2
  8
SAPA_FOGBAND
 10
34.089637242760972
 20
68.163988951399219
 30
0.0
 42
0.232531183213058
  0
SEQEND
  5
13D3
  8
SAPA_FOGBAND
  0
POLYLINE
  5
CAA
  8
SAPA_FOGBAND
 66
     1
 10
0.0
 20
0.0
 30
0.0
 70
     1
  0
VERTEX
  5
13D4
  8
SAPA_FOGBAND
 10
42.542660193527013
 20
57.332899750467547
 30
0.0
  0
VERTEX
  5
13D5
  8
SAPA_FOGBAND
 10
42.610120102837413
 20
57.584663559488021
 30
0.0
 42
-0.4740571810232144
  0
VERTEX
  5
13D6
  8
SAPA_FOGBAND
 10
42.892402688476061
 20
57.711957421851629
 30
0.0
  0
VERTEX
  5
13D7
  8
SAPA_FOGBAND
 10
44.338608825235951
 20
57.09185691909304
 30
0.0
 42
-0.2846003776496053
  0
VERTEX
  5
13D8
  8
SAPA_FOGBAND
 10
44.615865274283919
 20
56.644212740632881
 30
0.0
  0
VERTEX
  5
13D9
  8
SAPA_FOGBAND
 10
44.615865274283919
 20
55.02158676030227
 30
0.0
 42
-0.2846003776496027
  0
VERTEX
  5
13DA
  8
SAPA_FOGBAND
 10
44.338608825235951
 20
54.573942581842097
 30
0.0
  0
VERTEX
  5
13DB
  8
SAPA_FOGBAND
 10
42.892402688476011
 20
53.953842079083508
 30
0.0
 42
-0.4740571810232332
  0
VERTEX
  5
13DC
  8
SAPA_FOGBAND
 10
42.610120102837413
 20
54.081135941447073
 30
0.0
  0
VERTEX
  5
13DD
  8
SAPA_FOGBAND
 10
42.542660193527013
 20
54.33289975046754
 30
0.0
  0
VERTEX
  5
13DE
  8
SAPA_FOGBAND
 10
41.601234776645121
 20
54.33289975046754
 30
0.0
 42
0.4142135623730951
  0
VERTEX
  5
13DF
  8
SAPA_FOGBAND
 10
41.101234776645128
 20
53.83289975046754
 30
0.0
  0
VERTEX
  5
13E0
  8
SAPA_FOGBAND
 10
41.101234776645072
 20
51.320739587086088
 30
0.0
 42
-0.4027293761437467
  0
VERTEX
  5
13E1
  8
SAPA_FOGBAND
 10
40.813042139175757
 20
51.020972033488228
 30
0.0
  0
VERTEX
  5
13E2
  8
SAPA_FOGBAND
 10
30.41304213917573
 20
50.533132218818807
 30
0.0
 42
-0.4257917699693538
  0
VERTEX
  5
13E3
  8
SAPA_FOGBAND
 10
30.101234776645072
 20
50.83289977241666
 30
0.0
  0
VERTEX
  5
13E4
  8
SAPA_FOGBAND
 10
30.101234776645079
 20
64.538433431640541
 30
0.0
  0
VERTEX
  5
13E5
  8
SAPA_FOGBAND
 10
30.8777696943277
 20
70.141575029367417
 30
0.0
 42
-0.322530093016903
  0
VERTEX
  5
13E6
  8
SAPA_FOGBAND
 10
31.871846999433679
 20
70.832899772416681
 30
0.0
  0
VERTEX
  5
13E7
  8
SAPA_FOGBAND
 10
34.102590555871252
 20
70.832899772416681
 30
0.0
 42
-0.2325311832130604
  0
VERTEX
  5
13E8
  8
SAPA_FOGBAND
 10
34.498531419953061
 20
70.638237015723462
 30
0.0
  0
VERTEX
  5
13E9
  8
SAPA_FOGBAND
 10
40.893116504808567
 20
61.471673787815952
 30
0.0
 42
-0.1657205760184606
  0
VERTEX
  5
13EA
  8
SAPA_FOGBAND
 10
41.101234776645128
 20
60.860999301202341
 30
0.0
  0
VERTEX
  5
13EB
  8
SAPA_FOGBAND
 10
41.101234776645128
 20
57.832899750467547
 30
0.0
 42
0.4142135623730951
  0
VERTEX
  5
13EC
  8
SAPA_FOGBAND
 10
41.601234776645121
 20
57.332899750467547
 30
0.0
  0
SEQEND
  5
13ED
  8
SAPA_FOGBAND
  0
POLYLINE
  5
CAB
  8
SAPA_FOGBAND
 66
     1
 10
0.0
 20
0.0
 30
0.0
 70
     1
  0
VERTEX
  5
13EE
  8
SAPA_FOGBAND
 10
86.362852063174515
 20
99.131597534545435
 30
0.0
  0
VERTEX
  5
13EF
  8
SAPA_FOGBAND
 10
86.362852063174515
 20
91.831597534545253
 30
0.0
 42
0.4142135623730951
  0
VERTEX
  5
13F0
  8
SAPA_FOGBAND
 10
86.862852063174515
 20
91.331597534545267
 30
0.0
  0
VERTEX
  5
13F1
  8
SAPA_FOGBAND
 10
87.162852063174469
 20
91.331597534545267
 30
0.0
  0
VERTEX
  5
13F2
  8
SAPA_FOGBAND
 10
87.162852063174242
 20
94.031597534544943
 30
0.0
 42
-0.414213562373117
  0
VERTEX
  5
13F3
  8
SAPA_FOGBAND
 10
87.662852063174256
 20
94.531597534544957
 30
0.0
  0
VERTEX
  5
13F4
  8
SAPA_FOGBAND
 10
88.389646982417517
 20
94.531597534544957
 30
0.0
  0
VERTEX
  5
13F5
  8
SAPA_FOGBAND
 10
88.457106891727861
 20
94.279833725524867
 30
0.0
 42
0.4740571810233732
  0
VERTEX
  5
13F6
  8
SAPA_FOGBAND
 10
88.739389477366444
 20
94.152539863161437
 30
0.0
  0
VERTEX
  5
13F7
  8
SAPA_FOGBAND
 10
90.185595614126285
 20
94.772640365919159
 30
0.0
 42
0.2846003776494633
  0
VERTEX
  5
13F8
  8
SAPA_FOGBAND
 10
90.462852063174424
 20
95.220284544379837
 30
0.0
  0
VERTEX
  5
13F9
  8
SAPA_FOGBAND
 10
90.462852063174424
 20
96.842910524710973
 30
0.0
 42
0.2846003776496146
  0
VERTEX
  5
13FA
  8
SAPA_FOGBAND
 10
90.185595614126512
 20
97.290554703170855
 30
0.0
  0
VERTEX
  5
13FB
  8
SAPA_FOGBAND
 10
88.739389477366402
 20
97.910655205928705
 30
0.0
 42
0.4740571810233364
  0
VERTEX
  5
13FC
  8
SAPA_FOGBAND
 10
88.457106891727861
 20
97.783361343565275
 30
0.0
  0
VERTEX
  5
13FD
  8
SAPA_FOGBAND
 10
88.389646982417517
 20
97.531597534544971
 30
0.0
  0
VERTEX
  5
13FE
  8
SAPA_FOGBAND
 10
87.662852063174256
 20
97.531597534544971
 30
0.0
 42
-0.4142135623731218
  0
VERTEX
  5
13FF
  8
SAPA_FOGBAND
 10
87.162852063174242
 20
98.031597534545085
 30
0.0
  0
VERTEX
  5
1400
  8
SAPA_FOGBAND
 10
87.162852063174427
 20
99.631597534544525
 30
0.0
  0
VERTEX
  5
1401
  8
SAPA_FOGBAND
 10
86.862852063176035
 20
99.631597534545435
 30
0.0
 42
0.4142135623739815
  0
SEQEND
  5
1402
  8
SAPA_FOGBAND
  0
POLYLINE
  5
CAC
  8
SAPA_FOGBAND
 10
80.549638730557348
 20
98.094844668382152
 30
0.0
 66
     1
 70
     8
  0
VERTEX
  8
SAPA_FOGBAND
  5
146A
 10
80.5496
 20
98.0948
 30
0.000000
  70
    32
  0
VERTEX
  8
SAPA_FOGBAND
  5
146B
 10
80.4335
 20
98.0897
 30
0.000000
  70
    32
  0
VERTEX
  8
SAPA_FOGBAND
  5
146C
 10
80.3177
 20
98.0767
 30
0.000000
  70
    32
  0
VERTEX
  8
SAPA_FOGBAND
  5
146D
 10
80.2025
 20
98.0557
 30
0.000000
  70
    32
  0
VERTEX
  8
SAPA_FOGBAND
  5
146E
 10
80.0882
 20
98.0269
 30
0.000000
  70
    32
  0
VERTEX
  8
SAPA_FOGBAND
  5
146F
 10
79.9752
 20
97.9903
 30
0.000000
  70
    32
  0
VERTEX
  8
SAPA_FOGBAND
  5
1470
 10
79.8636
 20
97.9460
 30
0.000000
  70
    32
  0
VERTEX
  8
SAPA_FOGBAND
  5
1471
 10
79.7537
 20
97.8941
 30
0.000000
  70
    32
  0
VERTEX
  8
SAPA_FOGBAND
  5
1472
 10
79.6458
 20
97.8348
 30
0.000000
  70
    32
  0
VERTEX
  8
SAPA_FOGBAND
  5
1473
 10
79.5402
 20
97.7681
 30
0.000000
  70
    32
  0
VERTEX
  8
SAPA_FOGBAND
  5
1474
 10
79.4371
 20
97.6943
 30
0.000000
  70
    32
  0
VERTEX
  8
SAPA_FOGBAND
  5
1475
 10
79.3367
 20
97.6135
 30
0.000000
  70
    32
  0
VERTEX
  8
SAPA_FOGBAND
  5
1476
 10
79.2394
 20
97.5259
 30
0.000000
  70
    32
  0
VERTEX
  8
SAPA_FOGBAND
  5
1477
 10
79.1453
 20
97.4317
 30
0.000000
  70
    32
  0
VERTEX
  8
SAPA_FOGBAND
  5
1478
 10
79.0546
 20
97.3312
 30
0.000000
  70
    32
  0
VERTEX
  8
SAPA_FOGBAND
  5
1479
 10
78.9677
 20
97.2246
 30
0.000000
  70
    32
  0
VERTEX
  8
SAPA_FOGBAND
  5
147A
 10
78.8846
 20
97.1121
 30
0.000000
  70
    32
  0
VERTEX
  8
SAPA_FOGBAND
  5
147B
 10
78.8056
 20
96.9941
 30
0.000000
  70
    32
  0
VERTEX
  8
SAPA_FOGBAND
  5
147C
 10
78.7309
 20
96.8708
 30
0.000000
  70
    32
  0
VERTEX
  8
SAPA_FOGBAND
  5
147D
 10
78.6607
 20
96.7424
 30
0.000000
  70
    32
  0
VERTEX
  8
SAPA_FOGBAND
  5
147E
 10
78.5950
 20
96.6094
 30
0.000000
  70
    32
  0
VERTEX
  8
SAPA_FOGBAND
  5
147F
 10
78.5342
 20
96.4720
 30
0.000000
  70
    32
  0
VERTEX
  8
SAPA_FOGBAND
  5
1480
 10
78.4783
 20
96.3306
 30
0.000000
  70
    32
  0
VERTEX
  8
SAPA_FOGBAND
  5
1481
 10
78.4275
 20
96.1855
 30
0.000000
  70
    32
  0
VERTEX
  8
SAPA_FOGBAND
  5
1482
 10
78.3819
 20
96.0370
 30
0.000000
  70
    32
  0
VERTEX
  8
SAPA_FOGBAND
  5
1483
 10
78.3415
 20
95.8855
 30
0.000000
  70
    32
  0
VERTEX
  8
SAPA_FOGBAND
  5
1484
 10
78.3066
 20
95.7315
 30
0.000000
  70
    32
  0
VERTEX
  8
SAPA_FOGBAND
  5
1485
 10
78.2771
 20
95.5751
 30
0.000000
  70
    32
  0
VERTEX
  8
SAPA_FOGBAND
  5
1486
 10
78.2532
 20
95.4169
 30
0.000000
  70
    32
  0
VERTEX
  8
SAPA_FOGBAND
  5
1487
 10
78.2350
 20
95.2572
 30
0.000000
  70
    32
  0
VERTEX
  8
SAPA_FOGBAND
  5
1488
 10
78.2223
 20
95.0964
 30
0.000000
  70
    32
  0
VERTEX
  8
SAPA_FOGBAND
  5
1489
 10
78.2154
 20
94.9349
 30
0.000000
  70
    32
  0
VERTEX
  8
SAPA_FOGBAND
  5
148A
 10
78.2141
 20
94.7730
 30
0.000000
  70
    32
  0
VERTEX
  8
SAPA_FOGBAND
  5
148B
 10
78.2186
 20
94.6112
 30
0.000000
  70
    32
  0
VERTEX
  8
SAPA_FOGBAND
  5
148C
 10
78.2288
 20
94.4498
 30
0.000000
  70
    32
  0
VERTEX
  8
SAPA_FOGBAND
  5
148D
 10
78.2446
 20
94.2893
 30
0.000000
  70
    32
  0
VERTEX
  8
SAPA_FOGBAND
  5
148E
 10
78.2661
 20
94.1300
 30
0.000000
  70
    32
  0
VERTEX
  8
SAPA_FOGBAND
  5
148F
 10
78.2931
 20
93.9723
 30
0.000000
  70
    32
  0
VERTEX
  8
SAPA_FOGBAND
  5
1490
 10
78.3257
 20
93.8166
 30
0.000000
  70
    32
  0
VERTEX
  8
SAPA_FOGBAND
  5
1491
 10
78.3636
 20
93.6632
 30
0.000000
  70
    32
  0
VERTEX
  8
SAPA_FOGBAND
  5
1492
 10
78.4070
 20
93.5126
 30
0.000000
  70
    32
  0
VERTEX
  8
SAPA_FOGBAND
  5
1493
 10
78.4556
 20
93.3651
 30
0.000000
  70
    32
  0
VERTEX
  8
SAPA_FOGBAND
  5
1494
 10
78.5093
 20
93.2210
 30
0.000000
  70
    32
  0
VERTEX
  8
SAPA_FOGBAND
  5
1495
 10
78.5680
 20
93.0807
 30
0.000000
  70
    32
  0
VERTEX
  8
SAPA_FOGBAND
  5
1496
 10
78.6315
 20
92.9446
 30
0.000000
  70
    32
  0
VERTEX
  8
SAPA_FOGBAND
  5
1497
 10
78.6998
 20
92.8129
 30
0.000000
  70
    32
  0
VERTEX
  8
SAPA_FOGBAND
  5
1498
 10
78.7726
 20
92.6860
 30
0.000000
  70
    32
  0
VERTEX
  8
SAPA_FOGBAND
  5
1499
 10
78.8497
 20
92.5641
 30
0.000000
  70
    32
  0
VERTEX
  8
SAPA_FOGBAND
  5
149A
 10
78.9310
 20
92.4477
 30
0.000000
  70
    32
  0
VERTEX
  8
SAPA_FOGBAND
  5
149B
 10
79.0163
 20
92.3369
 30
0.000000
  70
    32
  0
VERTEX
  8
SAPA_FOGBAND
  5
149C
 10
79.1054
 20
92.2320
 30
0.000000
  70
    32
  0
VERTEX
  8
SAPA_FOGBAND
  5
149D
 10
79.1980
 20
92.1333
 30
0.000000
  70
    32
  0
VERTEX
  8
SAPA_FOGBAND
  5
149E
 10
79.2940
 20
92.0411
 30
0.000000
  70
    32
  0
VERTEX
  8
SAPA_FOGBAND
  5
149F
 10
79.3931
 20
91.9554
 30
0.000000
  70
    32
  0
VERTEX
  8
SAPA_FOGBAND
  5
14A0
 10
79.4950
 20
91.8767
 30
0.000000
  70
    32
  0
VERTEX
  8
SAPA_FOGBAND
  5
14A1
 10
79.5996
 20
91.8049
 30
0.000000
  70
    32
  0
VERTEX
  8
SAPA_FOGBAND
  5
14A2
 10
79.7065
 20
91.7404
 30
0.000000
  70
    32
  0
VERTEX
  8
SAPA_FOGBAND
  5
14A3
 10
79.8155
 20
91.6832
 30
0.000000
  70
    32
  0
VERTEX
  8
SAPA_FOGBAND
  5
14A4
 10
79.9264
 20
91.6335
 30
0.000000
  70
    32
  0
VERTEX
  8
SAPA_FOGBAND
  5
14A5
 10
80.0389
 20
91.5914
 30
0.000000
  70
    32
  0
VERTEX
  8
SAPA_FOGBAND
  5
14A6
 10
80.1526
 20
91.5571
 30
0.000000
  70
    32
  0
VERTEX
  8
SAPA_FOGBAND
  5
14A7
 10
80.2674
 20
91.5305
 30
0.000000
  70
    32
  0
VERTEX
  8
SAPA_FOGBAND
  5
14A8
 10
80.3830
 20
91.5119
 30
0.000000
  70
    32
  0
VERTEX
  8
SAPA_FOGBAND
  5
14A9
 10
80.4990
 20
91.5011
 30
0.000000
  70
    32
  0
VERTEX
  8
SAPA_FOGBAND
  5
14AA
 10
80.6153
 20
91.4983
 30
0.000000
  70
    32
  0
VERTEX
  8
SAPA_FOGBAND
  5
14AB
 10
80.7315
 20
91.5034
 30
0.000000
  70
    32
  0
VERTEX
  8
SAPA_FOGBAND
  5
14AC
 10
80.8473
 20
91.5165
 30
0.000000
  70
    32
  0
VERTEX
  8
SAPA_FOGBAND
  5
14AD
 10
80.9624
 20
91.5375
 30
0.000000
  70
    32
  0
VERTEX
  8
SAPA_FOGBAND
  5
14AE
 10
81.0767
 20
91.5663
 30
0.000000
  70
    32
  0
VERTEX
  8
SAPA_FOGBAND
  5
14AF
 10
81.1898
 20
91.6029
 30
0.000000
  70
    32
  0
VERTEX
  8
SAPA_FOGBAND
  5
14B0
 10
81.3014
 20
91.6472
 30
0.000000
  70
    32
  0
VERTEX
  8
SAPA_FOGBAND
  5
14B1
 10
81.4112
 20
91.6991
 30
0.000000
  70
    32
  0
VERTEX
  8
SAPA_FOGBAND
  5
14B2
 10
81.5191
 20
91.7584
 30
0.000000
  70
    32
  0
VERTEX
  8
SAPA_FOGBAND
  5
14B3
 10
81.6247
 20
91.8251
 30
0.000000
  70
    32
  0
VERTEX
  8
SAPA_FOGBAND
  5
14B4
 10
81.7278
 20
91.8989
 30
0.000000
  70
    32
  0
VERTEX
  8
SAPA_FOGBAND
  5
14B5
 10
81.8282
 20
91.9797
 30
0.000000
  70
    32
  0
VERTEX
  8
SAPA_FOGBAND
  5
14B6
 10
81.9255
 20
92.0673
 30
0.000000
  70
    32
  0
VERTEX
  8
SAPA_FOGBAND
  5
14B7
 10
82.0196
 20
92.1614
 30
0.000000
  70
    32
  0
VERTEX
  8
SAPA_FOGBAND
  5
14B8
 10
82.1103
 20
92.2619
 30
0.000000
  70
    32
  0
VERTEX
  8
SAPA_FOGBAND
  5
14B9
 10
82.1973
 20
92.3686
 30
0.000000
  70
    32
  0
VERTEX
  8
SAPA_FOGBAND
  5
14BA
 10
82.2803
 20
92.4810
 30
0.000000
  70
    32
  0
VERTEX
  8
SAPA_FOGBAND
  5
14BB
 10
82.3593
 20
92.5991
 30
0.000000
  70
    32
  0
VERTEX
  8
SAPA_FOGBAND
  5
14BC
 10
82.4340
 20
92.7224
 30
0.000000
  70
    32
  0
VERTEX
  8
SAPA_FOGBAND
  5
14BD
 10
82.5043
 20
92.8507
 30
0.000000
  70
    32
  0
VERTEX
  8
SAPA_FOGBAND
  5
14BE
 10
82.5699
 20
92.9838
 30
0.000000
  70
    32
  0
VERTEX
  8
SAPA_FOGBAND
  5
14BF
 10
82.6307
 20
93.1211
 30
0.000000
  70
    32
  0
VERTEX
  8
SAPA_FOGBAND
  5
14C0
 10
82.6866
 20
93.2626
 30
0.000000
  70
    32
  0
VERTEX
  8
SAPA_FOGBAND
  5
14C1
 10
82.7374
 20
93.4077
 30
0.000000
  70
    32
  0
VERTEX
  8
SAPA_FOGBAND
  5
14C2
 10
82.7831
 20
93.5562
 30
0.000000
  70
    32
  0
VERTEX
  8
SAPA_FOGBAND
  5
14C3
 10
82.8234
 20
93.7076
 30
0.000000
  70
    32
  0
VERTEX
  8
SAPA_FOGBAND
  5
14C4
 10
82.8583
 20
93.8617
 30
0.000000
  70
    32
  0
VERTEX
  8
SAPA_FOGBAND
  5
14C5
 10
82.8878
 20
94.0180
 30
0.000000
  70
    32
  0
VERTEX
  8
SAPA_FOGBAND
  5
14C6
 10
82.9117
 20
94.1762
 30
0.000000
  70
    32
  0
VERTEX
  8
SAPA_FOGBAND
  5
14C7
 10
82.9300
 20
94.3359
 30
0.000000
  70
    32
  0
VERTEX
  8
SAPA_FOGBAND
  5
14C8
 10
82.9426
 20
94.4967
 30
0.000000
  70
    32
  0
VERTEX
  8
SAPA_FOGBAND
  5
14C9
 10
82.9495
 20
94.6583
 30
0.000000
  70
    32
  0
VERTEX
  8
SAPA_FOGBAND
  5
14CA
 10
82.9508
 20
94.8201
 30
0.000000
  70
    32
  0
VERTEX
  8
SAPA_FOGBAND
  5
14CB
 10
82.9463
 20
94.9820
 30
0.000000
  70
    32
  0
VERTEX
  8
SAPA_FOGBAND
  5
14CC
 10
82.9362
 20
95.1433
 30
0.000000
  70
    32
  0
VERTEX
  8
SAPA_FOGBAND
  5
14CD
 10
82.9203
 20
95.3039
 30
0.000000
  70
    32
  0
VERTEX
  8
SAPA_FOGBAND
  5
14CE
 10
82.8989
 20
95.4632
 30
0.000000
  70
    32
  0
VERTEX
  8
SAPA_FOGBAND
  5
14CF
 10
82.8718
 20
95.6209
 30
0.000000
  70
    32
  0
VERTEX
  8
SAPA_FOGBAND
  5
14D0
 10
82.8393
 20
95.7766
 30
0.000000
  70
    32
  0
VERTEX
  8
SAPA_FOGBAND
  5
14D1
 10
82.8013
 20
95.9299
 30
0.000000
  70
    32
  0
VERTEX
  8
SAPA_FOGBAND
  5
14D2
 10
82.7579
 20
96.0805
 30
0.000000
  70
    32
  0
VERTEX
  8
SAPA_FOGBAND
  5
14D3
 10
82.7094
 20
96.2281
 30
0.000000
  70
    32
  0
VERTEX
  8
SAPA_FOGBAND
  5
14D4
 10
82.6557
 20
96.3722
 30
0.000000
  70
    32
  0
VERTEX
  8
SAPA_FOGBAND
  5
14D5
 10
82.5970
 20
96.5124
 30
0.000000
  70
    32
  0
VERTEX
  8
SAPA_FOGBAND
  5
14D6
 10
82.5334
 20
96.6486
 30
0.000000
  70
    32
  0
VERTEX
  8
SAPA_FOGBAND
  5
14D7
 10
82.4652
 20
96.7803
 30
0.000000
  70
    32
  0
VERTEX
  8
SAPA_FOGBAND
  5
14D8
 10
82.3924
 20
96.9072
 30
0.000000
  70
    32
  0
VERTEX
  8
SAPA_FOGBAND
  5
14D9
 10
82.3152
 20
97.0290
 30
0.000000
  70
    32
  0
VERTEX
  8
SAPA_FOGBAND
  5
14DA
 10
82.2339
 20
97.1455
 30
0.000000
  70
    32
  0
VERTEX
  8
SAPA_FOGBAND
  5
14DB
 10
82.1486
 20
97.2563
 30
0.000000
  70
    32
  0
VERTEX
  8
SAPA_FOGBAND
  5
14DC
 10
82.0595
 20
97.3611
 30
0.000000
  70
    32
  0
VERTEX
  8
SAPA_FOGBAND
  5
14DD
 10
81.9669
 20
97.4598
 30
0.000000
  70
    32
  0
VERTEX
  8
SAPA_FOGBAND
  5
14DE
 10
81.8709
 20
97.5521
 30
0.000000
  70
    32
  0
VERTEX
  8
SAPA_FOGBAND
  5
14DF
 10
81.7719
 20
97.6377
 30
0.000000
  70
    32
  0
VERTEX
  8
SAPA_FOGBAND
  5
14E0
 10
81.6699
 20
97.7165
 30
0.000000
  70
    32
  0
VERTEX
  8
SAPA_FOGBAND
  5
14E1
 10
81.5654
 20
97.7883
 30
0.000000
  70
    32
  0
VERTEX
  8
SAPA_FOGBAND
  5
14E2
 10
81.4585
 20
97.8528
 30
0.000000
  70
    32
  0
VERTEX
  8
SAPA_FOGBAND
  5
14E3
 10
81.3494
 20
97.9100
 30
0.000000
  70
    32
  0
VERTEX
  8
SAPA_FOGBAND
  5
14E4
 10
81.2385
 20
97.9597
 30
0.000000
  70
    32
  0
VERTEX
  8
SAPA_FOGBAND
  5
14E5
 10
81.1261
 20
98.0017
 30
0.000000
  70
    32
  0
VERTEX
  8
SAPA_FOGBAND
  5
14E6
 10
81.0123
 20
98.0361
 30
0.000000
  70
    32
  0
VERTEX
  8
SAPA_FOGBAND
  5
14E7
 10
80.8975
 20
98.0626
 30
0.000000
  70
    32
  0
VERTEX
  8
SAPA_FOGBAND
  5
14E8
 10
80.7819
 20
98.0813
 30
0.000000
  70
    32
  0
VERTEX
  8
SAPA_FOGBAND
  5
14E9
 10
80.6659
 20
98.0920
 30
0.000000
  70
    32
  0
VERTEX
  8
SAPA_FOGBAND
  5
14EA
 10
80.5496
 20
98.0948
 30
0.000000
  70
    32
  0
SEQEND
  8
SAPA_FOGBAND
  5
14EB
  0
POLYLINE
  5
CAD
  8
SAPA_FOGBAND
 66
     1
 10
0.0
 20
0.0
 30
0.0
 70
     1
  0
VERTEX
  5
1403
  8
SAPA_FOGBAND
 10
76.349486565265479
 20
84.721595115025025
 30
0.0
  0
VERTEX
  5
1404
  8
SAPA_FOGBAND
 10
75.85753422537546
 20
87.722922277594407
 30
0.0
 42
-0.4464785874932524
  0
VERTEX
  5
1405
  8
SAPA_FOGBAND
 10
76.851611530481378
 20
88.831597534545267
 30
0.0
  0
VERTEX
  5
1406
  8
SAPA_FOGBAND
 10
82.312704316584487
 20
88.831597534545267
 30
0.0
 42
-0.6226769977423571
  0
VERTEX
  5
1407
  8
SAPA_FOGBAND
 10
83.104586044747876
 20
87.220923047931464
 30
0.0
  0
VERTEX
  5
1408
  8
SAPA_FOGBAND
 10
80.629550722230874
 20
84.219595885362068
 30
0.0
 42
-0.232531183213058
  0
VERTEX
  5
1409
  8
SAPA_FOGBAND
 10
79.837668994067272
 20
83.830270371975857
 30
0.0
  0
VERTEX
  5
140A
  8
SAPA_FOGBAND
 10
77.343563870371227
 20
83.830270371975857
 30
0.0
 42
-0.3826682380870913
  0
SEQEND
  5
140B
  8
SAPA_FOGBAND
  0
POLYLINE
  5
CAE
  8
SAPA_FOGBAND
 66
     1
 10
0.0
 20
0.0
 30
0.0
 70
     1
  0
VERTEX
  5
140C
  8
SAPA_FOGBAND
 10
88.862852063174287
 20
95.131597534545435
 30
0.0
  0
VERTEX
  5
140D
  8
SAPA_FOGBAND
 10
88.262852063174378
 20
95.131597534545435
 30
0.0
 42
-0.9999999999999998
  0
VERTEX
  5
140E
  8
SAPA_FOGBAND
 10
88.262852063174378
 20
96.931597534545617
 30
0.0
  0
VERTEX
  5
140F
  8
SAPA_FOGBAND
 10
88.862852063174287
 20
96.931597534545617
 30
0.0
 42
-0.9999999999999998
  0
SEQEND
  5
1410
  8
SAPA_FOGBAND
  0
POLYLINE
  5
CAF
  8
SAPA_FOGBAND
 66
     1
 10
0.0
 20
0.0
 30
0.0
  0
VERTEX
  5
1411
  8
SAPA_FOGBAND
 10
87.162852063174469
 20
91.331597534545267
 30
0.0
  0
VERTEX
  5
1412
  8
SAPA_FOGBAND
 10
87.162852063174469
 20
91.003497983810433
 30
0.0
 42
-0.1657205760184635
  0
VERTEX
  5
1413
  8
SAPA_FOGBAND
 10
86.954733791337844
 20
90.392823497196545
 30
0.0
  0
VERTEX
  5
1414
  8
SAPA_FOGBAND
 10
81.560148706481996
 20
81.024933106720127
 30
0.0
 42
-0.2325311832130381
  0
VERTEX
  5
1415
  8
SAPA_FOGBAND
 10
81.164207842400074
 20
80.830270350026112
 30
0.0
  0
VERTEX
  5
1416
  8
SAPA_FOGBAND
 10
70.312852060758317
 20
80.831477852687144
 30
0.0
 42
-0.5543163197794524
  0
VERTEX
  5
1417
  8
SAPA_FOGBAND
 10
69.318774755652569
 20
82.757423408209647
 30
0.0
  0
VERTEX
  5
1418
  8
SAPA_FOGBAND
 10
74.162852063174014
 20
86.086374100916586
 30
0.0
  0
VERTEX
  5
1419
  8
SAPA_FOGBAND
 10
74.162852063174071
 20
101.03159751259621
 30
0.0
 42
-0.425791769969346
  0
VERTEX
  5
141A
  8
SAPA_FOGBAND
 10
74.474659425704786
 20
101.3313650661941
 30
0.0
  0
VERTEX
  5
141B
  8
SAPA_FOGBAND
 10
86.874659425705332
 20
100.84352525152489
 30
0.0
 42
-0.4027293761437539
  0
VERTEX
  5
141C
  8
SAPA_FOGBAND
 10
87.162852063174469
 20
100.54375769792691
 30
0.0
  0
VERTEX
  5
141D
  8
SAPA_FOGBAND
 10
87.16285206317913
 20
99.631597534544525
 30
0.0
  0
SEQEND
  5
141E
  8
SAPA_FOGBAND
  0
CIRCLE
  5
CB0
  8
SAPA_FOGBAND
 10
21.6343852068252
 20
94.459627145643594
 30
0.0
 40
0.2549509756796394
  0
POLYLINE
  5
CB1
  8
SAPA_FOGBAND
 66
     1
 10
0.0
 20
0.0
 30
0.0
 70
     1
  0
VERTEX
  5
141F
  8
SAPA_FOGBAND
 10
19.062852063174329
 20
93.559627145643503
 30
0.0
 42
0.9999999999999998
  0
VERTEX
  5
1420
  8
SAPA_FOGBAND
 10
19.062852063174329
 20
95.359627145643458
 30
0.0
  0
VERTEX
  5
1421
  8
SAPA_FOGBAND
 10
18.46285206317431
 20
95.359627145643458
 30
0.0
 42
0.9999999999999998
  0
VERTEX
  5
1422
  8
SAPA_FOGBAND
 10
18.462852063174299
 20
93.559627145643503
 30
0.0
  0
SEQEND
  5
1423
  8
SAPA_FOGBAND
  0
POLYLINE
  5
CB2
  8
SAPA_FOGBAND
 66
     1
 10
0.0
 20
0.0
 30
0.0
 70
     1
  0
VERTEX
  5
1424
  8
SAPA_FOGBAND
 10
22.498623358325531
 20
90.209627145643594
 30
0.0
  0
VERTEX
  5
1425
  8
SAPA_FOGBAND
 10
20.362852063174401
 20
90.209627145643367
 30
0.0
 42
-0.4142135623730951
  0
VERTEX
  5
1426
  8
SAPA_FOGBAND
 10
20.162852063174348
 20
90.409627145643427
 30
0.0
  0
VERTEX
  5
1427
  8
SAPA_FOGBAND
 10
20.162852063174348
 20
92.459627145643594
 30
0.0
 42
0.4142135623730951
  0
VERTEX
  5
1428
  8
SAPA_FOGBAND
 10
19.662852063174348
 20
92.959627145643594
 30
0.0
  0
VERTEX
  5
1429
  8
SAPA_FOGBAND
 10
18.93605714393119
 20
92.959627145643594
 30
0.0
  0
VERTEX
  5
142A
  8
SAPA_FOGBAND
 10
18.86859723462079
 20
92.707863336623049
 30
0.0
 42
-0.4740571810232154
  0
VERTEX
  5
142B
  8
SAPA_FOGBAND
 10
18.586314648982128
 20
92.580569474259505
 30
0.0
  0
VERTEX
  5
142C
  8
SAPA_FOGBAND
 10
17.140108512222358
 20
93.200669977018038
 30
0.0
 42
-0.2846003776496056
  0
VERTEX
  5
142D
  8
SAPA_FOGBAND
 10
16.862852063174401
 20
93.648314155478261
 30
0.0
  0
VERTEX
  5
142E
  8
SAPA_FOGBAND
 10
16.862852063174401
 20
95.270940135808686
 30
0.0
 42
-0.2846003776496054
  0
VERTEX
  5
142F
  8
SAPA_FOGBAND
 10
17.140108512222369
 20
95.718584314268924
 30
0.0
  0
VERTEX
  5
1430
  8
SAPA_FOGBAND
 10
18.586314648982139
 20
96.338684817027456
 30
0.0
 42
-0.4740571810232154
  0
VERTEX
  5
1431
  8
SAPA_FOGBAND
 10
18.86859723462079
 20
96.211390954663884
 30
0.0
  0
VERTEX
  5
1432
  8
SAPA_FOGBAND
 10
18.93605714393119
 20
95.959627145643594
 30
0.0
  0
VERTEX
  5
1433
  8
SAPA_FOGBAND
 10
19.662852063174348
 20
95.959627145643594
 30
0.0
 42
0.4142135623730951
  0
VERTEX
  5
1434
  8
SAPA_FOGBAND
 10
20.162852063174348
 20
96.459627145643594
 30
0.0
  0
VERTEX
  5
1435
  8
SAPA_FOGBAND
 10
20.162852063174348
 20
99.509627145643535
 30
0.0
 42
0.4142135623730951
  0
VERTEX
  5
1436
  8
SAPA_FOGBAND
 10
19.96285206317431
 20
99.709627145643594
 30
0.0
  0
VERTEX
  5
1437
  8
SAPA_FOGBAND
 10
19.062852063174329
 20
99.709627145643367
 30
0.0
 42
-0.4142135623730951
  0
VERTEX
  5
1438
  8
SAPA_FOGBAND
 10
18.862852063174401
 20
99.909627145643412
 30
0.0
  0
VERTEX
  5
1439
  8
SAPA_FOGBAND
 10
18.862852063174291
 20
100.6096271456434
 30
0.0
 42
-0.4142135623730951
  0
VERTEX
  5
143A
  8
SAPA_FOGBAND
 10
19.162852063174348
 20
100.9096271456434
 30
0.0
  0
VERTEX
  5
143B
  8
SAPA_FOGBAND
 10
19.97336383982589
 20
100.9096271456434
 30
0.0
 42
0.1316524975873982
  0
VERTEX
  5
143C
  8
SAPA_FOGBAND
 10
20.9733638398259
 20
101.1775763380746
 30
0.0
  0
VERTEX
  5
143D
  8
SAPA_FOGBAND
 10
23.608730758170068
 20
105.1482888751767
 30
0.0
 42
-0.876976462992761
  0
VERTEX
  5
143E
  8
SAPA_FOGBAND
 10
24.12607209428656
 20
105.0453832852664
 30
0.0
  0
VERTEX
  5
143F
  8
SAPA_FOGBAND
 10
23.57222729774232
 20
99.620721723394254
 30
0.0
 42
0.1353185728426623
  0
VERTEX
  5
1440
  8
SAPA_FOGBAND
 10
23.57222729774232
 20
99.620721723394254
 30
0.0
  0
VERTEX
  5
1441
  8
SAPA_FOGBAND
 10
23.984263990142509
 20
99.382832230565441
 30
0.0
 42
-0.5773502691896196
  0
VERTEX
  5
1442
  8
SAPA_FOGBAND
 10
23.984263990142509
 20
99.036422069051596
 30
0.0
  0
VERTEX
  5
1443
  8
SAPA_FOGBAND
 10
23.571953427580649
 20
98.798374452320687
 30
0.0
  0
VERTEX
  5
1444
  8
SAPA_FOGBAND
 10
23.571953427580649
 20
98.020879842404042
 30
0.0
  0
VERTEX
  5
1445
  8
SAPA_FOGBAND
 10
23.984263990142509
 20
97.782832230565305
 30
0.0
 42
-0.5773502691896196
  0
VERTEX
  5
1446
  8
SAPA_FOGBAND
 10
23.984263990142509
 20
97.436422069051673
 30
0.0
  0
VERTEX
  5
1447
  8
SAPA_FOGBAND
 10
23.571953427580649
 20
97.198374452320763
 30
0.0
  0
VERTEX
  5
1448
  8
SAPA_FOGBAND
 10
23.571953427580649
 20
96.420879842404133
 30
0.0
  0
VERTEX
  5
1449
  8
SAPA_FOGBAND
 10
23.984263990142509
 20
96.182832230565396
 30
0.0
 42
-0.5773502691896196
  0
VERTEX
  5
144A
  8
SAPA_FOGBAND
 10
23.984263990142509
 20
95.836422069051537
 30
0.0
  0
VERTEX
  5
144B
  8
SAPA_FOGBAND
 10
23.571953427580649
 20
95.598374452320854
 30
0.0
  0
VERTEX
  5
144C
  8
SAPA_FOGBAND
 10
23.571953427580649
 20
94.820879842403997
 30
0.0
  0
VERTEX
  5
144D
  8
SAPA_FOGBAND
 10
23.984263990142509
 20
94.582832230565486
 30
0.0
 42
-0.5773502691896196
  0
VERTEX
  5
144E
  8
SAPA_FOGBAND
 10
23.984263990142509
 20
94.236422069051613
 30
0.0
  0
VERTEX
  5
144F
  8
SAPA_FOGBAND
 10
23.571953427580649
 20
93.998374452320704
 30
0.0
  0
VERTEX
  5
1450
  8
SAPA_FOGBAND
 10
23.571953427580649
 20
93.220879842404088
 30
0.0
  0
VERTEX
  5
1451
  8
SAPA_FOGBAND
 10
23.984263990142509
 20
92.982832230565336
 30
0.0
 42
-0.5773502691896196
  0
VERTEX
  5
1452
  8
SAPA_FOGBAND
 10
23.984263990142509
 20
92.636422069051491
 30
0.0
  0
VERTEX
  5
1453
  8
SAPA_FOGBAND
 10
23.571953427580649
 20
92.398374452320809
 30
0.0
  0
VERTEX
  5
1454
  8
SAPA_FOGBAND
 10
23.571953427580649
 20
91.620879838239134
 30
0.0
  0
VERTEX
  5
1455
  8
SAPA_FOGBAND
 10
23.984263990142509
 20
91.38283222640041
 30
0.0
 42
-0.5773502691896196
  0
VERTEX
  5
1456
  8
SAPA_FOGBAND
 10
23.984263990142509
 20
91.036422064886565
 30
0.0
  0
VERTEX
  5
1457
  8
SAPA_FOGBAND
 10
22.59862335909623
 20
90.236422065331567
 30
0.0
 42
-0.1316524987190407
  0
SEQEND
  5
1458
  8
SAPA_FOGBAND
  0
INSERT
  5
CB3
  8
SAPA_FOGBAND
  6
CONTINUOUS
  2
*U36
 10
0.0
 20
0.0
 30
0.0
1001
ACAD
1002
{
1000
R14_HATCH_DATA
1000
CB3
1011
1.0
1021
0.0
1031
0.0
1021
0.0
1031
0.0
1011
0.0
1021
0.0
1031
0.0
1021
1.0
1031
0.0
1011
0.0
1021
0.0
1031
0.0
1021
0.0
1031
1.0
1040
0.0
1010
0.0
1020
0.0
1030
1.0
1000
SOLID
1070
     1
1070
     1
1071
        1
1071
        1
1071
        1
1070
     2
1040
21.6343852068252
1040
94.459627145643594
1040
0.2549509756796394
1040
-1.5707963267948959
1040
4.7123889803846888
1070
     1
1071
        1
1005
CB0
1070
     0
1070
     1
1071
        1
1040
21.716236704154099
1040
94.696366047213715
1040
0.0
1002
}
  0
VIEWPORT
  5
C4
 67
     1
  8
0
 10
160.5543545598442
 20
116.00969601843509
 30
0.0
 40
404.96977709277462
 41
256.8421457311839
 68
     1
 69
     1
1001
ACAD
1000
MVIEW
1002
{
1070
    16
1010
0.0
1020
0.0
1030
0.0
1010
0.0
1020
0.0
1030
1.0
1040
-1.5707963267948959
1040
256.8421457311839
1040
102.1562485694885
1040
-121.90624046325679
1040
50.0
1040
0.0
1040
0.0
1070
     0
1070
     0
1070
     1
1070
     1
1070
     0
1070
     0
1070
     0
1070
     0
1040
0.0
1040
0.0
1040
0.0
1040
10.0
1040
10.0
1040
10.0
1040
10.0
1070
     0
1002
{
1002
}
1002
}
  0
ENDSEC
  0
EOF
