  0
SECTION
  2
HEADER
  9
$ACADVER
  1
AC1009
  9
$INSBASE
 10
0.0
 20
0.0
 30
0.0
  9
$EXTMIN
 10
-146.2522071226137
 20
-47.778569118780347
 30
0.0
  9
$EXTMAX
 10
127.1237778085533
 20
55.347100144089609
 30
0.0
  9
$LIMMIN
 10
0.0
 20
0.0
  9
$LIMMAX
 10
790.0
 20
790.0
  9
$ORTHOMODE
 70
     1
  9
$REGENMODE
 70
     1
  9
$FILLMODE
 70
     1
  9
$QTEXTMODE
 70
     0
  9
$MIRRTEXT
 70
     1
  9
$DRAGMODE
 70
     2
  9
$LTSCALE
 40
4.0
  9
$OSMODE
 70
   167
  9
$ATTMODE
 70
     1
  9
$TEXTSIZE
 40
3.5
  9
$TRACEWID
 40
0.05
  9
$TEXTSTYLE
  7
ISO
  9
$CLAYER
  8
0
  9
$CELTYPE
  6
BYLAYER
  9
$CECOLOR
 62
   256
  9
$DIMSCALE
 40
0.0
  9
$DIMASZ
 40
3.0
  9
$DIMEXO
 40
1.5
  9
$DIMDLI
 40
10.0
  9
$DIMRND
 40
0.0
  9
$DIMDLE
 40
0.0
  9
$DIMEXE
 40
1.5
  9
$DIMTP
 40
0.0
  9
$DIMTM
 40
0.0
  9
$DIMTXT
 40
3.0
  9
$DIMCEN
 40
-5.0
  9
$DIMTSZ
 40
0.0
  9
$DIMTOL
 70
     0
  9
$DIMLIM
 70
     0
  9
$DIMTIH
 70
     0
  9
$DIMTOH
 70
     0
  9
$DIMSE1
 70
     0
  9
$DIMSE2
 70
     0
  9
$DIMTAD
 70
     1
  9
$DIMZIN
 70
     8
  9
$DIMBLK
  1

  9
$DIMASO
 70
     1
  9
$DIMSHO
 70
     1
  9
$DIMPOST
  1

  9
$DIMAPOST
  1

  9
$DIMALT
 70
     0
  9
$DIMALTD
 70
     0
  9
$DIMALTF
 40
25.399999999999999
  9
$DIMLFAC
 40
-1.0
  9
$DIMTOFL
 70
     1
  9
$DIMTVP
 40
0.0
  9
$DIMTIX
 70
     0
  9
$DIMSOXD
 70
     0
  9
$DIMSAH
 70
     0
  9
$DIMBLK1
  1

  9
$DIMBLK2
  1

  9
$DIMSTYLE
  2
MASKIN
  9
$DIMCLRD
 70
   256
  9
$DIMCLRE
 70
   256
  9
$DIMCLRT
 70
     2
  9
$DIMTFAC
 40
1.0
  9
$DIMGAP
 40
1.0
  9
$LUNITS
 70
     2
  9
$LUPREC
 70
     8
  9
$SKETCHINC
 40
0.1
  9
$FILLETRAD
 40
0.0
  9
$AUNITS
 70
     0
  9
$AUPREC
 70
     8
  9
$MENU
  1
ACAD
  9
$ELEVATION
 40
0.0
  9
$PELEVATION
 40
0.0
  9
$THICKNESS
 40
0.0
  9
$LIMCHECK
 70
     0
  9
$BLIPMODE
 70
     0
  9
$CHAMFERA
 40
0.0
  9
$CHAMFERB
 40
0.0
  9
$SKPOLY
 70
     0
  9
$TDCREATE
 40
2457435.6894872002
  9
$TDUPDATE
 40
2457498.3575756368
  9
$TDINDWG
 40
0.0919492014
  9
$TDUSRTIMER
 40
0.0919490856
  9
$USRTIMER
 70
     1
  9
$ANGBASE
 50
0.0
  9
$ANGDIR
 70
     0
  9
$PDMODE
 70
     0
  9
$PDSIZE
 40
0.0
  9
$PLINEWID
 40
0.0
  9
$COORDS
 70
     1
  9
$SPLFRAME
 70
     0
  9
$SPLINETYPE
 70
     6
  9
$SPLINESEGS
 70
     8
  9
$ATTDIA
 70
     0
  9
$ATTREQ
 70
     1
  9
$HANDLING
 70
     1
  9
$HANDSEED
  5
1700
  9
$SURFTAB1
 70
     6
  9
$SURFTAB2
 70
     6
  9
$SURFTYPE
 70
     6
  9
$SURFU
 70
     6
  9
$SURFV
 70
     6
  9
$UCSNAME
  2

  9
$UCSORG
 10
0.0
 20
0.0
 30
0.0
  9
$UCSXDIR
 10
1.0
 20
0.0
 30
0.0
  9
$UCSYDIR
 10
0.0
 20
1.0
 30
0.0
  9
$PUCSNAME
  2

  9
$PUCSORG
 10
0.0
 20
0.0
 30
0.0
  9
$PUCSXDIR
 10
1.0
 20
0.0
 30
0.0
  9
$PUCSYDIR
 10
0.0
 20
1.0
 30
0.0
  9
$USERI1
 70
     0
  9
$USERI2
 70
     0
  9
$USERI3
 70
     0
  9
$USERI4
 70
     0
  9
$USERI5
 70
     0
  9
$USERR1
 40
0.0
  9
$USERR2
 40
0.0
  9
$USERR3
 40
0.0
  9
$USERR4
 40
0.0
  9
$USERR5
 40
0.0
  9
$WORLDVIEW
 70
     1
  9
$SHADEDGE
 70
     3
  9
$SHADEDIF
 70
    70
  9
$TILEMODE
 70
     1
  9
$MAXACTVP
 70
    16
  9
$PLIMCHECK
 70
     0
  9
$PEXTMIN
 10
1.0000000000000000E+020
 20
1.0000000000000000E+020
 30
1.0000000000000000E+020
  9
$PEXTMAX
 10
-1.0000000000000000E+020
 20
-1.0000000000000000E+020
 30
-1.0000000000000000E+020
  9
$PLIMMIN
 10
-5.069427490234375
 20
-5.8737497329711914
  9
$PLIMMAX
 10
291.89889526367187
 20
204.0995779037475
  9
$UNITMODE
 70
     0
  9
$VISRETAIN
 70
     1
  9
$PLINEGEN
 70
     0
  9
$PSLTSCALE
 70
     1
  0
ENDSEC
  0
SECTION
  2
TABLES
  0
TABLE
  2
VPORT
 70
     1
  0
VPORT
  2
*ACTIVE
 70
     0
 10
0.0
 20
0.0
 11
1.0
 21
1.0
 12
-38.467185516585523
 22
98.840422704290745
 13
0.0
 23
0.0
 14
1.0
 24
1.0
 15
0.0
 25
0.0
 16
0.0
 26
0.0
 36
1.0
 17
0.0
 27
0.0
 37
0.0
 40
266.62031552681952
 41
1.9285714285714279
 42
50.0
 43
0.0
 44
0.0
 50
0.0
 51
0.0
 71
     0
 72
   100
 73
     1
 74
     1
 75
     0
 76
     0
 77
     0
 78
     0
  0
ENDTAB
  0
TABLE
  2
LTYPE
 70
    31
  0
LTYPE
  2
CONTINUOUS
 70
     0
  3
Solid line
 72
    65
 73
     0
 40
0.0
  0
LTYPE
  2
NEWDOT
 70
     0
  3
____ . ____ . ____ . ____ . ____ . ____ . ____
 72
    65
 73
     4
 40
2.0
 49
1.0
 49
-0.5
 49
0.0
 49
-0.5
  0
LTYPE
  2
DASHDOT
 70
     0
  3
__ . __ . __ . __ . __ . __ . __ . __ . __ . __
 72
    65
 73
     4
 40
1.0
 49
0.5
 49
-0.25
 49
0.0
 49
-0.25
  0
LTYPE
  2
DASHED
 70
     0
  3
__ __ __ __ __ __ __ __ __ __ __ __ __ __ __
 72
    65
 73
     2
 40
0.75
 49
0.5
 49
-0.25
  0
LTYPE
  2
PHANTOM
 70
     0
  3
Phantom ______  __  __  ______  __  __  ______
 72
    65
 73
     6
 40
63.5
 49
31.75
 49
-6.3499999999999988
 49
6.3499999999999988
 49
-6.3499999999999988
 49
6.3499999999999988
 49
-6.3499999999999988
  0
LTYPE
  2
BYGG-014279$0$NEWDOT
 70
     0
  3
____ . ____ . ____ . ____ . ____ . ____ . ____
 72
    65
 73
     4
 40
2.0
 49
1.0
 49
-0.5
 49
0.0
 49
-0.5
  0
LTYPE
  2
BYGG-014279$0$ZIGZAG
 70
     0
  3
Zig zag /\/\/\/\/\/\/\/\/\/\/\/\/\/\/\/\/\/\/\/\/\/\/\/
 72
    65
 73
     4
 40
20.32254
 49
0.00254
 49
-5.0800000000000001
 49
-10.16
 49
-5.0800000000000001
  0
LTYPE
  2
BYGG-01482301$0$NEWDOT
 70
     0
  3
____ . ____ . ____ . ____ . ____ . ____ . ____
 72
    65
 73
     4
 40
2.0
 49
1.0
 49
-0.5
 49
0.0
 49
-0.5
  0
LTYPE
  2
BYGG-01482301$0$ZIGZAG
 70
     0
  3
Zig zag /\/\/\/\/\/\/\/\/\/\/\/\/\/\/\/\/\/\/\/\/\/\/\/
 72
    65
 73
     4
 40
20.32254
 49
0.00254
 49
-5.0800000000000001
 49
-10.16
 49
-5.0800000000000001
  0
LTYPE
  2
BYGG-023714$0$NEWDOT
 70
     0
  3
____ . ____ . ____ . ____ . ____ . ____ . ____
 72
    65
 73
     4
 40
2.0
 49
1.0
 49
-0.5
 49
0.0
 49
-0.5
  0
LTYPE
  2
BYGG-023714$0$DASHDOT
 70
     0
  3
__ . __ . __ . __ . __ . __ . __ . __ . __ . __
 72
    65
 73
     4
 40
1.0
 49
0.5
 49
-0.25
 49
0.0
 49
-0.25
  0
LTYPE
  2
BYGG-023714$0$DASHED
 70
     0
  3
__ __ __ __ __ __ __ __ __ __ __ __ __ __ __
 72
    65
 73
     2
 40
0.75
 49
0.5
 49
-0.25
  0
LTYPE
  2
BYGG-023714$0$PHANTOM
 70
     0
  3
Phantom ______  __  __  ______  __  __  ______
 72
    65
 73
     6
 40
63.5
 49
31.75
 49
-6.3499999999999988
 49
6.3499999999999988
 49
-6.3499999999999988
 49
6.3499999999999988
 49
-6.3499999999999988
  0
LTYPE
  2
BYGG-023714$0$ZIGZAG
 70
     0
  3
Zig zag /\/\/\/\/\/\/\/\/\/\/\/\/\/\/\/\/\/\/\/\/\/\/\/
 72
    65
 73
     4
 40
20.32254
 49
0.00254
 49
-5.0800000000000001
 49
-10.16
 49
-5.0800000000000001
  0
LTYPE
  2
BYGG-021480$0$NEWDOT
 70
     0
  3
____ . ____ . ____ . ____ . ____ . ____ . ____
 72
    65
 73
     4
 40
2.0
 49
1.0
 49
-0.5
 49
0.0
 49
-0.5
  0
LTYPE
  2
BYGG-021480$0$DASHDOT
 70
     0
  3
__ . __ . __ . __ . __ . __ . __ . __ . __ . __
 72
    65
 73
     4
 40
1.0
 49
0.5
 49
-0.25
 49
0.0
 49
-0.25
  0
LTYPE
  2
BYGG-021480$0$DASHED
 70
     0
  3
__ __ __ __ __ __ __ __ __ __ __ __ __ __ __
 72
    65
 73
     2
 40
0.75
 49
0.5
 49
-0.25
  0
LTYPE
  2
BYGG-021480$0$PHANTOM
 70
     0
  3
Phantom ______  __  __  ______  __  __  ______
 72
    65
 73
     6
 40
63.5
 49
31.75
 49
-6.3499999999999988
 49
6.3499999999999988
 49
-6.3499999999999988
 49
6.3499999999999988
 49
-6.3499999999999988
  0
LTYPE
  2
BYGG-025115$0$NEWDOT
 70
     0
  3
____ . ____ . ____ . ____ . ____ . ____ . ____
 72
    65
 73
     4
 40
2.0
 49
1.0
 49
-0.5
 49
0.0
 49
-0.5
  0
LTYPE
  2
BYGG-025115$0$DASHDOT
 70
     0
  3
__ . __ . __ . __ . __ . __ . __ . __ . __ . __
 72
    65
 73
     4
 40
1.0
 49
0.5
 49
-0.25
 49
0.0
 49
-0.25
  0
LTYPE
  2
BYGG-025115$0$DASHED
 70
     0
  3
__ __ __ __ __ __ __ __ __ __ __ __ __ __ __
 72
    65
 73
     2
 40
0.75
 49
0.5
 49
-0.25
  0
LTYPE
  2
BYGG-025115$0$PHANTOM
 70
     0
  3
Phantom ______  __  __  ______  __  __  ______
 72
    65
 73
     6
 40
63.5
 49
31.75
 49
-6.3499999999999988
 49
6.3499999999999988
 49
-6.3499999999999988
 49
6.3499999999999988
 49
-6.3499999999999988
  0
LTYPE
  2
BYGG-020805$0$NEWDOT
 70
     0
  3
____ . ____ . ____ . ____ . ____ . ____ . ____
 72
    65
 73
     4
 40
2.0
 49
1.0
 49
-0.5
 49
0.0
 49
-0.5
  0
LTYPE
  2
BYGG-020805$0$DASHDOT
 70
     0
  3
__ . __ . __ . __ . __ . __ . __ . __ . __ . __
 72
    65
 73
     4
 40
1.0
 49
0.5
 49
-0.25
 49
0.0
 49
-0.25
  0
LTYPE
  2
BYGG-020805$0$DASHED
 70
     0
  3
__ __ __ __ __ __ __ __ __ __ __ __ __ __ __
 72
    65
 73
     2
 40
0.75
 49
0.5
 49
-0.25
  0
LTYPE
  2
BYGG-020805$0$PHANTOM
 70
     0
  3
Phantom ______  __  __  ______  __  __  ______
 72
    65
 73
     6
 40
63.5
 49
31.75
 49
-6.3499999999999988
 49
6.3499999999999988
 49
-6.3499999999999988
 49
6.3499999999999988
 49
-6.3499999999999988
  0
LTYPE
  2
BYGG-035302$0$NEWDOT
 70
     0
  3
____ . ____ . ____ . ____ . ____ . ____ . ____
 72
    65
 73
     4
 40
2.0
 49
1.0
 49
-0.5
 49
0.0
 49
-0.5
  0
LTYPE
  2
BYGG-035302$0$DASHDOT
 70
     0
  3
__ . __ . __ . __ . __ . __ . __ . __ . __ . __
 72
    65
 73
     4
 40
1.0
 49
0.5
 49
-0.25
 49
0.0
 49
-0.25
  0
LTYPE
  2
BYGG-035302$0$DASHED
 70
     0
  3
__ __ __ __ __ __ __ __ __ __ __ __ __ __ __
 72
    65
 73
     2
 40
0.75
 49
0.5
 49
-0.25
  0
LTYPE
  2
BYGG-035302$0$PHANTOM
 70
     0
  3
Phantom ______  __  __  ______  __  __  ______
 72
    65
 73
     6
 40
63.5
 49
31.75
 49
-6.3499999999999988
 49
6.3499999999999988
 49
-6.3499999999999988
 49
6.3499999999999988
 49
-6.3499999999999988
  0
LTYPE
  2
BYGG-014279$0$PHANTOM2
 70
     0
  3
Phantom (.5x) ___ _ _ ___ _ _ ___ _ _ ___ _ _
 72
    65
 73
     6
 40
1.25
 49
0.625
 49
-0.125
 49
0.125
 49
-0.125
 49
0.125
 49
-0.125
  0
ENDTAB
  0
TABLE
  2
LAYER
 70
   183
  0
LAYER
  2
0
 70
     0
 62
     7
  6
CONTINUOUS
  0
LAYER
  2
SAPA_ANSLUTNING
 70
     0
 62
     6
  6
CONTINUOUS
  0
LAYER
  2
SAPA_PROFIL
 70
     0
 62
     7
  6
CONTINUOUS
  0
LAYER
  2
SAPA_FYLLNING
 70
     0
 62
     4
  6
CONTINUOUS
  0
LAYER
  2
SAPA_ISOLATOR
 70
     0
 62
     4
  6
CONTINUOUS
  0
LAYER
  2
SAPA_GLAS
 70
     0
 62
     4
  6
CONTINUOUS
  0
LAYER
  2
SAPA_FOGBAND
 70
     0
 62
     2
  6
CONTINUOUS
  0
ENDTAB
  0
TABLE
  2
STYLE
 70
    24
  0
STYLE
  2
STANDARD
 70
     0
 40
0.0
 41
1.0
 50
0.0
 71
     0
 42
0.2
  3
txt
  4

  0
STYLE
  2
ISO
 70
     0
 40
0.0
 41
1.0
 50
0.0
 71
     0
 42
3.5
  3
txt
  4

  0
STYLE
  2

 70
     1
 40
0.0
 41
1.0
 50
0.0
 71
     0
 42
0.2
  3
ltypeshp.shx
  4

  0
STYLE
  2
BYGG-021582$0$STANDARD
 70
     0
 40
0.0
 41
1.0
 50
0.0
 71
     0
 42
0.2
  3
txt
  4

  0
STYLE
  2
BYGG-021582$0$ISO
 70
     0
 40
0.0
 41
1.0
 50
0.0
 71
     0
 42
3.5
  3
isocp3.shx
  4

  0
STYLE
  2
BYGG-014279$0$STANDARD
 70
     0
 40
0.0
 41
1.0
 50
0.0
 71
     0
 42
0.2
  3
TXT.shx
  4

  0
STYLE
  2
BYGG-014279$0$ISO
 70
     0
 40
0.0
 41
1.0
 50
0.0
 71
     0
 42
3.5
  3
iso
  4

  0
STYLE
  2
BYGG-021667$0$STANDARD
 70
     0
 40
0.0
 41
1.0
 50
0.0
 71
     0
 42
0.2
  3
txt
  4

  0
STYLE
  2
BYGG-021667$0$ISO
 70
     0
 40
0.0
 41
1.0
 50
0.0
 71
     0
 42
3.5
  3
isocp3.shx
  4

  0
STYLE
  2
BYGG-01482301$0$STANDARD
 70
     0
 40
0.0
 41
1.0
 50
0.0
 71
     0
 42
0.2
  3
txt
  4

  0
STYLE
  2
BYGG-01482301$0$ISO
 70
     0
 40
0.0
 41
1.0
 50
0.0
 71
     0
 42
3.5
  3
isocp3.shx
  4

  0
STYLE
  2
BYGG-025463$0$STANDARD
 70
     0
 40
0.0
 41
1.0
 50
0.0
 71
     0
 42
0.2
  3
txt
  4

  0
STYLE
  2
BYGG-025463$0$ISO
 70
     0
 40
0.0
 41
1.0
 50
0.0
 71
     0
 42
3.5
  3
txt
  4

  0
STYLE
  2
BYGG-023714$0$STANDARD
 70
     0
 40
0.0
 41
1.0
 50
0.0
 71
     0
 42
0.2
  3
txt
  4

  0
STYLE
  2
BYGG-023714$0$ISO
 70
     0
 40
0.0
 41
1.0
 50
0.0
 71
     0
 42
3.5
  3
txt
  4

  0
STYLE
  2
BYGG-021480$0$STANDARD
 70
     0
 40
0.0
 41
1.0
 50
0.0
 71
     0
 42
0.2
  3
txt
  4

  0
STYLE
  2
BYGG-021480$0$ISO
 70
     0
 40
0.0
 41
1.0
 50
0.0
 71
     0
 42
3.5
  3
txt
  4

  0
STYLE
  2
BYGG-021480$0$ROMANS
 70
     0
 40
0.0
 41
1.0
 50
0.0
 71
     0
 42
3.5
  3
romans.shx
  4

  0
STYLE
  2
BYGG-025115$0$STANDARD
 70
     0
 40
0.0
 41
1.0
 50
0.0
 71
     0
 42
0.2
  3
txt
  4

  0
STYLE
  2
BYGG-025115$0$ISO
 70
     0
 40
0.0
 41
1.0
 50
0.0
 71
     0
 42
3.5
  3
txt
  4

  0
STYLE
  2
BYGG-020805$0$STANDARD
 70
     0
 40
0.0
 41
1.0
 50
0.0
 71
     0
 42
0.2
  3
txt
  4

  0
STYLE
  2
BYGG-020805$0$ISO
 70
     0
 40
0.0
 41
1.0
 50
0.0
 71
     0
 42
3.5
  3
txt
  4

  0
STYLE
  2
BYGG-035302$0$STANDARD
 70
     0
 40
0.0
 41
1.0
 50
0.0
 71
     0
 42
0.2
  3
txt
  4

  0
STYLE
  2
BYGG-035302$0$ISO
 70
     0
 40
0.0
 41
1.0
 50
0.0
 71
     0
 42
3.5
  3
txt
  4

  0
ENDTAB
  0
TABLE
  2
VIEW
 70
     0
  0
ENDTAB
  0
TABLE
  2
UCS
 70
     0
  0
ENDTAB
  0
TABLE
  2
APPID
 70
    23
  0
APPID
  2
ACAD
 70
     0
  0
APPID
  2
ACAD_DSTYLE_DIMTEXT_FILL
 70
     0
  0
APPID
  2
ACAD_DSTYLE_DIMEXT_LENGTH
 70
     0
  0
APPID
  2
ACAD_DSTYLE_DIMEXT_ENABLED
 70
     0
  0
APPID
  2
ACAD_DSTYLE_DIM_LINETYPE
 70
     0
  0
APPID
  2
ACAD_DSTYLE_DIM_EXT1_LINETYPE
 70
     0
  0
APPID
  2
ACAD_DSTYLE_DIM_EXT2_LINETYPE
 70
     0
  0
APPID
  2
ACAD_DSTYLE_DIMJOGGED_JOGA
 70
     0
  0
APPID
  2
ACAD_DSTYLE_DIMARC_LENGTH_
 70
     0
  0
APPID
  2
ACAD_PSEXT
 70
     0
  0
APPID
  2
ACAD_MLEADERVER
 70
     0
  0
APPID
  2
ACAD_NAV_VCDISPLAY
 70
     0
  0
APPID
  2
ACAD_EXEMPT_FROM_CAD_STANDARDS
 70
     0
  0
APPID
  2
AMG_ARCHIVE11
 70
     0
  0
APPID
  2
ACADANNOTATIVE
 70
     0
  0
APPID
  2
ACAECLAYERSTANDARD
 70
     0
  0
APPID
  2
DCO15
 70
     0
  0
APPID
  2
ACDBDYNAMICBLOCKGUID
 70
     0
  0
APPID
  2
ACDBBLOCKREPETAG
 70
     0
  0
APPID
  2
ACAD_DSTYLE_DIMJAG
 70
     0
  0
APPID
  2
ACAD_DSTYLE_DIMTALN
 70
     0
  0
APPID
  2
AEC_XDATA_BOUND_SPACE
 70
     0
  0
APPID
  2
ACCMTRANSPARENCY
 70
     0
  0
ENDTAB
  0
TABLE
  2
DIMSTYLE
 70
    21
  0
DIMSTYLE
  2
STANDARD
 70
     0
  3

  4

  5

  6

  7

 40
1.0
 41
0.18
 42
0.0625
 43
0.38
 44
0.18
 45
0.0
 46
0.0
 47
0.0
 48
0.0
140
0.18
141
0.09
142
0.0
143
25.399999999999999
144
1.0
145
0.0
146
1.0
147
0.09
 71
     0
 72
     0
 73
     1
 74
     1
 75
     0
 76
     0
 77
     0
 78
     0
170
     0
171
     2
172
     0
173
     0
174
     0
175
     0
176
     0
177
     0
178
     0
  0
DIMSTYLE
  2
MASKIN
 70
     0
  3

  4

  5

  6

  7

 40
0.0
 41
3.0
 42
1.5
 43
10.0
 44
1.5
 45
0.0
 46
0.0
 47
0.0
 48
0.0
140
3.0
141
-5.0
142
0.0
143
25.399999999999999
144
-1.0
145
0.0
146
1.0
147
1.0
 71
     0
 72
     0
 73
     0
 74
     0
 75
     0
 76
     0
 77
     1
 78
     8
170
     0
171
     0
172
     1
173
     0
174
     0
175
     0
176
   256
177
   256
178
     2
  0
DIMSTYLE
  2
BYGG-021582$0$MASKIN
 70
     0
  3

  4

  5

  6

  7

 40
0.0
 41
3.0
 42
1.5
 43
10.0
 44
1.5
 45
0.0
 46
0.0
 47
0.0
 48
0.0
140
3.0
141
-5.0
142
0.0
143
25.399999999999999
144
-1.0
145
0.0
146
1.0
147
1.0
 71
     0
 72
     0
 73
     0
 74
     0
 75
     0
 76
     0
 77
     1
 78
     8
170
     0
171
     0
172
     1
173
     0
174
     0
175
     0
176
   256
177
   256
178
   256
  0
DIMSTYLE
  2
BYGG-014279$0$STANDARD
 70
     0
  3

  4

  5

  6

  7

 40
1.0
 41
0.18
 42
0.0625
 43
0.38
 44
0.18
 45
0.0
 46
0.0
 47
0.0
 48
0.0
140
0.18
141
0.09
142
0.0
143
25.399999999999999
144
1.0
145
0.0
146
1.0
147
0.09
 71
     0
 72
     0
 73
     1
 74
     1
 75
     0
 76
     0
 77
     0
 78
     0
170
     0
171
     2
172
     0
173
     0
174
     0
175
     0
176
     0
177
     0
178
     0
  0
DIMSTYLE
  2
BYGG-014279$0$MASKIN
 70
     0
  3

  4

  5

  6

  7

 40
0.0
 41
3.0
 42
1.5
 43
10.0
 44
1.5
 45
0.0
 46
0.0
 47
0.0
 48
0.0
140
3.0
141
-5.0
142
0.0
143
25.399999999999999
144
-1.0
145
0.0
146
1.0
147
1.0
 71
     0
 72
     0
 73
     0
 74
     1
 75
     0
 76
     0
 77
     1
 78
     8
170
     0
171
     0
172
     1
173
     0
174
     0
175
     0
176
   256
177
   256
178
     2
  0
DIMSTYLE
  2
BYGG-021667$0$MASKIN
 70
     0
  3

  4

  5

  6

  7

 40
0.0
 41
3.0
 42
1.5
 43
10.0
 44
1.5
 45
0.0
 46
0.0
 47
0.0
 48
0.0
140
3.0
141
-5.0
142
0.0
143
25.399999999999999
144
-1.0
145
0.0
146
1.0
147
1.0
 71
     0
 72
     0
 73
     0
 74
     0
 75
     0
 76
     0
 77
     1
 78
     8
170
     0
171
     0
172
     1
173
     0
174
     0
175
     0
176
   256
177
   256
178
   256
  0
DIMSTYLE
  2
BYGG-01482301$0$STANDARD
 70
     0
  3

  4

  5

  6

  7

 40
1.0
 41
0.18
 42
0.0625
 43
0.38
 44
0.18
 45
0.0
 46
0.0
 47
0.0
 48
0.0
140
0.18
141
0.09
142
0.0
143
25.399999999999999
144
1.0
145
0.0
146
1.0
147
0.09
 71
     0
 72
     0
 73
     1
 74
     1
 75
     0
 76
     0
 77
     0
 78
     0
170
     0
171
     2
172
     0
173
     0
174
     0
175
     0
176
     0
177
     0
178
     0
  0
DIMSTYLE
  2
BYGG-01482301$0$MASKIN
 70
     0
  3

  4

  5

  6

  7

 40
0.0
 41
3.0
 42
1.5
 43
10.0
 44
1.5
 45
0.0
 46
0.0
 47
0.0
 48
0.0
140
3.0
141
-5.0
142
0.0
143
25.399999999999999
144
-1.0
145
0.0
146
1.0
147
1.0
 71
     0
 72
     0
 73
     0
 74
     1
 75
     0
 76
     0
 77
     1
 78
     8
170
     0
171
     0
172
     1
173
     0
174
     0
175
     0
176
   256
177
   256
178
     2
  0
DIMSTYLE
  2
BYGG-025463$0$STANDARD
 70
     0
  3

  4

  5

  6

  7

 40
1.0
 41
0.18
 42
0.0625
 43
0.38
 44
0.18
 45
0.0
 46
0.0
 47
0.0
 48
0.0
140
0.18
141
0.09
142
0.0
143
25.399999999999999
144
1.0
145
0.0
146
1.0
147
0.09
 71
     0
 72
     0
 73
     1
 74
     1
 75
     0
 76
     0
 77
     0
 78
     0
170
     0
171
     2
172
     0
173
     0
174
     0
175
     0
176
     0
177
     0
178
     0
  0
DIMSTYLE
  2
BYGG-025463$0$MASKIN
 70
     0
  3

  4

  5

  6

  7

 40
0.0
 41
3.0
 42
1.5
 43
10.0
 44
1.5
 45
0.0
 46
0.0
 47
0.0
 48
0.0
140
3.0
141
-5.0
142
0.0
143
25.399999999999999
144
-1.0
145
0.0
146
1.0
147
1.0
 71
     0
 72
     0
 73
     0
 74
     0
 75
     0
 76
     0
 77
     1
 78
     8
170
     0
171
     0
172
     1
173
     0
174
     0
175
     0
176
   256
177
   256
178
     2
  0
DIMSTYLE
  2
BYGG-023714$0$STANDARD
 70
     0
  3

  4

  5

  6

  7

 40
1.0
 41
0.18
 42
0.0625
 43
0.38
 44
0.18
 45
0.0
 46
0.0
 47
0.0
 48
0.0
140
0.18
141
0.09
142
0.0
143
25.399999999999999
144
1.0
145
0.0
146
1.0
147
0.09
 71
     0
 72
     0
 73
     1
 74
     1
 75
     0
 76
     0
 77
     0
 78
     0
170
     0
171
     2
172
     0
173
     0
174
     0
175
     0
176
     0
177
     0
178
     0
  0
DIMSTYLE
  2
BYGG-023714$0$MASKIN
 70
     0
  3

  4

  5

  6

  7

 40
0.0
 41
3.0
 42
1.5
 43
10.0
 44
1.5
 45
0.0
 46
0.0
 47
0.0
 48
0.0
140
3.0
141
-5.0
142
0.0
143
25.399999999999999
144
-1.0
145
0.0
146
1.0
147
1.0
 71
     0
 72
     0
 73
     0
 74
     0
 75
     0
 76
     0
 77
     1
 78
     8
170
     0
171
     0
172
     1
173
     0
174
     0
175
     0
176
   256
177
   256
178
     2
  0
DIMSTYLE
  2
BYGG-021480$0$STANDARD
 70
     0
  3

  4

  5

  6

  7

 40
1.0
 41
0.18
 42
0.0625
 43
0.38
 44
0.18
 45
0.0
 46
0.0
 47
0.0
 48
0.0
140
0.18
141
0.09
142
0.0
143
25.399999999999999
144
1.0
145
0.0
146
1.0
147
0.09
 71
     0
 72
     0
 73
     1
 74
     1
 75
     0
 76
     0
 77
     0
 78
     0
170
     0
171
     2
172
     0
173
     0
174
     0
175
     0
176
     0
177
     0
178
     0
  0
DIMSTYLE
  2
BYGG-021480$0$MASKIN
 70
     0
  3

  4

  5

  6

  7

 40
0.0
 41
3.0
 42
1.5
 43
10.0
 44
1.5
 45
0.0
 46
0.0
 47
0.0
 48
0.0
140
3.0
141
-5.0
142
0.0
143
25.399999999999999
144
-1.0
145
0.0
146
1.0
147
1.0
 71
     0
 72
     0
 73
     0
 74
     0
 75
     0
 76
     0
 77
     1
 78
     8
170
     0
171
     0
172
     1
173
     0
174
     0
175
     0
176
   256
177
   256
178
     2
  0
DIMSTYLE
  2
BYGG-021480$0$PRIMO_2_5-1
 70
     0
  3

  4

  5

  6

  7

 40
0.4
 41
3.0
 42
1.0
 43
5.0
 44
1.0
 45
0.0
 46
0.0
 47
0.0
 48
0.0
140
3.0
141
3.0
142
0.0
143
25.399999999999999
144
1.0
145
0.0
146
1.0
147
1.0
 71
     0
 72
     0
 73
     0
 74
     0
 75
     0
 76
     0
 77
     1
 78
     8
170
     0
171
     2
172
     0
173
     0
174
     0
175
     0
176
   256
177
   256
178
     6
  0
DIMSTYLE
  2
BYGG-025115$0$STANDARD
 70
     0
  3

  4

  5

  6

  7

 40
1.0
 41
0.18
 42
0.0625
 43
0.38
 44
0.18
 45
0.0
 46
0.0
 47
0.0
 48
0.0
140
0.18
141
0.09
142
0.0
143
25.399999999999999
144
1.0
145
0.0
146
1.0
147
0.09
 71
     0
 72
     0
 73
     1
 74
     1
 75
     0
 76
     0
 77
     0
 78
     0
170
     0
171
     2
172
     0
173
     0
174
     0
175
     0
176
     0
177
     0
178
     0
  0
DIMSTYLE
  2
BYGG-025115$0$MASKIN
 70
     0
  3

  4

  5

  6

  7

 40
0.0
 41
3.0
 42
1.5
 43
10.0
 44
1.5
 45
0.0
 46
0.0
 47
0.0
 48
0.0
140
3.0
141
-5.0
142
0.0
143
25.399999999999999
144
-1.0
145
0.0
146
1.0
147
1.0
 71
     0
 72
     0
 73
     0
 74
     0
 75
     0
 76
     0
 77
     1
 78
     8
170
     0
171
     0
172
     1
173
     0
174
     0
175
     0
176
   256
177
   256
178
     2
  0
DIMSTYLE
  2
BYGG-020805$0$STANDARD
 70
     0
  3

  4

  5

  6

  7

 40
1.0
 41
0.18
 42
0.0625
 43
0.38
 44
0.18
 45
0.0
 46
0.0
 47
0.0
 48
0.0
140
0.18
141
0.09
142
0.0
143
25.399999999999999
144
1.0
145
0.0
146
1.0
147
0.09
 71
     0
 72
     0
 73
     1
 74
     1
 75
     0
 76
     0
 77
     0
 78
     0
170
     0
171
     2
172
     0
173
     0
174
     0
175
     0
176
     0
177
     0
178
     0
  0
DIMSTYLE
  2
BYGG-020805$0$MASKIN
 70
     0
  3

  4

  5

  6

  7

 40
0.0
 41
3.0
 42
1.5
 43
10.0
 44
1.5
 45
0.0
 46
0.0
 47
0.0
 48
0.0
140
3.0
141
-5.0
142
0.0
143
25.399999999999999
144
-1.0
145
0.0
146
1.0
147
1.0
 71
     0
 72
     0
 73
     0
 74
     0
 75
     0
 76
     0
 77
     1
 78
     8
170
     0
171
     0
172
     1
173
     0
174
     0
175
     0
176
   256
177
   256
178
     2
  0
DIMSTYLE
  2
BYGG-035302$0$STANDARD
 70
     0
  3

  4

  5

  6

  7

 40
1.0
 41
0.18
 42
0.0625
 43
0.38
 44
0.18
 45
0.0
 46
0.0
 47
0.0
 48
0.0
140
0.18
141
0.09
142
0.0
143
25.399999999999999
144
1.0
145
0.0
146
1.0
147
0.09
 71
     0
 72
     0
 73
     1
 74
     1
 75
     0
 76
     0
 77
     0
 78
     0
170
     0
171
     2
172
     0
173
     0
174
     0
175
     0
176
     0
177
     0
178
     0
  0
DIMSTYLE
  2
BYGG-035302$0$MASKIN
 70
     0
  3

  4

  5

  6

  7

 40
0.0
 41
3.0
 42
1.5
 43
10.0
 44
1.5
 45
0.0
 46
0.0
 47
0.0
 48
0.0
140
3.0
141
-5.0
142
0.0
143
25.399999999999999
144
-1.0
145
0.0
146
1.0
147
1.0
 71
     0
 72
     0
 73
     0
 74
     0
 75
     0
 76
     0
 77
     1
 78
     8
170
     0
171
     0
172
     1
173
     0
174
     0
175
     0
176
   256
177
   256
178
     2
  0
ENDTAB
  0
ENDSEC
  0
SECTION
  2
BLOCKS
  0
BLOCK
  8
0
  2
$MODEL_SPACE
 70
     0
 10
0.0
 20
0.0
 30
0.0
  3
$MODEL_SPACE
  1

  0
ENDBLK
  5
37
  8
0
  0
BLOCK
 67
     1
  8
0
  2
$PAPER_SPACE
 70
     0
 10
0.0
 20
0.0
 30
0.0
  3
$PAPER_SPACE
  1

  0
ENDBLK
  5
35
 67
     1
  8
0
  0
BLOCK
  8
0
  2
*X34
 70
     1
 10
0.0
 20
0.0
 30
0.0
  3
*X34
  1

  0
LINE
  5
11A3
  8
0
 62
     0
 10
70.062352699800243
 20
29.452914024861339
 30
0.0
 11
70.093042608510586
 21
29.506070506027299
 31
0.0
  0
LINE
  5
11A4
  8
0
 62
     0
 10
68.871727699800246
 20
27.39069103209965
 30
0.0
 11
69.26860269980024
 21
28.078098696353539
 31
0.0
  0
LINE
  5
11A5
  8
0
 62
     0
 10
67.740925715715093
 20
25.432084542364471
 30
0.0
 11
68.077977699800243
 21
26.015875703591849
 31
0.0
  0
LINE
  5
11A6
  8
0
 62
     0
 10
70.062352984296183
 20
32.20254451762122
 30
0.0
 11
70.409402249398212
 21
32.80365147750738
 31
0.0
  0
LINE
  5
11A7
  8
0
 62
     0
 10
68.871727984296186
 20
30.14032152485953
 30
0.0
 11
69.26860298429618
 21
30.82772918911343
 31
0.0
  0
LINE
  5
11A8
  8
0
 62
     0
 10
67.681102984296174
 20
28.07809853209784
 30
0.0
 11
68.077977984296183
 21
28.76550619635173
 31
0.0
  0
LINE
  5
11A9
  8
0
 62
     0
 10
66.490477984296191
 20
26.01587553933614
 30
0.0
 11
66.887352984296186
 21
26.70328320359004
 31
0.0
  0
LINE
  5
11AA
  8
0
 62
     0
 10
70.062353268793217
 20
34.952175010385673
 30
0.0
 11
70.143834960084845
 21
35.093305439589408
 31
0.0
  0
LINE
  5
11AB
  8
0
 62
     0
 10
68.871728268793206
 20
32.889952017623983
 30
0.0
 11
69.268603268793214
 21
33.57735968187788
 31
0.0
  0
LINE
  5
11AC
  8
0
 62
     0
 10
67.681103268793223
 20
30.827729024862279
 30
0.0
 11
68.077978268793217
 21
31.515136689116179
 31
0.0
  0
LINE
  5
11AD
  8
0
 62
     0
 10
66.490478268793225
 20
28.765506032100589
 30
0.0
 11
66.88735326879322
 21
29.452913696354479
 31
0.0
  0
LINE
  5
11AE
  8
0
 62
     0
 10
65.299853268793228
 20
26.703283039338899
 30
0.0
 11
65.696728268793223
 21
27.390690703592789
 31
0.0
  0
LINE
  5
11AF
  8
0
 62
     0
 10
68.871728553289344
 20
35.639582510386937
 30
0.0
 11
69.268603553289324
 21
36.326990174640841
 31
0.0
  0
LINE
  5
11B0
  8
0
 62
     0
 10
67.681103553289347
 20
33.577359517625247
 30
0.0
 11
68.077978553289341
 21
34.264767181879137
 31
0.0
  0
LINE
  5
11B1
  8
0
 62
     0
 10
66.49047855328935
 20
31.515136524863561
 30
0.0
 11
66.887353553289344
 21
32.202544189117447
 31
0.0
  0
LINE
  5
11B2
  8
0
 62
     0
 10
65.299853553289353
 20
29.452913532101871
 30
0.0
 11
65.696728553289347
 21
30.14032119635576
 31
0.0
  0
LINE
  5
11B3
  8
0
 62
     0
 10
64.109228553289356
 20
27.39069053934017
 30
0.0
 11
64.50610355328935
 21
28.07809820359407
 31
0.0
  0
LINE
  5
11B4
  8
0
 62
     0
 10
67.681103837784747
 20
36.326990010383682
 30
0.0
 11
68.077978837784741
 21
37.014397674637578
 31
0.0
  0
LINE
  5
11B5
  8
0
 62
     0
 10
66.49047883778475
 20
34.264767017621992
 30
0.0
 11
66.887353837784744
 21
34.952174681875888
 31
0.0
  0
LINE
  5
11B6
  8
0
 62
     0
 10
65.299853837784752
 20
32.202544024860302
 30
0.0
 11
65.696728837784747
 21
32.889951689114199
 31
0.0
  0
LINE
  5
11B7
  8
0
 62
     0
 10
64.109228837784755
 20
30.140321032098608
 30
0.0
 11
64.506103837784735
 21
30.827728696352509
 31
0.0
  0
LINE
  5
11B8
  8
0
 62
     0
 10
63.07349031228113
 20
28.346369282569871
 30
0.0
 11
63.315478837784759
 21
28.765505703590819
 31
0.0
  0
LINE
  5
11B9
  8
0
 62
     0
 10
67.681104122280871
 20
39.07662050314746
 30
0.0
 11
67.831316761600633
 21
39.336796426388311
 31
0.0
  0
LINE
  5
11BA
  8
0
 62
     0
 10
66.490479122280874
 20
37.01439751038577
 30
0.0
 11
66.887354122280868
 21
37.701805174639667
 31
0.0
  0
LINE
  5
11BB
  8
0
 62
     0
 10
65.299854122280877
 20
34.95217451762408
 30
0.0
 11
65.696729122280871
 21
35.639582181877977
 31
0.0
  0
LINE
  5
11BC
  8
0
 62
     0
 10
64.109229122280865
 20
32.88995152486239
 30
0.0
 11
64.506104122280874
 21
33.577359189116287
 31
0.0
  0
LINE
  5
11BD
  8
0
 62
     0
 10
62.918604122280883
 20
30.8277285321007
 30
0.0
 11
63.315479122280891
 21
31.5151361963546
 31
0.0
  0
LINE
  5
11BE
  8
0
 62
     0
 10
66.490479406777183
 20
39.764028003145242
 30
0.0
 11
66.519232396636639
 21
39.813829642451338
 31
0.0
  0
LINE
  5
11BF
  8
0
 62
     0
 10
65.299854406777186
 20
37.701805010383559
 30
0.0
 11
65.69672940677718
 21
38.389212674637449
 31
0.0
  0
LINE
  5
11C0
  8
0
 62
     0
 10
64.109229406777189
 20
35.639582017621862
 30
0.0
 11
64.506104406777183
 21
36.326989681875759
 31
0.0
  0
LINE
  5
11C1
  8
0
 62
     0
 10
62.918604406777192
 20
33.577359024860172
 30
0.0
 11
63.315479406777193
 21
34.264766689114069
 31
0.0
  0
LINE
  5
11C2
  8
0
 62
     0
 10
64.109229691273683
 20
38.389212510386372
 30
0.0
 11
64.260204557856923
 21
38.650708649974462
 31
0.0
  0
LINE
  5
11C3
  8
0
 62
     0
 10
63.194368787878368
 20
36.804626943847332
 30
0.0
 11
63.315479691273687
 21
37.014397181878572
 31
0.0
  0
LINE
  5
11C4
  8
0
 62
     0
 10
66.885506320129807
 20
39.073536307699491
 30
0.0
 11
66.488631320129812
 21
39.760943971953381
 31
0.0
  0
LINE
  5
11C5
  8
0
 62
     0
 10
68.076131320129804
 20
37.011313314937802
 30
0.0
 11
67.679256320129809
 21
37.698720979191691
 31
0.0
  0
LINE
  5
11C6
  8
0
 62
     0
 10
69.266756320129801
 20
34.949090322176112
 30
0.0
 11
68.869881320129807
 21
35.636497986430001
 31
0.0
  0
LINE
  5
11C7
  8
0
 62
     0
 10
70.403220534057624
 20
32.980676562669288
 30
0.0
 11
70.060506320129804
 21
33.574274993668311
 31
0.0
  0
LINE
  5
11C8
  8
0
 62
     0
 10
65.694881604625934
 20
38.386128807698022
 30
0.0
 11
65.298006604625954
 21
39.073536471951918
 31
0.0
  0
LINE
  5
11C9
  8
0
 62
     0
 10
66.885506604625945
 20
36.323905814936332
 30
0.0
 11
66.488631604625951
 21
37.011313479190228
 31
0.0
  0
LINE
  5
11CA
  8
0
 62
     0
 10
68.076131604625942
 20
34.261682822174642
 30
0.0
 11
67.679256604625934
 21
34.949090486428538
 31
0.0
  0
LINE
  5
11CB
  8
0
 62
     0
 10
69.26675660462594
 20
32.199459829412952
 30
0.0
 11
68.869881604625945
 21
32.886867493666848
 31
0.0
  0
LINE
  5
11CC
  8
0
 62
     0
 10
70.272491780908325
 20
30.457475405132609
 30
0.0
 11
70.060506604625942
 21
30.824644500905158
 31
0.0
  0
LINE
  5
11CD
  8
0
 62
     0
 10
64.504256889122061
 20
37.698721307698442
 30
0.0
 11
64.107381889122067
 21
38.386128971952338
 31
0.0
  0
LINE
  5
11CE
  8
0
 62
     0
 10
65.694881889122058
 20
35.636498314936752
 30
0.0
 11
65.298006889122064
 21
36.323905979190648
 31
0.0
  0
LINE
  5
11CF
  8
0
 62
     0
 10
66.885506889122055
 20
33.574275322175062
 30
0.0
 11
66.488631889122061
 21
34.261682986428958
 31
0.0
  0
LINE
  5
11D0
  8
0
 62
     0
 10
68.076131889122053
 20
31.512052329413368
 30
0.0
 11
67.679256889122058
 21
32.199459993667269
 31
0.0
  0
LINE
  5
11D1
  8
0
 62
     0
 10
69.266756889122036
 20
29.449829336651678
 30
0.0
 11
68.869881889122055
 21
30.137237000905579
 31
0.0
  0
LINE
  5
11D2
  8
0
 62
     0
 10
63.313632173618188
 20
37.011313807698841
 30
0.0
 11
63.294210120766493
 21
37.044953790025282
 31
0.0
  0
LINE
  5
11D3
  8
0
 62
     0
 10
64.504257173618186
 20
34.949090814937151
 30
0.0
 11
64.107382173618191
 21
35.636498479191047
 31
0.0
  0
LINE
  5
11D4
  8
0
 62
     0
 10
65.694882173618183
 20
32.886867822175461
 30
0.0
 11
65.298007173618188
 21
33.574275486429357
 31
0.0
  0
LINE
  5
11D5
  8
0
 62
     0
 10
66.88550717361818
 20
30.824644829413771
 30
0.0
 11
66.488632173618186
 21
31.512052493667671
 31
0.0
  0
LINE
  5
11D6
  8
0
 62
     0
 10
68.076132173618177
 20
28.762421836652081
 30
0.0
 11
67.679257173618183
 21
29.449829500905981
 31
0.0
  0
LINE
  5
11D7
  8
0
 62
     0
 10
69.117577913235664
 20
26.958584902308449
 30
0.0
 11
68.869882173618166
 21
27.387606508144291
 31
0.0
  0
LINE
  5
11D8
  8
0
 62
     0
 10
63.313632458114327
 20
34.261683314937521
 30
0.0
 11
62.916757458114333
 21
34.949090979191411
 31
0.0
  0
LINE
  5
11D9
  8
0
 62
     0
 10
64.504257458114324
 20
32.199460322175831
 30
0.0
 11
64.10738245811433
 21
32.886867986429721
 31
0.0
  0
LINE
  5
11DA
  8
0
 62
     0
 10
65.694882458114321
 20
30.13723732941413
 30
0.0
 11
65.298007458114327
 21
30.824644993668031
 31
0.0
  0
LINE
  5
11DB
  8
0
 62
     0
 10
66.885507458114319
 20
28.075014336652441
 30
0.0
 11
66.488632458114324
 21
28.762422000906341
 31
0.0
  0
LINE
  5
11DC
  8
0
 62
     0
 10
68.076132458114316
 20
26.012791343890751
 30
0.0
 11
67.679257458114321
 21
26.700199008144651
 31
0.0
  0
LINE
  5
11DD
  8
0
 62
     0
 10
63.31363274261043
 20
31.512052822176251
 30
0.0
 11
62.916757742610429
 21
32.199460486430148
 31
0.0
  0
LINE
  5
11DE
  8
0
 62
     0
 10
64.50425774261042
 20
29.449829829414561
 30
0.0
 11
64.107382742610426
 21
30.137237493668461
 31
0.0
  0
LINE
  5
11DF
  8
0
 62
     0
 10
65.694882742610417
 20
27.387606836652871
 30
0.0
 11
65.298007742610423
 21
28.075014500906761
 31
0.0
  0
LINE
  5
11E0
  8
0
 62
     0
 10
66.885507742610415
 20
25.325383843891181
 30
0.0
 11
66.48863274261042
 21
26.012791508145071
 31
0.0
  0
LINE
  5
11E1
  8
0
 62
     0
 10
63.313633027106569
 20
28.762422329413109
 30
0.0
 11
62.91675802710656
 21
29.449829993666999
 31
0.0
  0
LINE
  5
11E2
  8
0
 62
     0
 10
64.504258027106559
 20
26.700199336651419
 30
0.0
 11
64.107383027106565
 21
27.387607000905309
 31
0.0
  0
LINE
  5
11E3
  8
0
 62
     0
 10
65.312551063390515
 20
25.30019473040349
 30
0.0
 11
65.298008027106562
 21
25.325384008143619
 31
0.0
  0
LINE
  5
11E4
  8
0
 62
     0
 10
66.889101212809337
 20
25.32532816182357
 30
0.0
 11
67.563614104155945
 21
25.32532816182357
 31
0.0
  0
LINE
  5
11E5
  8
0
 62
     0
 10
65.266229774659223
 20
25.32532816182357
 30
0.0
 11
65.301601212809331
 21
25.32532816182357
 31
0.0
  0
LINE
  5
11E6
  8
0
 62
     0
 10
66.889101212808967
 20
26.70014316182278
 30
0.0
 11
67.682851212808956
 21
26.70014316182278
 31
0.0
  0
LINE
  5
11E7
  8
0
 62
     0
 10
64.507851212808959
 20
26.70014316182278
 30
0.0
 11
65.301601212808961
 21
26.70014316182278
 31
0.0
  0
LINE
  5
11E8
  8
0
 62
     0
 10
69.270351212808976
 20
28.074958161823812
 30
0.0
 11
69.655075803962987
 21
28.074958161823812
 31
0.0
  0
LINE
  5
11E9
  8
0
 62
     0
 10
66.889101212808967
 20
28.074958161823812
 30
0.0
 11
67.682851212808956
 21
28.074958161823812
 31
0.0
  0
LINE
  5
11EA
  8
0
 62
     0
 10
64.507851212808959
 20
28.074958161823812
 30
0.0
 11
65.301601212808961
 21
28.074958161823812
 31
0.0
  0
LINE
  5
11EB
  8
0
 62
     0
 10
69.27035121280899
 20
29.449773161823028
 30
0.0
 11
70.064101212808993
 21
29.449773161823028
 31
0.0
  0
LINE
  5
11EC
  8
0
 62
     0
 10
66.889101212808981
 20
29.449773161823028
 30
0.0
 11
67.682851212808984
 21
29.449773161823028
 31
0.0
  0
LINE
  5
11ED
  8
0
 62
     0
 10
64.507851212808973
 20
29.449773161823028
 30
0.0
 11
65.301601212808976
 21
29.449773161823028
 31
0.0
  0
LINE
  5
11EE
  8
0
 62
     0
 10
62.749954803559369
 20
29.449773161823028
 30
0.0
 11
62.92035121280896
 21
29.449773161823028
 31
0.0
  0
LINE
  5
11EF
  8
0
 62
     0
 10
69.27035121280899
 20
30.824588161824071
 30
0.0
 11
70.064101212808993
 21
30.824588161824071
 31
0.0
  0
LINE
  5
11F0
  8
0
 62
     0
 10
66.889101212808981
 20
30.824588161824071
 30
0.0
 11
67.682851212808984
 21
30.824588161824071
 31
0.0
  0
LINE
  5
11F1
  8
0
 62
     0
 10
64.507851212808973
 20
30.824588161824071
 30
0.0
 11
65.301601212808976
 21
30.824588161824071
 31
0.0
  0
LINE
  5
11F2
  8
0
 62
     0
 10
62.508355495234362
 20
30.824588161824071
 30
0.0
 11
62.92035121280896
 21
30.824588161824071
 31
0.0
  0
LINE
  5
11F3
  8
0
 62
     0
 10
69.27035121280899
 20
32.199403161823291
 30
0.0
 11
70.064101212808993
 21
32.199403161823291
 31
0.0
  0
LINE
  5
11F4
  8
0
 62
     0
 10
66.889101212808981
 20
32.199403161823291
 30
0.0
 11
67.682851212808984
 21
32.199403161823291
 31
0.0
  0
LINE
  5
11F5
  8
0
 62
     0
 10
64.507851212808973
 20
32.199403161823291
 30
0.0
 11
65.301601212808976
 21
32.199403161823291
 31
0.0
  0
LINE
  5
11F6
  8
0
 62
     0
 10
62.416618687571827
 20
32.199403161823291
 30
0.0
 11
62.92035121280896
 21
32.199403161823291
 31
0.0
  0
LINE
  5
11F7
  8
0
 62
     0
 10
69.27035121280899
 20
33.5742181618225
 30
0.0
 11
70.064101212808993
 21
33.5742181618225
 31
0.0
  0
LINE
  5
11F8
  8
0
 62
     0
 10
66.889101212808981
 20
33.5742181618225
 30
0.0
 11
67.682851212808984
 21
33.5742181618225
 31
0.0
  0
LINE
  5
11F9
  8
0
 62
     0
 10
64.507851212808973
 20
33.5742181618225
 30
0.0
 11
65.301601212808976
 21
33.5742181618225
 31
0.0
  0
LINE
  5
11FA
  8
0
 62
     0
 10
62.464290769637962
 20
33.5742181618225
 30
0.0
 11
62.92035121280896
 21
33.5742181618225
 31
0.0
  0
LINE
  5
11FB
  8
0
 62
     0
 10
69.27035121280899
 20
34.949033161823543
 30
0.0
 11
70.064101212808993
 21
34.949033161823543
 31
0.0
  0
LINE
  5
11FC
  8
0
 62
     0
 10
66.889101212808981
 20
34.949033161823543
 30
0.0
 11
67.682851212808984
 21
34.949033161823543
 31
0.0
  0
LINE
  5
11FD
  8
0
 62
     0
 10
64.507851212808973
 20
34.949033161823543
 30
0.0
 11
65.301601212808976
 21
34.949033161823543
 31
0.0
  0
LINE
  5
11FE
  8
0
 62
     0
 10
62.656673062536363
 20
34.949033161823543
 30
0.0
 11
62.92035121280896
 21
34.949033161823543
 31
0.0
  0
LINE
  5
11FF
  8
0
 62
     0
 10
69.270351212808976
 20
36.32384816182276
 30
0.0
 11
69.81157806514058
 21
36.32384816182276
 31
0.0
  0
LINE
  5
1200
  8
0
 62
     0
 10
66.889101212808967
 20
36.32384816182276
 30
0.0
 11
67.682851212808956
 21
36.32384816182276
 31
0.0
  0
LINE
  5
1201
  8
0
 62
     0
 10
64.507851212808959
 20
36.32384816182276
 30
0.0
 11
65.301601212808961
 21
36.32384816182276
 31
0.0
  0
LINE
  5
1202
  8
0
 62
     0
 10
66.889101212808967
 20
37.698663161823788
 30
0.0
 11
67.682851212808956
 21
37.698663161823788
 31
0.0
  0
LINE
  5
1203
  8
0
 62
     0
 10
64.507851212808959
 20
37.698663161823788
 30
0.0
 11
65.301601212808961
 21
37.698663161823788
 31
0.0
  0
LINE
  5
1204
  8
0
 62
     0
 10
66.889101212809337
 20
39.073478161822997
 30
0.0
 11
67.682851212809339
 21
39.073478161822997
 31
0.0
  0
LINE
  5
1205
  8
0
 62
     0
 10
64.668319530874214
 20
39.073478161822997
 30
0.0
 11
65.301601212809331
 21
39.073478161822997
 31
0.0
  0
ENDBLK
  5
1207
  8
0
  0
BLOCK
  8
0
  2
*X35
 70
     1
 10
0.0
 20
0.0
 30
0.0
  3
*X35
  1

  0
LINE
  5
1209
  8
0
 62
     0
 10
83.630426249611446
 20
39.102703669560022
 30
0.0
 11
82.933129919172174
 21
39.799999999999272
 31
0.0
  0
LINE
  5
120A
  8
0
 62
     0
 10
83.275507881598955
 20
38.33509002243909
 30
0.0
 11
81.810597904038346
 21
39.799999999999727
 31
0.0
  0
LINE
  5
120B
  8
0
 62
     0
 10
82.957590228531444
 20
37.530475660371387
 30
0.0
 11
80.688065888903566
 21
39.799999999999272
 31
0.0
  0
LINE
  5
120C
  8
0
 62
     0
 10
82.679557865596962
 20
36.6859760081743
 30
0.0
 11
79.565533873771528
 21
39.799999999999727
 31
0.0
  0
LINE
  5
120D
  8
0
 62
     0
 10
82.445160612254767
 20
35.797841246381267
 30
0.0
 11
78.443001858636762
 21
39.799999999999272
 31
0.0
  0
LINE
  5
120E
  8
0
 62
     0
 10
82.259337693726138
 20
34.861132149776488
 30
0.0
 11
77.320469843504725
 21
39.799999999997908
 31
0.0
  0
LINE
  5
120F
  8
0
 62
     0
 10
82.128734191237086
 20
33.869203637132159
 30
0.0
 11
76.197937828369959
 21
39.799999999999272
 31
0.0
  0
LINE
  5
1210
  8
0
 62
     0
 10
82.062568177094349
 20
32.812837636141467
 30
0.0
 11
75.075405813237921
 21
39.799999999997461
 31
0.0
  0
LINE
  5
1211
  8
0
 62
     0
 10
82.074190744516258
 20
31.678683053586159
 30
0.0
 11
73.952873798103155
 21
39.799999999999272
 31
0.0
  0
LINE
  5
1212
  8
0
 62
     0
 10
82.184166844770061
 20
30.446174938198968
 30
0.0
 11
72.830341782971573
 21
39.799999999997461
 31
0.0
  0
LINE
  5
1213
  8
0
 62
     0
 10
82.427220485328235
 20
29.08058928250739
 30
0.0
 11
71.707809767836352
 21
39.799999999999272
 31
0.0
  0
LINE
  5
1214
  8
0
 62
     0
 10
82.871456599631074
 20
27.51382115306933
 30
0.0
 11
70.58527775270295
 21
39.799999999997461
 31
0.0
  0
LINE
  5
1215
  8
0
 62
     0
 10
83.696180638432907
 20
25.566565099135921
 30
0.0
 11
69.462745737569549
 21
39.799999999999272
 31
0.0
  0
LINE
  5
1216
  8
0
 62
     0
 10
83.140213722434495
 20
24.999999999999091
 30
0.0
 11
69.862966420595058
 21
38.277247301838543
 31
0.0
  0
LINE
  5
1217
  8
0
 62
     0
 10
82.017681707302472
 20
24.99999999999773
 30
0.0
 11
70.47643113483673
 21
36.541250572463468
 31
0.0
  0
LINE
  5
1218
  8
0
 62
     0
 10
80.895149692166356
 20
25.000000000000458
 30
0.0
 11
70.816886039281144
 21
35.078263652885653
 31
0.0
  0
LINE
  5
1219
  8
0
 62
     0
 10
79.772617677034305
 20
24.999999999999091
 30
0.0
 11
70.993655122110795
 21
33.7789625549226
 31
0.0
  0
LINE
  5
121A
  8
0
 62
     0
 10
78.650085661899539
 20
25.000000000000458
 30
0.0
 11
71.055654585306002
 21
32.594431076593992
 31
0.0
  0
LINE
  5
121B
  8
0
 62
     0
 10
77.527553646765682
 20
24.999999999999091
 30
0.0
 11
71.029859324525205
 21
31.497694322239571
 31
0.0
  0
LINE
  5
121C
  8
0
 62
     0
 10
76.405021631632735
 20
25.000000000000458
 30
0.0
 11
70.933009493383906
 21
30.472012138249291
 31
0.0
  0
LINE
  5
121D
  8
0
 62
     0
 10
75.282489616498879
 20
24.999999999999091
 30
0.0
 11
70.776313624917293
 21
29.50617599158068
 31
0.0
  0
LINE
  5
121E
  8
0
 62
     0
 10
74.159957601365932
 20
24.999999999998639
 30
0.0
 11
70.56767847692845
 21
28.592279124436121
 31
0.0
  0
LINE
  5
121F
  8
0
 62
     0
 10
73.037425586232075
 20
24.999999999999091
 30
0.0
 11
70.312891464011486
 21
27.724534122219669
 31
0.0
  0
LINE
  5
1220
  8
0
 62
     0
 10
71.914893571099114
 20
24.999999999998639
 30
0.0
 11
70.016300538434734
 21
26.89859303266303
 31
0.0
  0
LINE
  5
1221
  8
0
 62
     0
 10
70.792361555965272
 20
24.999999999999091
 30
0.0
 11
69.681229629361951
 21
26.111131926602411
 31
0.0
  0
LINE
  5
1222
  8
0
 62
     0
 10
69.669829540830506
 20
24.999999999998639
 30
0.0
 11
69.310244557377246
 21
25.359584983451899
 31
0.0
  0
LINE
  5
1223
  8
0
 62
     0
 10
83.541579015985917
 20
25.000000000001819
 30
0.0
 11
83.837454699634705
 21
25.295875683650589
 31
0.0
  0
LINE
  5
1224
  8
0
 62
     0
 10
82.419047000852515
 20
25.0
 30
0.0
 11
83.463448438391424
 21
26.044401437538909
 31
0.0
  0
LINE
  5
1225
  8
0
 62
     0
 10
81.296514985717295
 20
24.999999999998181
 30
0.0
 11
83.125162807422385
 21
26.828647821703271
 31
0.0
  0
LINE
  5
1226
  8
0
 62
     0
 10
80.173982970583907
 20
24.999999999998181
 30
0.0
 11
82.825107036034765
 21
27.651124065449039
 31
0.0
  0
LINE
  5
1227
  8
0
 62
     0
 10
79.05145095545231
 20
25.000000000001819
 30
0.0
 11
82.566530190119011
 21
28.515079234668519
 31
0.0
  0
LINE
  5
1228
  8
0
 62
     0
 10
77.928918940313451
 20
24.999999999996358
 30
0.0
 11
82.353677431603515
 21
29.424758491286411
 31
0.0
  0
LINE
  5
1229
  8
0
 62
     0
 10
76.806386925183673
 20
25.0
 30
0.0
 11
82.192188988026828
 21
30.38580206284314
 31
0.0
  0
LINE
  5
122A
  8
0
 62
     0
 10
75.683854910048467
 20
24.999999999998181
 30
0.0
 11
82.089750116070704
 21
31.405895206020428
 31
0.0
  0
LINE
  5
122B
  8
0
 62
     0
 10
74.561322894915065
 20
24.999999999998181
 30
0.0
 11
82.057214763299271
 21
32.495891868382387
 31
0.0
  0
LINE
  5
122C
  8
0
 62
     0
 10
73.438790879783483
 20
25.000000000001819
 30
0.0
 11
82.110707575502602
 21
33.671916695720938
 31
0.0
  0
LINE
  5
122D
  8
0
 62
     0
 10
72.316258864648262
 20
25.0
 30
0.0
 11
82.276007111786384
 21
34.959748247138123
 31
0.0
  0
LINE
  5
122E
  8
0
 62
     0
 10
71.19372684951486
 20
25.0
 30
0.0
 11
82.599266265546248
 21
36.405539416031388
 31
0.0
  0
LINE
  5
122F
  8
0
 62
     0
 10
70.071194834381444
 20
24.999999999998181
 30
0.0
 11
83.181135434009775
 21
38.109940599626498
 31
0.0
  0
LINE
  5
1230
  8
0
 62
     0
 10
69.312482894971254
 20
25.363820075723201
 30
0.0
 11
83.748662819247329
 21
39.799999999999272
 31
0.0
  0
LINE
  5
1231
  8
0
 62
     0
 10
70.190082089386124
 20
27.363951285271469
 30
0.0
 11
82.626130804113927
 21
39.799999999997461
 31
0.0
  0
LINE
  5
1232
  8
0
 62
     0
 10
70.657370153956435
 20
28.953771364975179
 30
0.0
 11
81.503598788980526
 21
39.799999999999272
 31
0.0
  0
LINE
  5
1233
  8
0
 62
     0
 10
70.914465308933345
 20
30.333398535085511
 30
0.0
 11
80.381066773845305
 21
39.799999999997461
 31
0.0
  0
LINE
  5
1234
  8
0
 62
     0
 10
71.034343535413413
 20
31.575808776698981
 30
0.0
 11
79.258534758711903
 21
39.799999999997461
 31
0.0
  0
LINE
  5
1235
  8
0
 62
     0
 10
71.053561644379442
 20
32.717558900800213
 30
0.0
 11
78.13600274358032
 21
39.800000000001091
 31
0.0
  0
LINE
  5
1236
  8
0
 62
     0
 10
70.993552210900816
 20
33.780081482454989
 30
0.0
 11
77.0134707284451
 21
39.799999999999272
 31
0.0
  0
LINE
  5
1237
  8
0
 62
     0
 10
70.868138898908001
 20
34.777200185595582
 30
0.0
 11
75.890938713311684
 21
39.799999999999272
 31
0.0
  0
LINE
  5
1238
  8
0
 62
     0
 10
70.686823159308915
 20
35.718416461129891
 30
0.0
 11
74.768406698176463
 21
39.799999999997461
 31
0.0
  0
LINE
  5
1239
  8
0
 62
     0
 10
70.456432514791231
 20
36.610557831745609
 30
0.0
 11
73.645874683046713
 21
39.800000000001091
 31
0.0
  0
LINE
  5
123A
  8
0
 62
     0
 10
70.182030362302612
 20
37.458687694392211
 30
0.0
 11
72.523342667911493
 21
39.800000000001091
 31
0.0
  0
LINE
  5
123B
  8
0
 62
     0
 10
69.867454988985628
 20
38.266644336206809
 30
0.0
 11
71.400810652778091
 21
39.799999999999272
 31
0.0
  0
LINE
  5
123C
  8
0
 62
     0
 10
69.515656538882467
 20
39.037377901237051
 30
0.0
 11
70.27827863764287
 21
39.799999999997461
 31
0.0
  0
LINE
  5
123D
  8
0
 62
     0
 10
69.128916468222087
 20
39.773169845710072
 30
0.0
 11
69.155746622509454
 21
39.799999999997461
 31
0.0
  0
ENDBLK
  5
123F
  8
0
  0
BLOCK
  8
0
  2
*X36
 70
     1
 10
0.0
 20
0.0
 30
0.0
  3
*X36
  1

  0
LINE
  5
1241
  8
0
 62
     0
 10
-68.356496909558146
 20
28.07808818410523
 30
0.0
 11
-67.562746909558143
 21
29.45290351261303
 31
0.0
  0
LINE
  5
1242
  8
0
 62
     0
 10
-70.19136697815884
 20
24.900000000001459
 30
0.0
 11
-69.943996909558152
 21
25.32845752708964
 31
0.0
  0
LINE
  5
1243
  8
0
 62
     0
 10
-68.356496340566252
 20
33.577349169629009
 30
0.0
 11
-67.56274634056625
 21
34.95216449813681
 31
0.0
  0
LINE
  5
1244
  8
0
 62
     0
 10
-70.737746340566261
 20
29.452903184105619
 30
0.0
 11
-69.943996340566258
 21
30.827718512613419
 31
0.0
  0
LINE
  5
1245
  8
0
 62
     0
 10
-73.11899634056627
 20
25.328457198582232
 30
0.0
 11
-72.325246340566267
 21
26.703272527090022
 31
0.0
  0
LINE
  5
1246
  8
0
 62
     0
 10
-68.356495771573989
 20
39.076610155151592
 30
0.0
 11
-67.881111423002025
 21
39.900000000001278
 31
0.0
  0
LINE
  5
1247
  8
0
 62
     0
 10
-70.737745771573998
 20
34.952164169628212
 30
0.0
 11
-69.943995771573995
 21
36.326979498135998
 31
0.0
  0
LINE
  5
1248
  8
0
 62
     0
 10
-73.118995771574006
 20
30.827718184104821
 30
0.0
 11
-72.325245771574004
 21
32.202533512612611
 31
0.0
  0
LINE
  5
1249
  8
0
 62
     0
 10
-75.500245771574015
 20
26.703272198581431
 30
0.0
 11
-74.706495771574012
 21
28.07808752708922
 31
0.0
  0
LINE
  5
124A
  8
0
 62
     0
 10
-73.118995202583534
 20
36.326979169624742
 30
0.0
 11
-72.325245202583545
 21
37.701794498132529
 31
0.0
  0
LINE
  5
124B
  8
0
 62
     0
 10
-75.500245202583557
 20
32.202533184101348
 30
0.0
 11
-74.706495202583554
 21
33.577348512609142
 31
0.0
  0
LINE
  5
124C
  8
0
 62
     0
 10
-77.881495202583565
 20
28.078087198577961
 30
0.0
 11
-77.087745202583562
 21
29.452902527085762
 31
0.0
  0
LINE
  5
124D
  8
0
 62
     0
 10
-79.716364702189821
 20
24.900000000001459
 30
0.0
 11
-79.468995202583571
 21
25.328456541562371
 31
0.0
  0
LINE
  5
124E
  8
0
 62
     0
 10
-75.500244633589844
 20
37.701794169626453
 30
0.0
 11
-74.706494633589841
 21
39.076609498134253
 31
0.0
  0
LINE
  5
124F
  8
0
 62
     0
 10
-77.881494633589853
 20
33.577348184103073
 30
0.0
 11
-77.087744633589836
 21
34.952163512610859
 31
0.0
  0
LINE
  5
1250
  8
0
 62
     0
 10
-80.262744633589847
 20
29.452902198579679
 30
0.0
 11
-79.468994633589858
 21
30.827717527087469
 31
0.0
  0
LINE
  5
1251
  8
0
 62
     0
 10
-82.64399463358987
 20
25.328456213056288
 30
0.0
 11
-81.850244633589867
 21
26.703271541564082
 31
0.0
  0
LINE
  5
1252
  8
0
 62
     0
 10
-77.88149406459668
 20
39.076609169629052
 30
0.0
 11
-77.406109147033007
 21
39.900000000001278
 31
0.0
  0
LINE
  5
1253
  8
0
 62
     0
 10
-80.262744064596674
 20
34.952163184105657
 30
0.0
 11
-79.468994064596686
 21
36.326978512613451
 31
0.0
  0
LINE
  5
1254
  8
0
 62
     0
 10
-82.643994064596697
 20
30.82771719858227
 30
0.0
 11
-81.850244064596694
 21
32.202532527090071
 31
0.0
  0
LINE
  5
1255
  8
0
 62
     0
 10
-85.025244064596706
 20
26.70327121305888
 30
0.0
 11
-84.231494064596689
 21
28.07808654156668
 31
0.0
  0
LINE
  5
1256
  8
0
 62
     0
 10
-82.643993495604974
 20
36.326978184105677
 30
0.0
 11
-81.850243495604985
 21
37.701793512613477
 31
0.0
  0
LINE
  5
1257
  8
0
 62
     0
 10
-85.025243495604997
 20
32.202532198582297
 30
0.0
 11
-84.231493495604994
 21
33.57734752709009
 31
0.0
  0
LINE
  5
1258
  8
0
 62
     0
 10
-85.025242926614183
 20
37.701793184103771
 30
0.0
 11
-84.231492926614195
 21
39.076608512611571
 31
0.0
  0
LINE
  5
1259
  8
0
 62
     0
 10
-67.564593858222025
 20
37.69873116293202
 30
0.0
 11
-68.358343858222014
 21
39.073546491439807
 31
0.0
  0
LINE
  5
125A
  8
0
 62
     0
 10
-69.945843289229771
 20
36.323916162932832
 30
0.0
 11
-70.739593289229774
 21
37.698731491440618
 31
0.0
  0
LINE
  5
125B
  8
0
 62
     0
 10
-67.564593289229776
 20
32.199470177409452
 30
0.0
 11
-68.358343289229765
 21
33.574285505917238
 31
0.0
  0
LINE
  5
125C
  8
0
 62
     0
 10
-74.708342720237482
 20
39.073547148455127
 30
0.0
 11
-75.185495496551511
 21
39.900000000003558
 31
0.0
  0
LINE
  5
125D
  8
0
 62
     0
 10
-72.327092720237488
 20
34.949101162931747
 30
0.0
 11
-73.120842720237491
 21
36.32391649143954
 31
0.0
  0
LINE
  5
125E
  8
0
 62
     0
 10
-69.945842720237493
 20
30.824655177408371
 30
0.0
 11
-70.739592720237496
 21
32.19947050591616
 31
0.0
  0
LINE
  5
125F
  8
0
 62
     0
 10
-67.564592720237499
 20
26.700209191884991
 30
0.0
 11
-68.358342720237502
 21
28.07502452039278
 31
0.0
  0
LINE
  5
1260
  8
0
 62
     0
 10
-77.089592151245284
 20
37.698732148455967
 30
0.0
 11
-77.883342151245273
 21
39.073547476963761
 31
0.0
  0
LINE
  5
1261
  8
0
 62
     0
 10
-74.70834215124529
 20
33.574286162932587
 30
0.0
 11
-75.502092151245293
 21
34.949101491440381
 31
0.0
  0
LINE
  5
1262
  8
0
 62
     0
 10
-72.327092151245296
 20
29.449840177409211
 30
0.0
 11
-73.120842151245299
 21
30.824655505917001
 31
0.0
  0
LINE
  5
1263
  8
0
 62
     0
 10
-69.945842151245301
 20
25.32539419188582
 30
0.0
 11
-70.739592151245304
 21
26.700209520393621
 31
0.0
  0
LINE
  5
1264
  8
0
 62
     0
 10
-79.470841582253001
 20
36.323917148456708
 30
0.0
 11
-80.264591582253004
 21
37.698732476964501
 31
0.0
  0
LINE
  5
1265
  8
0
 62
     0
 10
-77.089591582253007
 20
32.199471162933328
 30
0.0
 11
-77.88334158225301
 21
33.574286491441121
 31
0.0
  0
LINE
  5
1266
  8
0
 62
     0
 10
-74.708341582253013
 20
28.075025177409952
 30
0.0
 11
-75.502091582253016
 21
29.449840505917741
 31
0.0
  0
LINE
  5
1267
  8
0
 62
     0
 10
-72.87523994139471
 20
24.900000000005491
 30
0.0
 11
-73.120841582253021
 21
25.325394520394362
 31
0.0
  0
LINE
  5
1268
  8
0
 62
     0
 10
-84.233341013260755
 20
39.07354813397906
 30
0.0
 11
-84.710493220582464
 21
39.900000000003907
 31
0.0
  0
LINE
  5
1269
  8
0
 62
     0
 10
-81.852091013260747
 20
34.94910214845568
 30
0.0
 11
-82.64584101326075
 21
36.32391747696348
 31
0.0
  0
LINE
  5
126A
  8
0
 62
     0
 10
-79.470841013260753
 20
30.8246561629323
 30
0.0
 11
-80.264591013260755
 21
32.199471491440093
 31
0.0
  0
LINE
  5
126B
  8
0
 62
     0
 10
-77.089591013260758
 20
26.70021017740892
 30
0.0
 11
-77.883341013260761
 21
28.07502550591671
 31
0.0
  0
LINE
  5
126C
  8
0
 62
     0
 10
-84.233340444268507
 20
33.574287148456477
 30
0.0
 11
-85.027090444268495
 21
34.949102476964271
 31
0.0
  0
LINE
  5
126D
  8
0
 62
     0
 10
-81.852090444268498
 20
29.44984116293309
 30
0.0
 11
-82.645840444268501
 21
30.824656491440891
 31
0.0
  0
LINE
  5
126E
  8
0
 62
     0
 10
-79.470840444268504
 20
25.325395177409721
 30
0.0
 11
-80.264590444268507
 21
26.700210505917511
 31
0.0
  0
LINE
  5
126F
  8
0
 62
     0
 10
-84.233339875276243
 20
28.075026162932069
 30
0.0
 11
-85.027089875276246
 21
29.449841491439859
 31
0.0
  0
LINE
  5
1270
  8
0
 62
     0
 10
-82.400237665425678
 20
24.90000000000413
 30
0.0
 11
-82.645839875276252
 21
25.325395505916489
 31
0.0
  0
LINE
  5
1271
  8
0
 62
     0
 10
-67.561016604299937
 20
26.70014316182278
 30
0.0
 11
-66.413648529774932
 21
26.70014316182278
 31
0.0
  0
LINE
  5
1272
  8
0
 62
     0
 10
-72.32351660429994
 20
26.70014316182278
 30
0.0
 11
-70.736016604299934
 21
26.70014316182278
 31
0.0
  0
LINE
  5
1273
  8
0
 62
     0
 10
-77.086016604299942
 20
26.70014316182278
 30
0.0
 11
-75.498516604299937
 21
26.70014316182278
 31
0.0
  0
LINE
  5
1274
  8
0
 62
     0
 10
-81.848516604299945
 20
26.70014316182278
 30
0.0
 11
-80.261016604299925
 21
26.70014316182278
 31
0.0
  0
LINE
  5
1275
  8
0
 62
     0
 10
-86.413648529774946
 20
26.70014316182278
 30
0.0
 11
-85.023516604299942
 21
26.70014316182278
 31
0.0
  0
LINE
  5
1276
  8
0
 62
     0
 10
-67.561016604299937
 20
29.449773161823028
 30
0.0
 11
-66.413648529774932
 21
29.449773161823028
 31
0.0
  0
LINE
  5
1277
  8
0
 62
     0
 10
-72.32351660429994
 20
29.449773161823028
 30
0.0
 11
-70.736016604299934
 21
29.449773161823028
 31
0.0
  0
LINE
  5
1278
  8
0
 62
     0
 10
-77.086016604299942
 20
29.449773161823028
 30
0.0
 11
-75.498516604299937
 21
29.449773161823028
 31
0.0
  0
LINE
  5
1279
  8
0
 62
     0
 10
-81.848516604299945
 20
29.449773161823028
 30
0.0
 11
-80.261016604299925
 21
29.449773161823028
 31
0.0
  0
LINE
  5
127A
  8
0
 62
     0
 10
-86.413648529774946
 20
29.449773161823028
 30
0.0
 11
-85.023516604299942
 21
29.449773161823028
 31
0.0
  0
LINE
  5
127B
  8
0
 62
     0
 10
-67.561016604299937
 20
32.199403161823291
 30
0.0
 11
-66.413648529774932
 21
32.199403161823291
 31
0.0
  0
LINE
  5
127C
  8
0
 62
     0
 10
-72.32351660429994
 20
32.199403161823291
 30
0.0
 11
-70.736016604299934
 21
32.199403161823291
 31
0.0
  0
LINE
  5
127D
  8
0
 62
     0
 10
-77.086016604299942
 20
32.199403161823291
 30
0.0
 11
-75.498516604299937
 21
32.199403161823291
 31
0.0
  0
LINE
  5
127E
  8
0
 62
     0
 10
-81.848516604299945
 20
32.199403161823291
 30
0.0
 11
-80.261016604299925
 21
32.199403161823291
 31
0.0
  0
LINE
  5
127F
  8
0
 62
     0
 10
-86.413648529774946
 20
32.199403161823291
 30
0.0
 11
-85.023516604299942
 21
32.199403161823291
 31
0.0
  0
LINE
  5
1280
  8
0
 62
     0
 10
-67.561016604299937
 20
34.949033161823543
 30
0.0
 11
-66.413648529774932
 21
34.949033161823543
 31
0.0
  0
LINE
  5
1281
  8
0
 62
     0
 10
-72.32351660429994
 20
34.949033161823543
 30
0.0
 11
-70.736016604299934
 21
34.949033161823543
 31
0.0
  0
LINE
  5
1282
  8
0
 62
     0
 10
-77.086016604299942
 20
34.949033161823543
 30
0.0
 11
-75.498516604299937
 21
34.949033161823543
 31
0.0
  0
LINE
  5
1283
  8
0
 62
     0
 10
-81.848516604299945
 20
34.949033161823543
 30
0.0
 11
-80.261016604299925
 21
34.949033161823543
 31
0.0
  0
LINE
  5
1284
  8
0
 62
     0
 10
-86.413648529774946
 20
34.949033161823543
 30
0.0
 11
-85.023516604299942
 21
34.949033161823543
 31
0.0
  0
LINE
  5
1285
  8
0
 62
     0
 10
-67.561016604299937
 20
37.698663161823788
 30
0.0
 11
-66.413648529774932
 21
37.698663161823788
 31
0.0
  0
LINE
  5
1286
  8
0
 62
     0
 10
-72.32351660429994
 20
37.698663161823788
 30
0.0
 11
-70.736016604299934
 21
37.698663161823788
 31
0.0
  0
LINE
  5
1287
  8
0
 62
     0
 10
-77.086016604299942
 20
37.698663161823788
 30
0.0
 11
-75.498516604299937
 21
37.698663161823788
 31
0.0
  0
LINE
  5
1288
  8
0
 62
     0
 10
-81.848516604299945
 20
37.698663161823788
 30
0.0
 11
-80.261016604299925
 21
37.698663161823788
 31
0.0
  0
LINE
  5
1289
  8
0
 62
     0
 10
-86.413648529774946
 20
37.698663161823788
 30
0.0
 11
-85.023516604299942
 21
37.698663161823788
 31
0.0
  0
ENDBLK
  5
128B
  8
0
  0
BLOCK
  8
0
  2
*X37
 70
     1
 10
0.0
 20
0.0
 30
0.0
  3
*X37
  1

  0
LINE
  5
128D
  8
0
 62
     0
 10
70.062352699800243
 20
29.452914024861339
 30
0.0
 11
70.093042608510586
 21
29.506070506027299
 31
0.0
  0
LINE
  5
128E
  8
0
 62
     0
 10
68.871727699800246
 20
27.39069103209965
 30
0.0
 11
69.26860269980024
 21
28.078098696353539
 31
0.0
  0
LINE
  5
128F
  8
0
 62
     0
 10
67.740925715715093
 20
25.432084542364471
 30
0.0
 11
68.077977699800243
 21
26.015875703591849
 31
0.0
  0
LINE
  5
1290
  8
0
 62
     0
 10
70.062352984296183
 20
32.20254451762122
 30
0.0
 11
70.409402249398212
 21
32.80365147750738
 31
0.0
  0
LINE
  5
1291
  8
0
 62
     0
 10
68.871727984296186
 20
30.14032152485953
 30
0.0
 11
69.26860298429618
 21
30.82772918911343
 31
0.0
  0
LINE
  5
1292
  8
0
 62
     0
 10
67.681102984296174
 20
28.07809853209784
 30
0.0
 11
68.077977984296183
 21
28.76550619635173
 31
0.0
  0
LINE
  5
1293
  8
0
 62
     0
 10
66.490477984296191
 20
26.01587553933614
 30
0.0
 11
66.887352984296186
 21
26.70328320359004
 31
0.0
  0
LINE
  5
1294
  8
0
 62
     0
 10
70.062353268793217
 20
34.952175010385673
 30
0.0
 11
70.143834960084845
 21
35.093305439589408
 31
0.0
  0
LINE
  5
1295
  8
0
 62
     0
 10
68.871728268793206
 20
32.889952017623983
 30
0.0
 11
69.268603268793214
 21
33.57735968187788
 31
0.0
  0
LINE
  5
1296
  8
0
 62
     0
 10
67.681103268793223
 20
30.827729024862279
 30
0.0
 11
68.077978268793217
 21
31.515136689116179
 31
0.0
  0
LINE
  5
1297
  8
0
 62
     0
 10
66.490478268793225
 20
28.765506032100589
 30
0.0
 11
66.88735326879322
 21
29.452913696354479
 31
0.0
  0
LINE
  5
1298
  8
0
 62
     0
 10
65.299853268793228
 20
26.703283039338899
 30
0.0
 11
65.696728268793223
 21
27.390690703592789
 31
0.0
  0
LINE
  5
1299
  8
0
 62
     0
 10
68.871728553289344
 20
35.639582510386937
 30
0.0
 11
69.268603553289324
 21
36.326990174640841
 31
0.0
  0
LINE
  5
129A
  8
0
 62
     0
 10
67.681103553289347
 20
33.577359517625247
 30
0.0
 11
68.077978553289341
 21
34.264767181879137
 31
0.0
  0
LINE
  5
129B
  8
0
 62
     0
 10
66.49047855328935
 20
31.515136524863561
 30
0.0
 11
66.887353553289344
 21
32.202544189117447
 31
0.0
  0
LINE
  5
129C
  8
0
 62
     0
 10
65.299853553289353
 20
29.452913532101871
 30
0.0
 11
65.696728553289347
 21
30.14032119635576
 31
0.0
  0
LINE
  5
129D
  8
0
 62
     0
 10
64.109228553289356
 20
27.39069053934017
 30
0.0
 11
64.50610355328935
 21
28.07809820359407
 31
0.0
  0
LINE
  5
129E
  8
0
 62
     0
 10
67.681103837784747
 20
36.326990010383682
 30
0.0
 11
68.077978837784741
 21
37.014397674637578
 31
0.0
  0
LINE
  5
129F
  8
0
 62
     0
 10
66.49047883778475
 20
34.264767017621992
 30
0.0
 11
66.887353837784744
 21
34.952174681875888
 31
0.0
  0
LINE
  5
12A0
  8
0
 62
     0
 10
65.299853837784752
 20
32.202544024860302
 30
0.0
 11
65.696728837784747
 21
32.889951689114199
 31
0.0
  0
LINE
  5
12A1
  8
0
 62
     0
 10
64.109228837784755
 20
30.140321032098608
 30
0.0
 11
64.506103837784735
 21
30.827728696352509
 31
0.0
  0
LINE
  5
12A2
  8
0
 62
     0
 10
63.07349031228113
 20
28.346369282569871
 30
0.0
 11
63.315478837784759
 21
28.765505703590819
 31
0.0
  0
LINE
  5
12A3
  8
0
 62
     0
 10
67.681104122280871
 20
39.07662050314746
 30
0.0
 11
67.831316761600633
 21
39.336796426388311
 31
0.0
  0
LINE
  5
12A4
  8
0
 62
     0
 10
66.490479122280874
 20
37.01439751038577
 30
0.0
 11
66.887354122280868
 21
37.701805174639667
 31
0.0
  0
LINE
  5
12A5
  8
0
 62
     0
 10
65.299854122280877
 20
34.95217451762408
 30
0.0
 11
65.696729122280871
 21
35.639582181877977
 31
0.0
  0
LINE
  5
12A6
  8
0
 62
     0
 10
64.109229122280865
 20
32.88995152486239
 30
0.0
 11
64.506104122280874
 21
33.577359189116287
 31
0.0
  0
LINE
  5
12A7
  8
0
 62
     0
 10
62.918604122280883
 20
30.8277285321007
 30
0.0
 11
63.315479122280891
 21
31.5151361963546
 31
0.0
  0
LINE
  5
12A8
  8
0
 62
     0
 10
66.490479406777183
 20
39.764028003145242
 30
0.0
 11
66.519232396636639
 21
39.813829642451338
 31
0.0
  0
LINE
  5
12A9
  8
0
 62
     0
 10
65.299854406777186
 20
37.701805010383559
 30
0.0
 11
65.69672940677718
 21
38.389212674637449
 31
0.0
  0
LINE
  5
12AA
  8
0
 62
     0
 10
64.109229406777189
 20
35.639582017621862
 30
0.0
 11
64.506104406777183
 21
36.326989681875759
 31
0.0
  0
LINE
  5
12AB
  8
0
 62
     0
 10
62.918604406777192
 20
33.577359024860172
 30
0.0
 11
63.315479406777193
 21
34.264766689114069
 31
0.0
  0
LINE
  5
12AC
  8
0
 62
     0
 10
64.109229691273683
 20
38.389212510386372
 30
0.0
 11
64.260204557856923
 21
38.650708649974462
 31
0.0
  0
LINE
  5
12AD
  8
0
 62
     0
 10
63.194368787878368
 20
36.804626943847332
 30
0.0
 11
63.315479691273687
 21
37.014397181878572
 31
0.0
  0
LINE
  5
12AE
  8
0
 62
     0
 10
66.885506320129807
 20
39.073536307699491
 30
0.0
 11
66.488631320129812
 21
39.760943971953381
 31
0.0
  0
LINE
  5
12AF
  8
0
 62
     0
 10
68.076131320129804
 20
37.011313314937802
 30
0.0
 11
67.679256320129809
 21
37.698720979191691
 31
0.0
  0
LINE
  5
12B0
  8
0
 62
     0
 10
69.266756320129801
 20
34.949090322176112
 30
0.0
 11
68.869881320129807
 21
35.636497986430001
 31
0.0
  0
LINE
  5
12B1
  8
0
 62
     0
 10
70.403220534057624
 20
32.980676562669288
 30
0.0
 11
70.060506320129804
 21
33.574274993668311
 31
0.0
  0
LINE
  5
12B2
  8
0
 62
     0
 10
65.694881604625934
 20
38.386128807698022
 30
0.0
 11
65.298006604625954
 21
39.073536471951918
 31
0.0
  0
LINE
  5
12B3
  8
0
 62
     0
 10
66.885506604625945
 20
36.323905814936332
 30
0.0
 11
66.488631604625951
 21
37.011313479190228
 31
0.0
  0
LINE
  5
12B4
  8
0
 62
     0
 10
68.076131604625942
 20
34.261682822174642
 30
0.0
 11
67.679256604625934
 21
34.949090486428538
 31
0.0
  0
LINE
  5
12B5
  8
0
 62
     0
 10
69.26675660462594
 20
32.199459829412952
 30
0.0
 11
68.869881604625945
 21
32.886867493666848
 31
0.0
  0
LINE
  5
12B6
  8
0
 62
     0
 10
70.272491780908325
 20
30.457475405132609
 30
0.0
 11
70.060506604625942
 21
30.824644500905158
 31
0.0
  0
LINE
  5
12B7
  8
0
 62
     0
 10
64.504256889122061
 20
37.698721307698442
 30
0.0
 11
64.107381889122067
 21
38.386128971952338
 31
0.0
  0
LINE
  5
12B8
  8
0
 62
     0
 10
65.694881889122058
 20
35.636498314936752
 30
0.0
 11
65.298006889122064
 21
36.323905979190648
 31
0.0
  0
LINE
  5
12B9
  8
0
 62
     0
 10
66.885506889122055
 20
33.574275322175062
 30
0.0
 11
66.488631889122061
 21
34.261682986428958
 31
0.0
  0
LINE
  5
12BA
  8
0
 62
     0
 10
68.076131889122053
 20
31.512052329413368
 30
0.0
 11
67.679256889122058
 21
32.199459993667269
 31
0.0
  0
LINE
  5
12BB
  8
0
 62
     0
 10
69.266756889122036
 20
29.449829336651678
 30
0.0
 11
68.869881889122055
 21
30.137237000905579
 31
0.0
  0
LINE
  5
12BC
  8
0
 62
     0
 10
63.313632173618188
 20
37.011313807698841
 30
0.0
 11
63.294210120766493
 21
37.044953790025282
 31
0.0
  0
LINE
  5
12BD
  8
0
 62
     0
 10
64.504257173618186
 20
34.949090814937151
 30
0.0
 11
64.107382173618191
 21
35.636498479191047
 31
0.0
  0
LINE
  5
12BE
  8
0
 62
     0
 10
65.694882173618183
 20
32.886867822175461
 30
0.0
 11
65.298007173618188
 21
33.574275486429357
 31
0.0
  0
LINE
  5
12BF
  8
0
 62
     0
 10
66.88550717361818
 20
30.824644829413771
 30
0.0
 11
66.488632173618186
 21
31.512052493667671
 31
0.0
  0
LINE
  5
12C0
  8
0
 62
     0
 10
68.076132173618177
 20
28.762421836652081
 30
0.0
 11
67.679257173618183
 21
29.449829500905981
 31
0.0
  0
LINE
  5
12C1
  8
0
 62
     0
 10
69.117577913235664
 20
26.958584902308449
 30
0.0
 11
68.869882173618166
 21
27.387606508144291
 31
0.0
  0
LINE
  5
12C2
  8
0
 62
     0
 10
63.313632458114327
 20
34.261683314937521
 30
0.0
 11
62.916757458114333
 21
34.949090979191411
 31
0.0
  0
LINE
  5
12C3
  8
0
 62
     0
 10
64.504257458114324
 20
32.199460322175831
 30
0.0
 11
64.10738245811433
 21
32.886867986429721
 31
0.0
  0
LINE
  5
12C4
  8
0
 62
     0
 10
65.694882458114321
 20
30.13723732941413
 30
0.0
 11
65.298007458114327
 21
30.824644993668031
 31
0.0
  0
LINE
  5
12C5
  8
0
 62
     0
 10
66.885507458114319
 20
28.075014336652441
 30
0.0
 11
66.488632458114324
 21
28.762422000906341
 31
0.0
  0
LINE
  5
12C6
  8
0
 62
     0
 10
68.076132458114316
 20
26.012791343890751
 30
0.0
 11
67.679257458114321
 21
26.700199008144651
 31
0.0
  0
LINE
  5
12C7
  8
0
 62
     0
 10
63.31363274261043
 20
31.512052822176251
 30
0.0
 11
62.916757742610429
 21
32.199460486430148
 31
0.0
  0
LINE
  5
12C8
  8
0
 62
     0
 10
64.50425774261042
 20
29.449829829414561
 30
0.0
 11
64.107382742610426
 21
30.137237493668461
 31
0.0
  0
LINE
  5
12C9
  8
0
 62
     0
 10
65.694882742610417
 20
27.387606836652871
 30
0.0
 11
65.298007742610423
 21
28.075014500906761
 31
0.0
  0
LINE
  5
12CA
  8
0
 62
     0
 10
66.885507742610415
 20
25.325383843891181
 30
0.0
 11
66.48863274261042
 21
26.012791508145071
 31
0.0
  0
LINE
  5
12CB
  8
0
 62
     0
 10
63.313633027106569
 20
28.762422329413109
 30
0.0
 11
62.91675802710656
 21
29.449829993666999
 31
0.0
  0
LINE
  5
12CC
  8
0
 62
     0
 10
64.504258027106559
 20
26.700199336651419
 30
0.0
 11
64.107383027106565
 21
27.387607000905309
 31
0.0
  0
LINE
  5
12CD
  8
0
 62
     0
 10
65.312551063390515
 20
25.30019473040349
 30
0.0
 11
65.298008027106562
 21
25.325384008143619
 31
0.0
  0
LINE
  5
12CE
  8
0
 62
     0
 10
66.889101212809337
 20
25.32532816182357
 30
0.0
 11
67.563614104155945
 21
25.32532816182357
 31
0.0
  0
LINE
  5
12CF
  8
0
 62
     0
 10
65.266229774659223
 20
25.32532816182357
 30
0.0
 11
65.301601212809331
 21
25.32532816182357
 31
0.0
  0
LINE
  5
12D0
  8
0
 62
     0
 10
66.889101212808967
 20
26.70014316182278
 30
0.0
 11
67.682851212808956
 21
26.70014316182278
 31
0.0
  0
LINE
  5
12D1
  8
0
 62
     0
 10
64.507851212808959
 20
26.70014316182278
 30
0.0
 11
65.301601212808961
 21
26.70014316182278
 31
0.0
  0
LINE
  5
12D2
  8
0
 62
     0
 10
69.270351212808976
 20
28.074958161823812
 30
0.0
 11
69.655075803962987
 21
28.074958161823812
 31
0.0
  0
LINE
  5
12D3
  8
0
 62
     0
 10
66.889101212808967
 20
28.074958161823812
 30
0.0
 11
67.682851212808956
 21
28.074958161823812
 31
0.0
  0
LINE
  5
12D4
  8
0
 62
     0
 10
64.507851212808959
 20
28.074958161823812
 30
0.0
 11
65.301601212808961
 21
28.074958161823812
 31
0.0
  0
LINE
  5
12D5
  8
0
 62
     0
 10
69.27035121280899
 20
29.449773161823028
 30
0.0
 11
70.064101212808993
 21
29.449773161823028
 31
0.0
  0
LINE
  5
12D6
  8
0
 62
     0
 10
66.889101212808981
 20
29.449773161823028
 30
0.0
 11
67.682851212808984
 21
29.449773161823028
 31
0.0
  0
LINE
  5
12D7
  8
0
 62
     0
 10
64.507851212808973
 20
29.449773161823028
 30
0.0
 11
65.301601212808976
 21
29.449773161823028
 31
0.0
  0
LINE
  5
12D8
  8
0
 62
     0
 10
62.749954803559369
 20
29.449773161823028
 30
0.0
 11
62.92035121280896
 21
29.449773161823028
 31
0.0
  0
LINE
  5
12D9
  8
0
 62
     0
 10
69.27035121280899
 20
30.824588161824071
 30
0.0
 11
70.064101212808993
 21
30.824588161824071
 31
0.0
  0
LINE
  5
12DA
  8
0
 62
     0
 10
66.889101212808981
 20
30.824588161824071
 30
0.0
 11
67.682851212808984
 21
30.824588161824071
 31
0.0
  0
LINE
  5
12DB
  8
0
 62
     0
 10
64.507851212808973
 20
30.824588161824071
 30
0.0
 11
65.301601212808976
 21
30.824588161824071
 31
0.0
  0
LINE
  5
12DC
  8
0
 62
     0
 10
62.508355495234362
 20
30.824588161824071
 30
0.0
 11
62.92035121280896
 21
30.824588161824071
 31
0.0
  0
LINE
  5
12DD
  8
0
 62
     0
 10
69.27035121280899
 20
32.199403161823291
 30
0.0
 11
70.064101212808993
 21
32.199403161823291
 31
0.0
  0
LINE
  5
12DE
  8
0
 62
     0
 10
66.889101212808981
 20
32.199403161823291
 30
0.0
 11
67.682851212808984
 21
32.199403161823291
 31
0.0
  0
LINE
  5
12DF
  8
0
 62
     0
 10
64.507851212808973
 20
32.199403161823291
 30
0.0
 11
65.301601212808976
 21
32.199403161823291
 31
0.0
  0
LINE
  5
12E0
  8
0
 62
     0
 10
62.416618687571827
 20
32.199403161823291
 30
0.0
 11
62.92035121280896
 21
32.199403161823291
 31
0.0
  0
LINE
  5
12E1
  8
0
 62
     0
 10
69.27035121280899
 20
33.5742181618225
 30
0.0
 11
70.064101212808993
 21
33.5742181618225
 31
0.0
  0
LINE
  5
12E2
  8
0
 62
     0
 10
66.889101212808981
 20
33.5742181618225
 30
0.0
 11
67.682851212808984
 21
33.5742181618225
 31
0.0
  0
LINE
  5
12E3
  8
0
 62
     0
 10
64.507851212808973
 20
33.5742181618225
 30
0.0
 11
65.301601212808976
 21
33.5742181618225
 31
0.0
  0
LINE
  5
12E4
  8
0
 62
     0
 10
62.464290769637962
 20
33.5742181618225
 30
0.0
 11
62.92035121280896
 21
33.5742181618225
 31
0.0
  0
LINE
  5
12E5
  8
0
 62
     0
 10
69.27035121280899
 20
34.949033161823543
 30
0.0
 11
70.064101212808993
 21
34.949033161823543
 31
0.0
  0
LINE
  5
12E6
  8
0
 62
     0
 10
66.889101212808981
 20
34.949033161823543
 30
0.0
 11
67.682851212808984
 21
34.949033161823543
 31
0.0
  0
LINE
  5
12E7
  8
0
 62
     0
 10
64.507851212808973
 20
34.949033161823543
 30
0.0
 11
65.301601212808976
 21
34.949033161823543
 31
0.0
  0
LINE
  5
12E8
  8
0
 62
     0
 10
62.656673062536363
 20
34.949033161823543
 30
0.0
 11
62.92035121280896
 21
34.949033161823543
 31
0.0
  0
LINE
  5
12E9
  8
0
 62
     0
 10
69.270351212808976
 20
36.32384816182276
 30
0.0
 11
69.81157806514058
 21
36.32384816182276
 31
0.0
  0
LINE
  5
12EA
  8
0
 62
     0
 10
66.889101212808967
 20
36.32384816182276
 30
0.0
 11
67.682851212808956
 21
36.32384816182276
 31
0.0
  0
LINE
  5
12EB
  8
0
 62
     0
 10
64.507851212808959
 20
36.32384816182276
 30
0.0
 11
65.301601212808961
 21
36.32384816182276
 31
0.0
  0
LINE
  5
12EC
  8
0
 62
     0
 10
66.889101212808967
 20
37.698663161823788
 30
0.0
 11
67.682851212808956
 21
37.698663161823788
 31
0.0
  0
LINE
  5
12ED
  8
0
 62
     0
 10
64.507851212808959
 20
37.698663161823788
 30
0.0
 11
65.301601212808961
 21
37.698663161823788
 31
0.0
  0
LINE
  5
12EE
  8
0
 62
     0
 10
66.889101212809337
 20
39.073478161822997
 30
0.0
 11
67.682851212809339
 21
39.073478161822997
 31
0.0
  0
LINE
  5
12EF
  8
0
 62
     0
 10
64.668319530874214
 20
39.073478161822997
 30
0.0
 11
65.301601212809331
 21
39.073478161822997
 31
0.0
  0
ENDBLK
  5
12F1
  8
0
  0
BLOCK
  8
0
  2
*X38
 70
     1
 10
0.0
 20
0.0
 30
0.0
  3
*X38
  1

  0
LINE
  5
12F3
  8
0
 62
     0
 10
83.630426249611446
 20
39.102703669560022
 30
0.0
 11
82.933129919172174
 21
39.799999999999272
 31
0.0
  0
LINE
  5
12F4
  8
0
 62
     0
 10
83.275507881598955
 20
38.33509002243909
 30
0.0
 11
81.810597904038346
 21
39.799999999999727
 31
0.0
  0
LINE
  5
12F5
  8
0
 62
     0
 10
82.957590228531444
 20
37.530475660371387
 30
0.0
 11
80.688065888903566
 21
39.799999999999272
 31
0.0
  0
LINE
  5
12F6
  8
0
 62
     0
 10
82.679557865596962
 20
36.6859760081743
 30
0.0
 11
79.565533873771528
 21
39.799999999999727
 31
0.0
  0
LINE
  5
12F7
  8
0
 62
     0
 10
82.445160612254767
 20
35.797841246381267
 30
0.0
 11
78.443001858636762
 21
39.799999999999272
 31
0.0
  0
LINE
  5
12F8
  8
0
 62
     0
 10
82.259337693726138
 20
34.861132149776488
 30
0.0
 11
77.320469843504725
 21
39.799999999997908
 31
0.0
  0
LINE
  5
12F9
  8
0
 62
     0
 10
82.128734191237086
 20
33.869203637132159
 30
0.0
 11
76.197937828369959
 21
39.799999999999272
 31
0.0
  0
LINE
  5
12FA
  8
0
 62
     0
 10
82.062568177094349
 20
32.812837636141467
 30
0.0
 11
75.075405813237921
 21
39.799999999997461
 31
0.0
  0
LINE
  5
12FB
  8
0
 62
     0
 10
82.074190744516258
 20
31.678683053586159
 30
0.0
 11
73.952873798103155
 21
39.799999999999272
 31
0.0
  0
LINE
  5
12FC
  8
0
 62
     0
 10
82.184166844770061
 20
30.446174938198968
 30
0.0
 11
72.830341782971573
 21
39.799999999997461
 31
0.0
  0
LINE
  5
12FD
  8
0
 62
     0
 10
82.427220485328235
 20
29.08058928250739
 30
0.0
 11
71.707809767836352
 21
39.799999999999272
 31
0.0
  0
LINE
  5
12FE
  8
0
 62
     0
 10
82.871456599631074
 20
27.51382115306933
 30
0.0
 11
70.58527775270295
 21
39.799999999997461
 31
0.0
  0
LINE
  5
12FF
  8
0
 62
     0
 10
83.696180638432907
 20
25.566565099135921
 30
0.0
 11
69.462745737569549
 21
39.799999999999272
 31
0.0
  0
LINE
  5
1300
  8
0
 62
     0
 10
83.140213722434495
 20
24.999999999999091
 30
0.0
 11
69.862966420595058
 21
38.277247301838543
 31
0.0
  0
LINE
  5
1301
  8
0
 62
     0
 10
82.017681707302472
 20
24.99999999999773
 30
0.0
 11
70.47643113483673
 21
36.541250572463468
 31
0.0
  0
LINE
  5
1302
  8
0
 62
     0
 10
80.895149692166356
 20
25.000000000000458
 30
0.0
 11
70.816886039281144
 21
35.078263652885653
 31
0.0
  0
LINE
  5
1303
  8
0
 62
     0
 10
79.772617677034305
 20
24.999999999999091
 30
0.0
 11
70.993655122110795
 21
33.7789625549226
 31
0.0
  0
LINE
  5
1304
  8
0
 62
     0
 10
78.650085661899539
 20
25.000000000000458
 30
0.0
 11
71.055654585306002
 21
32.594431076593992
 31
0.0
  0
LINE
  5
1305
  8
0
 62
     0
 10
77.527553646765682
 20
24.999999999999091
 30
0.0
 11
71.029859324525205
 21
31.497694322239571
 31
0.0
  0
LINE
  5
1306
  8
0
 62
     0
 10
76.405021631632735
 20
25.000000000000458
 30
0.0
 11
70.933009493383906
 21
30.472012138249291
 31
0.0
  0
LINE
  5
1307
  8
0
 62
     0
 10
75.282489616498879
 20
24.999999999999091
 30
0.0
 11
70.776313624917293
 21
29.50617599158068
 31
0.0
  0
LINE
  5
1308
  8
0
 62
     0
 10
74.159957601365932
 20
24.999999999998639
 30
0.0
 11
70.56767847692845
 21
28.592279124436121
 31
0.0
  0
LINE
  5
1309
  8
0
 62
     0
 10
73.037425586232075
 20
24.999999999999091
 30
0.0
 11
70.312891464011486
 21
27.724534122219669
 31
0.0
  0
LINE
  5
130A
  8
0
 62
     0
 10
71.914893571099114
 20
24.999999999998639
 30
0.0
 11
70.016300538434734
 21
26.89859303266303
 31
0.0
  0
LINE
  5
130B
  8
0
 62
     0
 10
70.792361555965272
 20
24.999999999999091
 30
0.0
 11
69.681229629361951
 21
26.111131926602411
 31
0.0
  0
LINE
  5
130C
  8
0
 62
     0
 10
69.669829540830506
 20
24.999999999998639
 30
0.0
 11
69.310244557377246
 21
25.359584983451899
 31
0.0
  0
LINE
  5
130D
  8
0
 62
     0
 10
83.541579015985917
 20
25.000000000001819
 30
0.0
 11
83.837454699634705
 21
25.295875683650589
 31
0.0
  0
LINE
  5
130E
  8
0
 62
     0
 10
82.419047000852515
 20
25.0
 30
0.0
 11
83.463448438391424
 21
26.044401437538909
 31
0.0
  0
LINE
  5
130F
  8
0
 62
     0
 10
81.296514985717295
 20
24.999999999998181
 30
0.0
 11
83.125162807422385
 21
26.828647821703271
 31
0.0
  0
LINE
  5
1310
  8
0
 62
     0
 10
80.173982970583907
 20
24.999999999998181
 30
0.0
 11
82.825107036034765
 21
27.651124065449039
 31
0.0
  0
LINE
  5
1311
  8
0
 62
     0
 10
79.05145095545231
 20
25.000000000001819
 30
0.0
 11
82.566530190119011
 21
28.515079234668519
 31
0.0
  0
LINE
  5
1312
  8
0
 62
     0
 10
77.928918940313451
 20
24.999999999996358
 30
0.0
 11
82.353677431603515
 21
29.424758491286411
 31
0.0
  0
LINE
  5
1313
  8
0
 62
     0
 10
76.806386925183673
 20
25.0
 30
0.0
 11
82.192188988026828
 21
30.38580206284314
 31
0.0
  0
LINE
  5
1314
  8
0
 62
     0
 10
75.683854910048467
 20
24.999999999998181
 30
0.0
 11
82.089750116070704
 21
31.405895206020428
 31
0.0
  0
LINE
  5
1315
  8
0
 62
     0
 10
74.561322894915065
 20
24.999999999998181
 30
0.0
 11
82.057214763299271
 21
32.495891868382387
 31
0.0
  0
LINE
  5
1316
  8
0
 62
     0
 10
73.438790879783483
 20
25.000000000001819
 30
0.0
 11
82.110707575502602
 21
33.671916695720938
 31
0.0
  0
LINE
  5
1317
  8
0
 62
     0
 10
72.316258864648262
 20
25.0
 30
0.0
 11
82.276007111786384
 21
34.959748247138123
 31
0.0
  0
LINE
  5
1318
  8
0
 62
     0
 10
71.19372684951486
 20
25.0
 30
0.0
 11
82.599266265546248
 21
36.405539416031388
 31
0.0
  0
LINE
  5
1319
  8
0
 62
     0
 10
70.071194834381444
 20
24.999999999998181
 30
0.0
 11
83.181135434009775
 21
38.109940599626498
 31
0.0
  0
LINE
  5
131A
  8
0
 62
     0
 10
69.312482894971254
 20
25.363820075723201
 30
0.0
 11
83.748662819247329
 21
39.799999999999272
 31
0.0
  0
LINE
  5
131B
  8
0
 62
     0
 10
70.190082089386124
 20
27.363951285271469
 30
0.0
 11
82.626130804113927
 21
39.799999999997461
 31
0.0
  0
LINE
  5
131C
  8
0
 62
     0
 10
70.657370153956435
 20
28.953771364975179
 30
0.0
 11
81.503598788980526
 21
39.799999999999272
 31
0.0
  0
LINE
  5
131D
  8
0
 62
     0
 10
70.914465308933345
 20
30.333398535085511
 30
0.0
 11
80.381066773845305
 21
39.799999999997461
 31
0.0
  0
LINE
  5
131E
  8
0
 62
     0
 10
71.034343535413413
 20
31.575808776698981
 30
0.0
 11
79.258534758711903
 21
39.799999999997461
 31
0.0
  0
LINE
  5
131F
  8
0
 62
     0
 10
71.053561644379442
 20
32.717558900800213
 30
0.0
 11
78.13600274358032
 21
39.800000000001091
 31
0.0
  0
LINE
  5
1320
  8
0
 62
     0
 10
70.993552210900816
 20
33.780081482454989
 30
0.0
 11
77.0134707284451
 21
39.799999999999272
 31
0.0
  0
LINE
  5
1321
  8
0
 62
     0
 10
70.868138898908001
 20
34.777200185595582
 30
0.0
 11
75.890938713311684
 21
39.799999999999272
 31
0.0
  0
LINE
  5
1322
  8
0
 62
     0
 10
70.686823159308915
 20
35.718416461129891
 30
0.0
 11
74.768406698176463
 21
39.799999999997461
 31
0.0
  0
LINE
  5
1323
  8
0
 62
     0
 10
70.456432514791231
 20
36.610557831745609
 30
0.0
 11
73.645874683046713
 21
39.800000000001091
 31
0.0
  0
LINE
  5
1324
  8
0
 62
     0
 10
70.182030362302612
 20
37.458687694392211
 30
0.0
 11
72.523342667911493
 21
39.800000000001091
 31
0.0
  0
LINE
  5
1325
  8
0
 62
     0
 10
69.867454988985628
 20
38.266644336206809
 30
0.0
 11
71.400810652778091
 21
39.799999999999272
 31
0.0
  0
LINE
  5
1326
  8
0
 62
     0
 10
69.515656538882467
 20
39.037377901237051
 30
0.0
 11
70.27827863764287
 21
39.799999999997461
 31
0.0
  0
LINE
  5
1327
  8
0
 62
     0
 10
69.128916468222087
 20
39.773169845710072
 30
0.0
 11
69.155746622509454
 21
39.799999999997461
 31
0.0
  0
ENDBLK
  5
1329
  8
0
  0
BLOCK
  8
0
  2
*X39
 70
     1
 10
0.0
 20
0.0
 30
0.0
  3
*X39
  1

  0
LINE
  5
132B
  8
0
 62
     0
 10
-68.356496909558146
 20
28.07808818410523
 30
0.0
 11
-67.562746909558143
 21
29.45290351261303
 31
0.0
  0
LINE
  5
132C
  8
0
 62
     0
 10
-70.19136697815884
 20
24.900000000001459
 30
0.0
 11
-69.943996909558152
 21
25.32845752708964
 31
0.0
  0
LINE
  5
132D
  8
0
 62
     0
 10
-68.356496340566252
 20
33.577349169629009
 30
0.0
 11
-67.56274634056625
 21
34.95216449813681
 31
0.0
  0
LINE
  5
132E
  8
0
 62
     0
 10
-70.737746340566261
 20
29.452903184105619
 30
0.0
 11
-69.943996340566258
 21
30.827718512613419
 31
0.0
  0
LINE
  5
132F
  8
0
 62
     0
 10
-73.11899634056627
 20
25.328457198582232
 30
0.0
 11
-72.325246340566267
 21
26.703272527090022
 31
0.0
  0
LINE
  5
1330
  8
0
 62
     0
 10
-68.356495771573989
 20
39.076610155151592
 30
0.0
 11
-67.881111423002025
 21
39.900000000001278
 31
0.0
  0
LINE
  5
1331
  8
0
 62
     0
 10
-70.737745771573998
 20
34.952164169628212
 30
0.0
 11
-69.943995771573995
 21
36.326979498135998
 31
0.0
  0
LINE
  5
1332
  8
0
 62
     0
 10
-73.118995771574006
 20
30.827718184104821
 30
0.0
 11
-72.325245771574004
 21
32.202533512612611
 31
0.0
  0
LINE
  5
1333
  8
0
 62
     0
 10
-75.500245771574015
 20
26.703272198581431
 30
0.0
 11
-74.706495771574012
 21
28.07808752708922
 31
0.0
  0
LINE
  5
1334
  8
0
 62
     0
 10
-73.118995202583534
 20
36.326979169624742
 30
0.0
 11
-72.325245202583545
 21
37.701794498132529
 31
0.0
  0
LINE
  5
1335
  8
0
 62
     0
 10
-75.500245202583557
 20
32.202533184101348
 30
0.0
 11
-74.706495202583554
 21
33.577348512609142
 31
0.0
  0
LINE
  5
1336
  8
0
 62
     0
 10
-77.881495202583565
 20
28.078087198577961
 30
0.0
 11
-77.087745202583562
 21
29.452902527085762
 31
0.0
  0
LINE
  5
1337
  8
0
 62
     0
 10
-79.716364702189821
 20
24.900000000001459
 30
0.0
 11
-79.468995202583571
 21
25.328456541562371
 31
0.0
  0
LINE
  5
1338
  8
0
 62
     0
 10
-75.500244633589844
 20
37.701794169626453
 30
0.0
 11
-74.706494633589841
 21
39.076609498134253
 31
0.0
  0
LINE
  5
1339
  8
0
 62
     0
 10
-77.881494633589853
 20
33.577348184103073
 30
0.0
 11
-77.087744633589836
 21
34.952163512610859
 31
0.0
  0
LINE
  5
133A
  8
0
 62
     0
 10
-80.262744633589847
 20
29.452902198579679
 30
0.0
 11
-79.468994633589858
 21
30.827717527087469
 31
0.0
  0
LINE
  5
133B
  8
0
 62
     0
 10
-82.64399463358987
 20
25.328456213056288
 30
0.0
 11
-81.850244633589867
 21
26.703271541564082
 31
0.0
  0
LINE
  5
133C
  8
0
 62
     0
 10
-77.88149406459668
 20
39.076609169629052
 30
0.0
 11
-77.406109147033007
 21
39.900000000001278
 31
0.0
  0
LINE
  5
133D
  8
0
 62
     0
 10
-80.262744064596674
 20
34.952163184105657
 30
0.0
 11
-79.468994064596686
 21
36.326978512613451
 31
0.0
  0
LINE
  5
133E
  8
0
 62
     0
 10
-82.643994064596697
 20
30.82771719858227
 30
0.0
 11
-81.850244064596694
 21
32.202532527090071
 31
0.0
  0
LINE
  5
133F
  8
0
 62
     0
 10
-85.025244064596706
 20
26.70327121305888
 30
0.0
 11
-84.231494064596689
 21
28.07808654156668
 31
0.0
  0
LINE
  5
1340
  8
0
 62
     0
 10
-82.643993495604974
 20
36.326978184105677
 30
0.0
 11
-81.850243495604985
 21
37.701793512613477
 31
0.0
  0
LINE
  5
1341
  8
0
 62
     0
 10
-85.025243495604997
 20
32.202532198582297
 30
0.0
 11
-84.231493495604994
 21
33.57734752709009
 31
0.0
  0
LINE
  5
1342
  8
0
 62
     0
 10
-85.025242926614183
 20
37.701793184103771
 30
0.0
 11
-84.231492926614195
 21
39.076608512611571
 31
0.0
  0
LINE
  5
1343
  8
0
 62
     0
 10
-67.564593858222025
 20
37.69873116293202
 30
0.0
 11
-68.358343858222014
 21
39.073546491439807
 31
0.0
  0
LINE
  5
1344
  8
0
 62
     0
 10
-69.945843289229771
 20
36.323916162932832
 30
0.0
 11
-70.739593289229774
 21
37.698731491440618
 31
0.0
  0
LINE
  5
1345
  8
0
 62
     0
 10
-67.564593289229776
 20
32.199470177409452
 30
0.0
 11
-68.358343289229765
 21
33.574285505917238
 31
0.0
  0
LINE
  5
1346
  8
0
 62
     0
 10
-74.708342720237482
 20
39.073547148455127
 30
0.0
 11
-75.185495496551511
 21
39.900000000003558
 31
0.0
  0
LINE
  5
1347
  8
0
 62
     0
 10
-72.327092720237488
 20
34.949101162931747
 30
0.0
 11
-73.120842720237491
 21
36.32391649143954
 31
0.0
  0
LINE
  5
1348
  8
0
 62
     0
 10
-69.945842720237493
 20
30.824655177408371
 30
0.0
 11
-70.739592720237496
 21
32.19947050591616
 31
0.0
  0
LINE
  5
1349
  8
0
 62
     0
 10
-67.564592720237499
 20
26.700209191884991
 30
0.0
 11
-68.358342720237502
 21
28.07502452039278
 31
0.0
  0
LINE
  5
134A
  8
0
 62
     0
 10
-77.089592151245284
 20
37.698732148455967
 30
0.0
 11
-77.883342151245273
 21
39.073547476963761
 31
0.0
  0
LINE
  5
134B
  8
0
 62
     0
 10
-74.70834215124529
 20
33.574286162932587
 30
0.0
 11
-75.502092151245293
 21
34.949101491440381
 31
0.0
  0
LINE
  5
134C
  8
0
 62
     0
 10
-72.327092151245296
 20
29.449840177409211
 30
0.0
 11
-73.120842151245299
 21
30.824655505917001
 31
0.0
  0
LINE
  5
134D
  8
0
 62
     0
 10
-69.945842151245301
 20
25.32539419188582
 30
0.0
 11
-70.739592151245304
 21
26.700209520393621
 31
0.0
  0
LINE
  5
134E
  8
0
 62
     0
 10
-79.470841582253001
 20
36.323917148456708
 30
0.0
 11
-80.264591582253004
 21
37.698732476964501
 31
0.0
  0
LINE
  5
134F
  8
0
 62
     0
 10
-77.089591582253007
 20
32.199471162933328
 30
0.0
 11
-77.88334158225301
 21
33.574286491441121
 31
0.0
  0
LINE
  5
1350
  8
0
 62
     0
 10
-74.708341582253013
 20
28.075025177409952
 30
0.0
 11
-75.502091582253016
 21
29.449840505917741
 31
0.0
  0
LINE
  5
1351
  8
0
 62
     0
 10
-72.87523994139471
 20
24.900000000005491
 30
0.0
 11
-73.120841582253021
 21
25.325394520394362
 31
0.0
  0
LINE
  5
1352
  8
0
 62
     0
 10
-84.233341013260755
 20
39.07354813397906
 30
0.0
 11
-84.710493220582464
 21
39.900000000003907
 31
0.0
  0
LINE
  5
1353
  8
0
 62
     0
 10
-81.852091013260747
 20
34.94910214845568
 30
0.0
 11
-82.64584101326075
 21
36.32391747696348
 31
0.0
  0
LINE
  5
1354
  8
0
 62
     0
 10
-79.470841013260753
 20
30.8246561629323
 30
0.0
 11
-80.264591013260755
 21
32.199471491440093
 31
0.0
  0
LINE
  5
1355
  8
0
 62
     0
 10
-77.089591013260758
 20
26.70021017740892
 30
0.0
 11
-77.883341013260761
 21
28.07502550591671
 31
0.0
  0
LINE
  5
1356
  8
0
 62
     0
 10
-84.233340444268507
 20
33.574287148456477
 30
0.0
 11
-85.027090444268495
 21
34.949102476964271
 31
0.0
  0
LINE
  5
1357
  8
0
 62
     0
 10
-81.852090444268498
 20
29.44984116293309
 30
0.0
 11
-82.645840444268501
 21
30.824656491440891
 31
0.0
  0
LINE
  5
1358
  8
0
 62
     0
 10
-79.470840444268504
 20
25.325395177409721
 30
0.0
 11
-80.264590444268507
 21
26.700210505917511
 31
0.0
  0
LINE
  5
1359
  8
0
 62
     0
 10
-84.233339875276243
 20
28.075026162932069
 30
0.0
 11
-85.027089875276246
 21
29.449841491439859
 31
0.0
  0
LINE
  5
135A
  8
0
 62
     0
 10
-82.400237665425678
 20
24.90000000000413
 30
0.0
 11
-82.645839875276252
 21
25.325395505916489
 31
0.0
  0
LINE
  5
135B
  8
0
 62
     0
 10
-67.561016604299937
 20
26.70014316182278
 30
0.0
 11
-66.413648529774932
 21
26.70014316182278
 31
0.0
  0
LINE
  5
135C
  8
0
 62
     0
 10
-72.32351660429994
 20
26.70014316182278
 30
0.0
 11
-70.736016604299934
 21
26.70014316182278
 31
0.0
  0
LINE
  5
135D
  8
0
 62
     0
 10
-77.086016604299942
 20
26.70014316182278
 30
0.0
 11
-75.498516604299937
 21
26.70014316182278
 31
0.0
  0
LINE
  5
135E
  8
0
 62
     0
 10
-81.848516604299945
 20
26.70014316182278
 30
0.0
 11
-80.261016604299925
 21
26.70014316182278
 31
0.0
  0
LINE
  5
135F
  8
0
 62
     0
 10
-86.413648529774946
 20
26.70014316182278
 30
0.0
 11
-85.023516604299942
 21
26.70014316182278
 31
0.0
  0
LINE
  5
1360
  8
0
 62
     0
 10
-67.561016604299937
 20
29.449773161823028
 30
0.0
 11
-66.413648529774932
 21
29.449773161823028
 31
0.0
  0
LINE
  5
1361
  8
0
 62
     0
 10
-72.32351660429994
 20
29.449773161823028
 30
0.0
 11
-70.736016604299934
 21
29.449773161823028
 31
0.0
  0
LINE
  5
1362
  8
0
 62
     0
 10
-77.086016604299942
 20
29.449773161823028
 30
0.0
 11
-75.498516604299937
 21
29.449773161823028
 31
0.0
  0
LINE
  5
1363
  8
0
 62
     0
 10
-81.848516604299945
 20
29.449773161823028
 30
0.0
 11
-80.261016604299925
 21
29.449773161823028
 31
0.0
  0
LINE
  5
1364
  8
0
 62
     0
 10
-86.413648529774946
 20
29.449773161823028
 30
0.0
 11
-85.023516604299942
 21
29.449773161823028
 31
0.0
  0
LINE
  5
1365
  8
0
 62
     0
 10
-67.561016604299937
 20
32.199403161823291
 30
0.0
 11
-66.413648529774932
 21
32.199403161823291
 31
0.0
  0
LINE
  5
1366
  8
0
 62
     0
 10
-72.32351660429994
 20
32.199403161823291
 30
0.0
 11
-70.736016604299934
 21
32.199403161823291
 31
0.0
  0
LINE
  5
1367
  8
0
 62
     0
 10
-77.086016604299942
 20
32.199403161823291
 30
0.0
 11
-75.498516604299937
 21
32.199403161823291
 31
0.0
  0
LINE
  5
1368
  8
0
 62
     0
 10
-81.848516604299945
 20
32.199403161823291
 30
0.0
 11
-80.261016604299925
 21
32.199403161823291
 31
0.0
  0
LINE
  5
1369
  8
0
 62
     0
 10
-86.413648529774946
 20
32.199403161823291
 30
0.0
 11
-85.023516604299942
 21
32.199403161823291
 31
0.0
  0
LINE
  5
136A
  8
0
 62
     0
 10
-67.561016604299937
 20
34.949033161823543
 30
0.0
 11
-66.413648529774932
 21
34.949033161823543
 31
0.0
  0
LINE
  5
136B
  8
0
 62
     0
 10
-72.32351660429994
 20
34.949033161823543
 30
0.0
 11
-70.736016604299934
 21
34.949033161823543
 31
0.0
  0
LINE
  5
136C
  8
0
 62
     0
 10
-77.086016604299942
 20
34.949033161823543
 30
0.0
 11
-75.498516604299937
 21
34.949033161823543
 31
0.0
  0
LINE
  5
136D
  8
0
 62
     0
 10
-81.848516604299945
 20
34.949033161823543
 30
0.0
 11
-80.261016604299925
 21
34.949033161823543
 31
0.0
  0
LINE
  5
136E
  8
0
 62
     0
 10
-86.413648529774946
 20
34.949033161823543
 30
0.0
 11
-85.023516604299942
 21
34.949033161823543
 31
0.0
  0
LINE
  5
136F
  8
0
 62
     0
 10
-67.561016604299937
 20
37.698663161823788
 30
0.0
 11
-66.413648529774932
 21
37.698663161823788
 31
0.0
  0
LINE
  5
1370
  8
0
 62
     0
 10
-72.32351660429994
 20
37.698663161823788
 30
0.0
 11
-70.736016604299934
 21
37.698663161823788
 31
0.0
  0
LINE
  5
1371
  8
0
 62
     0
 10
-77.086016604299942
 20
37.698663161823788
 30
0.0
 11
-75.498516604299937
 21
37.698663161823788
 31
0.0
  0
LINE
  5
1372
  8
0
 62
     0
 10
-81.848516604299945
 20
37.698663161823788
 30
0.0
 11
-80.261016604299925
 21
37.698663161823788
 31
0.0
  0
LINE
  5
1373
  8
0
 62
     0
 10
-86.413648529774946
 20
37.698663161823788
 30
0.0
 11
-85.023516604299942
 21
37.698663161823788
 31
0.0
  0
ENDBLK
  5
1375
  8
0
  0
BLOCK
  8
0
  2
*U40
 70
     1
 10
0.0
 20
0.0
 30
0.0
  3
*U40
  1

  0
SOLID
  5
146F
  8
SAPA_FOGBAND
  6
CONTINUOUS
 10
-100.6375682197657
 20
18.867083010035891
 30
0.0
 11
-100.8178457835389
 21
18.792409598129449
 31
0.0
 12
-100.45729065599249
 22
18.792409598129449
 32
0.0
 13
-100.45729065599249
 23
18.792409598129449
 33
0.0
210
0.0
220
0.0
230
1.0
  0
SOLID
  5
1470
  8
SAPA_FOGBAND
  6
CONTINUOUS
 10
-100.8178457835389
 20
18.792409598129449
 30
0.0
 11
-100.8925191954453
 21
18.61213203435625
 31
0.0
 12
-100.38261724408611
 22
18.61213203435625
 32
0.0
 13
-100.38261724408611
 23
18.61213203435625
 33
0.0
210
0.0
220
0.0
230
1.0
  0
SOLID
  5
1471
  8
SAPA_FOGBAND
  6
CONTINUOUS
 10
100.8178457835389
 20
18.792409598129449
 30
0.0
 11
100.45729065599249
 21
18.792409598129449
 31
0.0
 12
100.38261724408611
 22
18.61213203435625
 32
0.0
 13
100.38261724408611
 23
18.61213203435625
 33
0.0
210
0.0
220
0.0
230
-1.0
  0
SOLID
  5
1472
  8
SAPA_FOGBAND
  6
CONTINUOUS
 10
100.8178457835389
 20
18.431854470583051
 30
0.0
 11
100.45729065599249
 21
18.431854470583051
 31
0.0
 12
100.6375682197657
 22
18.357181058676609
 32
0.0
 13
100.6375682197657
 23
18.357181058676609
 33
0.0
210
0.0
220
0.0
230
-1.0
  0
SOLID
  5
1473
  8
SAPA_FOGBAND
  6
CONTINUOUS
 10
-100.8925191954453
 20
18.61213203435625
 30
0.0
 11
-100.8178457835389
 21
18.431854470583051
 31
0.0
 12
-100.45729065599249
 22
18.431854470583051
 32
0.0
 13
-100.45729065599249
 23
18.431854470583051
 33
0.0
210
0.0
220
0.0
230
1.0
  0
SOLID
  5
1474
  8
SAPA_FOGBAND
  6
CONTINUOUS
 10
100.8925191954453
 20
18.61213203435625
 30
0.0
 11
100.38261724408611
 21
18.61213203435625
 31
0.0
 12
100.45729065599249
 22
18.431854470583051
 32
0.0
 13
100.45729065599249
 23
18.431854470583051
 33
0.0
210
0.0
220
0.0
230
-1.0
  0
LINE
  5
1475
  8
SAPA_FOGBAND
  6
CONTINUOUS
 10
-100.6375682197657
 20
18.867083010035891
 30
0.0
 11
-100.8178457835389
 21
18.792409598129449
 31
0.0
  0
LINE
  5
1476
  8
SAPA_FOGBAND
  6
CONTINUOUS
 10
-100.45729065599249
 20
18.792409598129449
 30
0.0
 11
-100.6375682197657
 21
18.867083010035891
 31
0.0
  0
LINE
  5
1477
  8
SAPA_FOGBAND
  6
CONTINUOUS
 10
-100.8178457835389
 20
18.792409598129449
 30
0.0
 11
-100.8925191954453
 21
18.61213203435625
 31
0.0
  0
LINE
  5
1478
  8
SAPA_FOGBAND
  6
CONTINUOUS
 10
-100.45729065599249
 20
18.792409598129449
 30
0.0
 11
-100.38261724408611
 21
18.61213203435625
 31
0.0
  0
LINE
  5
1479
  8
SAPA_FOGBAND
  6
CONTINUOUS
 10
-100.45729065599249
 20
18.431854470583051
 30
0.0
 11
-100.6375682197657
 21
18.357181058676609
 31
0.0
  0
LINE
  5
147A
  8
SAPA_FOGBAND
  6
CONTINUOUS
 10
-100.6375682197657
 20
18.357181058676609
 30
0.0
 11
-100.8178457835389
 21
18.431854470583051
 31
0.0
  0
LINE
  5
147B
  8
SAPA_FOGBAND
  6
CONTINUOUS
 10
-100.8925191954453
 20
18.61213203435625
 30
0.0
 11
-100.8178457835389
 21
18.431854470583051
 31
0.0
  0
LINE
  5
147C
  8
SAPA_FOGBAND
  6
CONTINUOUS
 10
-100.38261724408611
 20
18.61213203435625
 30
0.0
 11
-100.45729065599249
 21
18.431854470583051
 31
0.0
  0
ENDBLK
  5
147E
  8
0
  0
BLOCK
  8
0
  2
*U41
 70
     1
 10
0.0
 20
0.0
 30
0.0
  3
*U41
  1

  0
SOLID
  5
1525
  8
SAPA_FOGBAND
  6
CONTINUOUS
 10
-101.02846685535989
 20
-18.374405819933479
 30
0.0
 11
-101.2087444191331
 21
-18.449079231839931
 31
0.0
 12
-100.84818929158671
 22
-18.449079231839931
 32
0.0
 13
-100.84818929158671
 23
-18.449079231839931
 33
0.0
210
0.0
220
0.0
230
1.0
  0
SOLID
  5
1526
  8
SAPA_FOGBAND
  6
CONTINUOUS
 10
-101.2087444191331
 20
-18.449079231839931
 30
0.0
 11
-101.2834178310396
 21
-18.629356795613131
 31
0.0
 12
-100.7735158796803
 22
-18.629356795613131
 32
0.0
 13
-100.7735158796803
 23
-18.629356795613131
 33
0.0
210
0.0
220
0.0
230
1.0
  0
SOLID
  5
1527
  8
SAPA_FOGBAND
  6
CONTINUOUS
 10
101.2087444191331
 20
-18.449079231839931
 30
0.0
 11
100.84818929158671
 21
-18.449079231839931
 31
0.0
 12
100.7735158796803
 22
-18.629356795613131
 32
0.0
 13
100.7735158796803
 23
-18.629356795613131
 33
0.0
210
0.0
220
0.0
230
-1.0
  0
SOLID
  5
1528
  8
SAPA_FOGBAND
  6
CONTINUOUS
 10
101.2087444191331
 20
-18.809634359386319
 30
0.0
 11
100.84818929158671
 21
-18.809634359386319
 31
0.0
 12
101.02846685535989
 22
-18.884307771292772
 32
0.0
 13
101.02846685535989
 23
-18.884307771292772
 33
0.0
210
0.0
220
0.0
230
-1.0
  0
SOLID
  5
1529
  8
SAPA_FOGBAND
  6
CONTINUOUS
 10
-101.2834178310396
 20
-18.629356795613131
 30
0.0
 11
-101.2087444191331
 21
-18.809634359386319
 31
0.0
 12
-100.84818929158671
 22
-18.809634359386319
 32
0.0
 13
-100.84818929158671
 23
-18.809634359386319
 33
0.0
210
0.0
220
0.0
230
1.0
  0
SOLID
  5
152A
  8
SAPA_FOGBAND
  6
CONTINUOUS
 10
101.2834178310396
 20
-18.629356795613131
 30
0.0
 11
100.7735158796803
 21
-18.629356795613131
 31
0.0
 12
100.84818929158671
 22
-18.809634359386319
 32
0.0
 13
100.84818929158671
 23
-18.809634359386319
 33
0.0
210
0.0
220
0.0
230
-1.0
  0
LINE
  5
152B
  8
SAPA_FOGBAND
  6
CONTINUOUS
 10
-101.02846685535989
 20
-18.374405819933479
 30
0.0
 11
-101.2087444191331
 21
-18.449079231839931
 31
0.0
  0
LINE
  5
152C
  8
SAPA_FOGBAND
  6
CONTINUOUS
 10
-100.84818929158671
 20
-18.449079231839931
 30
0.0
 11
-101.02846685535989
 21
-18.374405819933479
 31
0.0
  0
LINE
  5
152D
  8
SAPA_FOGBAND
  6
CONTINUOUS
 10
-101.2087444191331
 20
-18.449079231839931
 30
0.0
 11
-101.2834178310396
 21
-18.629356795613131
 31
0.0
  0
LINE
  5
152E
  8
SAPA_FOGBAND
  6
CONTINUOUS
 10
-100.84818929158671
 20
-18.449079231839931
 30
0.0
 11
-100.7735158796803
 21
-18.629356795613131
 31
0.0
  0
LINE
  5
152F
  8
SAPA_FOGBAND
  6
CONTINUOUS
 10
-100.84818929158671
 20
-18.809634359386319
 30
0.0
 11
-101.02846685535989
 21
-18.884307771292772
 31
0.0
  0
LINE
  5
1530
  8
SAPA_FOGBAND
  6
CONTINUOUS
 10
-101.02846685535989
 20
-18.884307771292772
 30
0.0
 11
-101.2087444191331
 21
-18.809634359386319
 31
0.0
  0
LINE
  5
1531
  8
SAPA_FOGBAND
  6
CONTINUOUS
 10
-101.2834178310396
 20
-18.629356795613131
 30
0.0
 11
-101.2087444191331
 21
-18.809634359386319
 31
0.0
  0
LINE
  5
1532
  8
SAPA_FOGBAND
  6
CONTINUOUS
 10
-100.7735158796803
 20
-18.629356795613131
 30
0.0
 11
-100.84818929158671
 21
-18.809634359386319
 31
0.0
  0
ENDBLK
  5
1534
  8
0
  0
BLOCK
  8
0
  2
*U42
 70
     1
 10
0.0
 20
0.0
 30
0.0
  3
*U42
  1

  0
SOLID
  5
1536
  8
SAPA_FOGBAND
  6
CONTINUOUS
 10
-100.6375682197657
 20
18.867083010035891
 30
0.0
 11
-100.8178457835389
 21
18.792409598129449
 31
0.0
 12
-100.45729065599249
 22
18.792409598129449
 32
0.0
 13
-100.45729065599249
 23
18.792409598129449
 33
0.0
210
0.0
220
0.0
230
1.0
  0
SOLID
  5
1537
  8
SAPA_FOGBAND
  6
CONTINUOUS
 10
-100.8178457835389
 20
18.792409598129449
 30
0.0
 11
-100.8925191954453
 21
18.61213203435625
 31
0.0
 12
-100.38261724408611
 22
18.61213203435625
 32
0.0
 13
-100.38261724408611
 23
18.61213203435625
 33
0.0
210
0.0
220
0.0
230
1.0
  0
SOLID
  5
1538
  8
SAPA_FOGBAND
  6
CONTINUOUS
 10
100.8178457835389
 20
18.792409598129449
 30
0.0
 11
100.45729065599249
 21
18.792409598129449
 31
0.0
 12
100.38261724408611
 22
18.61213203435625
 32
0.0
 13
100.38261724408611
 23
18.61213203435625
 33
0.0
210
0.0
220
0.0
230
-1.0
  0
SOLID
  5
1539
  8
SAPA_FOGBAND
  6
CONTINUOUS
 10
100.8178457835389
 20
18.431854470583051
 30
0.0
 11
100.45729065599249
 21
18.431854470583051
 31
0.0
 12
100.6375682197657
 22
18.357181058676609
 32
0.0
 13
100.6375682197657
 23
18.357181058676609
 33
0.0
210
0.0
220
0.0
230
-1.0
  0
SOLID
  5
153A
  8
SAPA_FOGBAND
  6
CONTINUOUS
 10
-100.8925191954453
 20
18.61213203435625
 30
0.0
 11
-100.8178457835389
 21
18.431854470583051
 31
0.0
 12
-100.45729065599249
 22
18.431854470583051
 32
0.0
 13
-100.45729065599249
 23
18.431854470583051
 33
0.0
210
0.0
220
0.0
230
1.0
  0
SOLID
  5
153B
  8
SAPA_FOGBAND
  6
CONTINUOUS
 10
100.8925191954453
 20
18.61213203435625
 30
0.0
 11
100.38261724408611
 21
18.61213203435625
 31
0.0
 12
100.45729065599249
 22
18.431854470583051
 32
0.0
 13
100.45729065599249
 23
18.431854470583051
 33
0.0
210
0.0
220
0.0
230
-1.0
  0
LINE
  5
153C
  8
SAPA_FOGBAND
  6
CONTINUOUS
 10
-100.6375682197657
 20
18.867083010035891
 30
0.0
 11
-100.8178457835389
 21
18.792409598129449
 31
0.0
  0
LINE
  5
153D
  8
SAPA_FOGBAND
  6
CONTINUOUS
 10
-100.45729065599249
 20
18.792409598129449
 30
0.0
 11
-100.6375682197657
 21
18.867083010035891
 31
0.0
  0
LINE
  5
153E
  8
SAPA_FOGBAND
  6
CONTINUOUS
 10
-100.8178457835389
 20
18.792409598129449
 30
0.0
 11
-100.8925191954453
 21
18.61213203435625
 31
0.0
  0
LINE
  5
153F
  8
SAPA_FOGBAND
  6
CONTINUOUS
 10
-100.45729065599249
 20
18.792409598129449
 30
0.0
 11
-100.38261724408611
 21
18.61213203435625
 31
0.0
  0
LINE
  5
1540
  8
SAPA_FOGBAND
  6
CONTINUOUS
 10
-100.45729065599249
 20
18.431854470583051
 30
0.0
 11
-100.6375682197657
 21
18.357181058676609
 31
0.0
  0
LINE
  5
1541
  8
SAPA_FOGBAND
  6
CONTINUOUS
 10
-100.6375682197657
 20
18.357181058676609
 30
0.0
 11
-100.8178457835389
 21
18.431854470583051
 31
0.0
  0
LINE
  5
1542
  8
SAPA_FOGBAND
  6
CONTINUOUS
 10
-100.8925191954453
 20
18.61213203435625
 30
0.0
 11
-100.8178457835389
 21
18.431854470583051
 31
0.0
  0
LINE
  5
1543
  8
SAPA_FOGBAND
  6
CONTINUOUS
 10
-100.38261724408611
 20
18.61213203435625
 30
0.0
 11
-100.45729065599249
 21
18.431854470583051
 31
0.0
  0
ENDBLK
  5
1545
  8
0
  0
BLOCK
  8
0
  2
*U43
 70
     1
 10
0.0
 20
0.0
 30
0.0
  3
*U43
  1

  0
SOLID
  5
15EC
  8
SAPA_FOGBAND
  6
CONTINUOUS
 10
-101.02846685535989
 20
-18.374405819933479
 30
0.0
 11
-101.2087444191331
 21
-18.449079231839931
 31
0.0
 12
-100.84818929158671
 22
-18.449079231839931
 32
0.0
 13
-100.84818929158671
 23
-18.449079231839931
 33
0.0
210
0.0
220
0.0
230
1.0
  0
SOLID
  5
15ED
  8
SAPA_FOGBAND
  6
CONTINUOUS
 10
-101.2087444191331
 20
-18.449079231839931
 30
0.0
 11
-101.2834178310396
 21
-18.629356795613131
 31
0.0
 12
-100.7735158796803
 22
-18.629356795613131
 32
0.0
 13
-100.7735158796803
 23
-18.629356795613131
 33
0.0
210
0.0
220
0.0
230
1.0
  0
SOLID
  5
15EE
  8
SAPA_FOGBAND
  6
CONTINUOUS
 10
101.2087444191331
 20
-18.449079231839931
 30
0.0
 11
100.84818929158671
 21
-18.449079231839931
 31
0.0
 12
100.7735158796803
 22
-18.629356795613131
 32
0.0
 13
100.7735158796803
 23
-18.629356795613131
 33
0.0
210
0.0
220
0.0
230
-1.0
  0
SOLID
  5
15EF
  8
SAPA_FOGBAND
  6
CONTINUOUS
 10
101.2087444191331
 20
-18.809634359386319
 30
0.0
 11
100.84818929158671
 21
-18.809634359386319
 31
0.0
 12
101.02846685535989
 22
-18.884307771292772
 32
0.0
 13
101.02846685535989
 23
-18.884307771292772
 33
0.0
210
0.0
220
0.0
230
-1.0
  0
SOLID
  5
15F0
  8
SAPA_FOGBAND
  6
CONTINUOUS
 10
-101.2834178310396
 20
-18.629356795613131
 30
0.0
 11
-101.2087444191331
 21
-18.809634359386319
 31
0.0
 12
-100.84818929158671
 22
-18.809634359386319
 32
0.0
 13
-100.84818929158671
 23
-18.809634359386319
 33
0.0
210
0.0
220
0.0
230
1.0
  0
SOLID
  5
15F1
  8
SAPA_FOGBAND
  6
CONTINUOUS
 10
101.2834178310396
 20
-18.629356795613131
 30
0.0
 11
100.7735158796803
 21
-18.629356795613131
 31
0.0
 12
100.84818929158671
 22
-18.809634359386319
 32
0.0
 13
100.84818929158671
 23
-18.809634359386319
 33
0.0
210
0.0
220
0.0
230
-1.0
  0
LINE
  5
15F2
  8
SAPA_FOGBAND
  6
CONTINUOUS
 10
-101.02846685535989
 20
-18.374405819933479
 30
0.0
 11
-101.2087444191331
 21
-18.449079231839931
 31
0.0
  0
LINE
  5
15F3
  8
SAPA_FOGBAND
  6
CONTINUOUS
 10
-100.84818929158671
 20
-18.449079231839931
 30
0.0
 11
-101.02846685535989
 21
-18.374405819933479
 31
0.0
  0
LINE
  5
15F4
  8
SAPA_FOGBAND
  6
CONTINUOUS
 10
-101.2087444191331
 20
-18.449079231839931
 30
0.0
 11
-101.2834178310396
 21
-18.629356795613131
 31
0.0
  0
LINE
  5
15F5
  8
SAPA_FOGBAND
  6
CONTINUOUS
 10
-100.84818929158671
 20
-18.449079231839931
 30
0.0
 11
-100.7735158796803
 21
-18.629356795613131
 31
0.0
  0
LINE
  5
15F6
  8
SAPA_FOGBAND
  6
CONTINUOUS
 10
-100.84818929158671
 20
-18.809634359386319
 30
0.0
 11
-101.02846685535989
 21
-18.884307771292772
 31
0.0
  0
LINE
  5
15F7
  8
SAPA_FOGBAND
  6
CONTINUOUS
 10
-101.02846685535989
 20
-18.884307771292772
 30
0.0
 11
-101.2087444191331
 21
-18.809634359386319
 31
0.0
  0
LINE
  5
15F8
  8
SAPA_FOGBAND
  6
CONTINUOUS
 10
-101.2834178310396
 20
-18.629356795613131
 30
0.0
 11
-101.2087444191331
 21
-18.809634359386319
 31
0.0
  0
LINE
  5
15F9
  8
SAPA_FOGBAND
  6
CONTINUOUS
 10
-100.7735158796803
 20
-18.629356795613131
 30
0.0
 11
-100.84818929158671
 21
-18.809634359386319
 31
0.0
  0
ENDBLK
  5
15FB
  8
0
  0
ENDSEC
  0
SECTION
  2
ENTITIES
  0
POLYLINE
  5
89D
  8
SAPA_ANSLUTNING
 66
     1
 10
0.0
 20
0.0
 30
0.0
1001
ACAD
1000
ASC_BOUNDS
1002
{
1070
    19
1005
D27
1002
}
  0
VERTEX
  5
DBA
  8
SAPA_ANSLUTNING
 10
-86.413648529774719
 20
24.89999999999878
 30
0.0
  0
VERTEX
  5
DBB
  8
SAPA_ANSLUTNING
 10
-66.413648529774719
 20
24.89999999999878
 30
0.0
  0
VERTEX
  5
DBC
  8
SAPA_ANSLUTNING
 10
-66.413648529774719
 20
39.899999999998947
 30
0.0
  0
VERTEX
  5
DBD
  8
SAPA_ANSLUTNING
 10
-86.413648529774719
 20
39.899999999998947
 30
0.0
  0
VERTEX
  5
DBE
  8
SAPA_ANSLUTNING
 10
-86.413648529774719
 20
24.89999999999878
 30
0.0
  0
SEQEND
  5
DBF
  8
SAPA_ANSLUTNING
  0
POLYLINE
  5
8A5
  8
SAPA_ANSLUTNING
 66
     1
 10
0.0
 20
0.0
 30
0.0
 70
     1
1001
ACAD
1000
ASC_BOUNDS
1002
{
1070
    19
1005
D26
1002
}
  0
VERTEX
  5
DC0
  8
SAPA_ANSLUTNING
 10
69.113819047357424
 20
39.79999999999859
 30
0.0
  0
VERTEX
  5
DC1
  8
SAPA_ANSLUTNING
 10
83.999999999998053
 20
39.79999999999859
 30
0.0
 42
0.2625797940973267
  0
VERTEX
  5
DC2
  8
SAPA_ANSLUTNING
 10
83.999999999998053
 20
24.999999999999321
 30
0.0
  0
VERTEX
  5
DC3
  8
SAPA_ANSLUTNING
 10
69.113819047355605
 20
24.999999999999321
 30
0.0
 42
0.2625797940972474
  0
SEQEND
  5
DC4
  8
SAPA_ANSLUTNING
  0
POLYLINE
  5
8A7
  8
SAPA_ANSLUTNING
 10
66.414921939407463
 20
25.013572266990423
 30
0.0
 66
     1
 70
     8
  0
VERTEX
  8
SAPA_ANSLUTNING
  5
15FC
 10
66.4149
 20
25.0136
 30
0.000000
  70
    32
  0
VERTEX
  8
SAPA_ANSLUTNING
  5
15FD
 10
66.2187
 20
25.0225
 30
0.000000
  70
    32
  0
VERTEX
  8
SAPA_ANSLUTNING
  5
15FE
 10
66.0229
 20
25.0492
 30
0.000000
  70
    32
  0
VERTEX
  8
SAPA_ANSLUTNING
  5
15FF
 10
65.8280
 20
25.0937
 30
0.000000
  70
    32
  0
VERTEX
  8
SAPA_ANSLUTNING
  5
1600
 10
65.6346
 20
25.1558
 30
0.000000
  70
    32
  0
VERTEX
  8
SAPA_ANSLUTNING
  5
1601
 10
65.4430
 20
25.2354
 30
0.000000
  70
    32
  0
VERTEX
  8
SAPA_ANSLUTNING
  5
1602
 10
65.2538
 20
25.3323
 30
0.000000
  70
    32
  0
VERTEX
  8
SAPA_ANSLUTNING
  5
1603
 10
65.0674
 20
25.4462
 30
0.000000
  70
    32
  0
VERTEX
  8
SAPA_ANSLUTNING
  5
1604
 10
64.8842
 20
25.5770
 30
0.000000
  70
    32
  0
VERTEX
  8
SAPA_ANSLUTNING
  5
1605
 10
64.7047
 20
25.7242
 30
0.000000
  70
    32
  0
VERTEX
  8
SAPA_ANSLUTNING
  5
1606
 10
64.5293
 20
25.8875
 30
0.000000
  70
    32
  0
VERTEX
  8
SAPA_ANSLUTNING
  5
1607
 10
64.3585
 20
26.0666
 30
0.000000
  70
    32
  0
VERTEX
  8
SAPA_ANSLUTNING
  5
1608
 10
64.1926
 20
26.2609
 30
0.000000
  70
    32
  0
VERTEX
  8
SAPA_ANSLUTNING
  5
1609
 10
64.0321
 20
26.4701
 30
0.000000
  70
    32
  0
VERTEX
  8
SAPA_ANSLUTNING
  5
160A
 10
63.8773
 20
26.6936
 30
0.000000
  70
    32
  0
VERTEX
  8
SAPA_ANSLUTNING
  5
160B
 10
63.7287
 20
26.9309
 30
0.000000
  70
    32
  0
VERTEX
  8
SAPA_ANSLUTNING
  5
160C
 10
63.5865
 20
27.1814
 30
0.000000
  70
    32
  0
VERTEX
  8
SAPA_ANSLUTNING
  5
160D
 10
63.4511
 20
27.4445
 30
0.000000
  70
    32
  0
VERTEX
  8
SAPA_ANSLUTNING
  5
160E
 10
63.3229
 20
27.7196
 30
0.000000
  70
    32
  0
VERTEX
  8
SAPA_ANSLUTNING
  5
160F
 10
63.2021
 20
28.0060
 30
0.000000
  70
    32
  0
VERTEX
  8
SAPA_ANSLUTNING
  5
1610
 10
63.0890
 20
28.3030
 30
0.000000
  70
    32
  0
VERTEX
  8
SAPA_ANSLUTNING
  5
1611
 10
62.9840
 20
28.6099
 30
0.000000
  70
    32
  0
VERTEX
  8
SAPA_ANSLUTNING
  5
1612
 10
62.8872
 20
28.9260
 30
0.000000
  70
    32
  0
VERTEX
  8
SAPA_ANSLUTNING
  5
1613
 10
62.7990
 20
29.2505
 30
0.000000
  70
    32
  0
VERTEX
  8
SAPA_ANSLUTNING
  5
1614
 10
62.7194
 20
29.5826
 30
0.000000
  70
    32
  0
VERTEX
  8
SAPA_ANSLUTNING
  5
1615
 10
62.6487
 20
29.9215
 30
0.000000
  70
    32
  0
VERTEX
  8
SAPA_ANSLUTNING
  5
1616
 10
62.5872
 20
30.2665
 30
0.000000
  70
    32
  0
VERTEX
  8
SAPA_ANSLUTNING
  5
1617
 10
62.5348
 20
30.6166
 30
0.000000
  70
    32
  0
VERTEX
  8
SAPA_ANSLUTNING
  5
1618
 10
62.4918
 20
30.9710
 30
0.000000
  70
    32
  0
VERTEX
  8
SAPA_ANSLUTNING
  5
1619
 10
62.4582
 20
31.3290
 30
0.000000
  70
    32
  0
VERTEX
  8
SAPA_ANSLUTNING
  5
161A
 10
62.4342
 20
31.6895
 30
0.000000
  70
    32
  0
VERTEX
  8
SAPA_ANSLUTNING
  5
161B
 10
62.4197
 20
32.0518
 30
0.000000
  70
    32
  0
VERTEX
  8
SAPA_ANSLUTNING
  5
161C
 10
62.4149
 20
32.4150
 30
0.000000
  70
    32
  0
VERTEX
  8
SAPA_ANSLUTNING
  5
161D
 10
62.4197
 20
32.7781
 30
0.000000
  70
    32
  0
VERTEX
  8
SAPA_ANSLUTNING
  5
161E
 10
62.4342
 20
33.1404
 30
0.000000
  70
    32
  0
VERTEX
  8
SAPA_ANSLUTNING
  5
161F
 10
62.4582
 20
33.5010
 30
0.000000
  70
    32
  0
VERTEX
  8
SAPA_ANSLUTNING
  5
1620
 10
62.4918
 20
33.8589
 30
0.000000
  70
    32
  0
VERTEX
  8
SAPA_ANSLUTNING
  5
1621
 10
62.5348
 20
34.2133
 30
0.000000
  70
    32
  0
VERTEX
  8
SAPA_ANSLUTNING
  5
1622
 10
62.5872
 20
34.5635
 30
0.000000
  70
    32
  0
VERTEX
  8
SAPA_ANSLUTNING
  5
1623
 10
62.6487
 20
34.9084
 30
0.000000
  70
    32
  0
VERTEX
  8
SAPA_ANSLUTNING
  5
1624
 10
62.7194
 20
35.2473
 30
0.000000
  70
    32
  0
VERTEX
  8
SAPA_ANSLUTNING
  5
1625
 10
62.7990
 20
35.5795
 30
0.000000
  70
    32
  0
VERTEX
  8
SAPA_ANSLUTNING
  5
1626
 10
62.8872
 20
35.9039
 30
0.000000
  70
    32
  0
VERTEX
  8
SAPA_ANSLUTNING
  5
1627
 10
62.9840
 20
36.2200
 30
0.000000
  70
    32
  0
VERTEX
  8
SAPA_ANSLUTNING
  5
1628
 10
63.0890
 20
36.5269
 30
0.000000
  70
    32
  0
VERTEX
  8
SAPA_ANSLUTNING
  5
1629
 10
63.2021
 20
36.8240
 30
0.000000
  70
    32
  0
VERTEX
  8
SAPA_ANSLUTNING
  5
162A
 10
63.3229
 20
37.1103
 30
0.000000
  70
    32
  0
VERTEX
  8
SAPA_ANSLUTNING
  5
162B
 10
63.4511
 20
37.3854
 30
0.000000
  70
    32
  0
VERTEX
  8
SAPA_ANSLUTNING
  5
162C
 10
63.5865
 20
37.6485
 30
0.000000
  70
    32
  0
VERTEX
  8
SAPA_ANSLUTNING
  5
162D
 10
63.7287
 20
37.8990
 30
0.000000
  70
    32
  0
VERTEX
  8
SAPA_ANSLUTNING
  5
162E
 10
63.8773
 20
38.1363
 30
0.000000
  70
    32
  0
VERTEX
  8
SAPA_ANSLUTNING
  5
162F
 10
64.0321
 20
38.3598
 30
0.000000
  70
    32
  0
VERTEX
  8
SAPA_ANSLUTNING
  5
1630
 10
64.1926
 20
38.5690
 30
0.000000
  70
    32
  0
VERTEX
  8
SAPA_ANSLUTNING
  5
1631
 10
64.3585
 20
38.7633
 30
0.000000
  70
    32
  0
VERTEX
  8
SAPA_ANSLUTNING
  5
1632
 10
64.5293
 20
38.9424
 30
0.000000
  70
    32
  0
VERTEX
  8
SAPA_ANSLUTNING
  5
1633
 10
64.7047
 20
39.1057
 30
0.000000
  70
    32
  0
VERTEX
  8
SAPA_ANSLUTNING
  5
1634
 10
64.8842
 20
39.2529
 30
0.000000
  70
    32
  0
VERTEX
  8
SAPA_ANSLUTNING
  5
1635
 10
65.0674
 20
39.3837
 30
0.000000
  70
    32
  0
VERTEX
  8
SAPA_ANSLUTNING
  5
1636
 10
65.2538
 20
39.4976
 30
0.000000
  70
    32
  0
VERTEX
  8
SAPA_ANSLUTNING
  5
1637
 10
65.4430
 20
39.5945
 30
0.000000
  70
    32
  0
VERTEX
  8
SAPA_ANSLUTNING
  5
1638
 10
65.6346
 20
39.6741
 30
0.000000
  70
    32
  0
VERTEX
  8
SAPA_ANSLUTNING
  5
1639
 10
65.8280
 20
39.7362
 30
0.000000
  70
    32
  0
VERTEX
  8
SAPA_ANSLUTNING
  5
163A
 10
66.0229
 20
39.7807
 30
0.000000
  70
    32
  0
VERTEX
  8
SAPA_ANSLUTNING
  5
163B
 10
66.2187
 20
39.8074
 30
0.000000
  70
    32
  0
VERTEX
  8
SAPA_ANSLUTNING
  5
163C
 10
66.4149
 20
39.8163
 30
0.000000
  70
    32
  0
VERTEX
  8
SAPA_ANSLUTNING
  5
163D
 10
66.6112
 20
39.8074
 30
0.000000
  70
    32
  0
VERTEX
  8
SAPA_ANSLUTNING
  5
163E
 10
66.8070
 20
39.7807
 30
0.000000
  70
    32
  0
VERTEX
  8
SAPA_ANSLUTNING
  5
163F
 10
67.0018
 20
39.7362
 30
0.000000
  70
    32
  0
VERTEX
  8
SAPA_ANSLUTNING
  5
1640
 10
67.1953
 20
39.6741
 30
0.000000
  70
    32
  0
VERTEX
  8
SAPA_ANSLUTNING
  5
1641
 10
67.3868
 20
39.5945
 30
0.000000
  70
    32
  0
VERTEX
  8
SAPA_ANSLUTNING
  5
1642
 10
67.5761
 20
39.4976
 30
0.000000
  70
    32
  0
VERTEX
  8
SAPA_ANSLUTNING
  5
1643
 10
67.7625
 20
39.3837
 30
0.000000
  70
    32
  0
VERTEX
  8
SAPA_ANSLUTNING
  5
1644
 10
67.9457
 20
39.2529
 30
0.000000
  70
    32
  0
VERTEX
  8
SAPA_ANSLUTNING
  5
1645
 10
68.1251
 20
39.1057
 30
0.000000
  70
    32
  0
VERTEX
  8
SAPA_ANSLUTNING
  5
1646
 10
68.3005
 20
38.9424
 30
0.000000
  70
    32
  0
VERTEX
  8
SAPA_ANSLUTNING
  5
1647
 10
68.4713
 20
38.7633
 30
0.000000
  70
    32
  0
VERTEX
  8
SAPA_ANSLUTNING
  5
1648
 10
68.6372
 20
38.5690
 30
0.000000
  70
    32
  0
VERTEX
  8
SAPA_ANSLUTNING
  5
1649
 10
68.7977
 20
38.3598
 30
0.000000
  70
    32
  0
VERTEX
  8
SAPA_ANSLUTNING
  5
164A
 10
68.9525
 20
38.1363
 30
0.000000
  70
    32
  0
VERTEX
  8
SAPA_ANSLUTNING
  5
164B
 10
69.1012
 20
37.8990
 30
0.000000
  70
    32
  0
VERTEX
  8
SAPA_ANSLUTNING
  5
164C
 10
69.2433
 20
37.6485
 30
0.000000
  70
    32
  0
VERTEX
  8
SAPA_ANSLUTNING
  5
164D
 10
69.3787
 20
37.3854
 30
0.000000
  70
    32
  0
VERTEX
  8
SAPA_ANSLUTNING
  5
164E
 10
69.5070
 20
37.1103
 30
0.000000
  70
    32
  0
VERTEX
  8
SAPA_ANSLUTNING
  5
164F
 10
69.6278
 20
36.8240
 30
0.000000
  70
    32
  0
VERTEX
  8
SAPA_ANSLUTNING
  5
1650
 10
69.7408
 20
36.5269
 30
0.000000
  70
    32
  0
VERTEX
  8
SAPA_ANSLUTNING
  5
1651
 10
69.8458
 20
36.2200
 30
0.000000
  70
    32
  0
VERTEX
  8
SAPA_ANSLUTNING
  5
1652
 10
69.9426
 20
35.9039
 30
0.000000
  70
    32
  0
VERTEX
  8
SAPA_ANSLUTNING
  5
1653
 10
70.0309
 20
35.5795
 30
0.000000
  70
    32
  0
VERTEX
  8
SAPA_ANSLUTNING
  5
1654
 10
70.1104
 20
35.2473
 30
0.000000
  70
    32
  0
VERTEX
  8
SAPA_ANSLUTNING
  5
1655
 10
70.1811
 20
34.9084
 30
0.000000
  70
    32
  0
VERTEX
  8
SAPA_ANSLUTNING
  5
1656
 10
70.2427
 20
34.5635
 30
0.000000
  70
    32
  0
VERTEX
  8
SAPA_ANSLUTNING
  5
1657
 10
70.2950
 20
34.2133
 30
0.000000
  70
    32
  0
VERTEX
  8
SAPA_ANSLUTNING
  5
1658
 10
70.3381
 20
33.8589
 30
0.000000
  70
    32
  0
VERTEX
  8
SAPA_ANSLUTNING
  5
1659
 10
70.3716
 20
33.5010
 30
0.000000
  70
    32
  0
VERTEX
  8
SAPA_ANSLUTNING
  5
165A
 10
70.3957
 20
33.1404
 30
0.000000
  70
    32
  0
VERTEX
  8
SAPA_ANSLUTNING
  5
165B
 10
70.4101
 20
32.7781
 30
0.000000
  70
    32
  0
VERTEX
  8
SAPA_ANSLUTNING
  5
165C
 10
70.4149
 20
32.4150
 30
0.000000
  70
    32
  0
VERTEX
  8
SAPA_ANSLUTNING
  5
165D
 10
70.4101
 20
32.0518
 30
0.000000
  70
    32
  0
VERTEX
  8
SAPA_ANSLUTNING
  5
165E
 10
70.3957
 20
31.6895
 30
0.000000
  70
    32
  0
VERTEX
  8
SAPA_ANSLUTNING
  5
165F
 10
70.3716
 20
31.3290
 30
0.000000
  70
    32
  0
VERTEX
  8
SAPA_ANSLUTNING
  5
1660
 10
70.3381
 20
30.9710
 30
0.000000
  70
    32
  0
VERTEX
  8
SAPA_ANSLUTNING
  5
1661
 10
70.2950
 20
30.6166
 30
0.000000
  70
    32
  0
VERTEX
  8
SAPA_ANSLUTNING
  5
1662
 10
70.2427
 20
30.2665
 30
0.000000
  70
    32
  0
VERTEX
  8
SAPA_ANSLUTNING
  5
1663
 10
70.1811
 20
29.9215
 30
0.000000
  70
    32
  0
VERTEX
  8
SAPA_ANSLUTNING
  5
1664
 10
70.1104
 20
29.5826
 30
0.000000
  70
    32
  0
VERTEX
  8
SAPA_ANSLUTNING
  5
1665
 10
70.0309
 20
29.2505
 30
0.000000
  70
    32
  0
VERTEX
  8
SAPA_ANSLUTNING
  5
1666
 10
69.9426
 20
28.9260
 30
0.000000
  70
    32
  0
VERTEX
  8
SAPA_ANSLUTNING
  5
1667
 10
69.8458
 20
28.6099
 30
0.000000
  70
    32
  0
VERTEX
  8
SAPA_ANSLUTNING
  5
1668
 10
69.7408
 20
28.3030
 30
0.000000
  70
    32
  0
VERTEX
  8
SAPA_ANSLUTNING
  5
1669
 10
69.6278
 20
28.0060
 30
0.000000
  70
    32
  0
VERTEX
  8
SAPA_ANSLUTNING
  5
166A
 10
69.5070
 20
27.7196
 30
0.000000
  70
    32
  0
VERTEX
  8
SAPA_ANSLUTNING
  5
166B
 10
69.3787
 20
27.4445
 30
0.000000
  70
    32
  0
VERTEX
  8
SAPA_ANSLUTNING
  5
166C
 10
69.2433
 20
27.1814
 30
0.000000
  70
    32
  0
VERTEX
  8
SAPA_ANSLUTNING
  5
166D
 10
69.1012
 20
26.9309
 30
0.000000
  70
    32
  0
VERTEX
  8
SAPA_ANSLUTNING
  5
166E
 10
68.9525
 20
26.6936
 30
0.000000
  70
    32
  0
VERTEX
  8
SAPA_ANSLUTNING
  5
166F
 10
68.7977
 20
26.4701
 30
0.000000
  70
    32
  0
VERTEX
  8
SAPA_ANSLUTNING
  5
1670
 10
68.6372
 20
26.2609
 30
0.000000
  70
    32
  0
VERTEX
  8
SAPA_ANSLUTNING
  5
1671
 10
68.4713
 20
26.0666
 30
0.000000
  70
    32
  0
VERTEX
  8
SAPA_ANSLUTNING
  5
1672
 10
68.3005
 20
25.8875
 30
0.000000
  70
    32
  0
VERTEX
  8
SAPA_ANSLUTNING
  5
1673
 10
68.1251
 20
25.7242
 30
0.000000
  70
    32
  0
VERTEX
  8
SAPA_ANSLUTNING
  5
1674
 10
67.9457
 20
25.5770
 30
0.000000
  70
    32
  0
VERTEX
  8
SAPA_ANSLUTNING
  5
1675
 10
67.7625
 20
25.4462
 30
0.000000
  70
    32
  0
VERTEX
  8
SAPA_ANSLUTNING
  5
1676
 10
67.5761
 20
25.3323
 30
0.000000
  70
    32
  0
VERTEX
  8
SAPA_ANSLUTNING
  5
1677
 10
67.3868
 20
25.2354
 30
0.000000
  70
    32
  0
VERTEX
  8
SAPA_ANSLUTNING
  5
1678
 10
67.1953
 20
25.1558
 30
0.000000
  70
    32
  0
VERTEX
  8
SAPA_ANSLUTNING
  5
1679
 10
67.0018
 20
25.0937
 30
0.000000
  70
    32
  0
VERTEX
  8
SAPA_ANSLUTNING
  5
167A
 10
66.8070
 20
25.0492
 30
0.000000
  70
    32
  0
VERTEX
  8
SAPA_ANSLUTNING
  5
167B
 10
66.6112
 20
25.0225
 30
0.000000
  70
    32
  0
VERTEX
  8
SAPA_ANSLUTNING
  5
167C
 10
66.4149
 20
25.0136
 30
0.000000
  70
    32
  0
SEQEND
  8
SAPA_ANSLUTNING
  5
167D
  0
POLYLINE
  5
8A9
  8
SAPA_ANSLUTNING
 66
     1
 10
0.0
 20
0.0
 30
0.0
  0
VERTEX
  5
DC5
  8
SAPA_ANSLUTNING
 10
127.1237778085533
 20
39.899999999998947
 30
0.0
  0
VERTEX
  5
DC6
  8
SAPA_ANSLUTNING
 10
-110.246525810682
 20
39.899999999998947
 30
0.0
  0
VERTEX
  5
DC7
  8
SAPA_ANSLUTNING
 10
-119.2522071226137
 20
48.905681311930721
 30
0.0
  0
VERTEX
  5
DC8
  8
SAPA_ANSLUTNING
 10
-128.2522071226156
 20
39.905681311930721
 30
0.0
  0
VERTEX
  5
DC9
  8
SAPA_ANSLUTNING
 10
-137.2522071226137
 20
39.905681311930721
 30
0.0
  0
VERTEX
  5
DCA
  8
SAPA_ANSLUTNING
 10
-146.2522071226137
 20
48.905681311930721
 30
0.0
  0
VERTEX
  5
DCB
  8
SAPA_ANSLUTNING
 10
-146.2522071226137
 20
55.347100144089609
 30
0.0
  0
SEQEND
  5
DCC
  8
SAPA_ANSLUTNING
  0
POLYLINE
  5
8F4
  8
SAPA_ANSLUTNING
 66
     1
 10
0.0
 20
0.0
 30
0.0
  0
VERTEX
  5
DCD
  8
SAPA_ANSLUTNING
 10
62.112957720575878
 20
37.917058674290502
 30
0.0
  0
VERTEX
  5
DCE
  8
SAPA_ANSLUTNING
 10
62.112957720575878
 20
26.917056831978019
 30
0.0
 42
-0.9999999999999998
  0
VERTEX
  5
DCF
  8
SAPA_ANSLUTNING
 10
58.112957720575871
 20
26.917056831978019
 30
0.0
  0
VERTEX
  5
DD0
  8
SAPA_ANSLUTNING
 10
58.112957720575871
 20
37.911373677735583
 30
0.0
 42
0.9999999999999998
  0
VERTEX
  5
DD1
  8
SAPA_ANSLUTNING
 10
54.112957720583147
 20
37.911373677735583
 30
0.0
  0
VERTEX
  5
DD2
  8
SAPA_ANSLUTNING
 10
54.112957720581328
 20
26.91705498966553
 30
0.0
 42
-0.9999999999999998
  0
VERTEX
  5
DD3
  8
SAPA_ANSLUTNING
 10
50.112957720581328
 20
26.91705498966553
 30
0.0
  0
VERTEX
  5
DD4
  8
SAPA_ANSLUTNING
 10
50.112957720581328
 20
37.911371835423097
 30
0.0
 42
0.9999999999999998
  0
VERTEX
  5
DD5
  8
SAPA_ANSLUTNING
 10
46.112957720583147
 20
37.911371835423097
 30
0.0
  0
VERTEX
  5
DD6
  8
SAPA_ANSLUTNING
 10
46.112957720583147
 20
26.911369993110611
 30
0.0
 42
-0.9999999999999998
  0
VERTEX
  5
DD7
  8
SAPA_ANSLUTNING
 10
42.112957720583147
 20
26.911369993110611
 30
0.0
  0
VERTEX
  5
DD8
  8
SAPA_ANSLUTNING
 10
42.112957720583147
 20
37.905686838868178
 30
0.0
 42
0.9999999999999998
  0
VERTEX
  5
DD9
  8
SAPA_ANSLUTNING
 10
38.11295772059043
 20
37.905686838868178
 30
0.0
  0
VERTEX
  5
DDA
  8
SAPA_ANSLUTNING
 10
38.112957720588611
 20
26.911368150798129
 30
0.0
 42
-0.9999999999999998
  0
VERTEX
  5
DDB
  8
SAPA_ANSLUTNING
 10
34.112957720588611
 20
26.911368150798129
 30
0.0
  0
VERTEX
  5
DDC
  8
SAPA_ANSLUTNING
 10
34.112957720588611
 20
37.905684996555692
 30
0.0
 42
0.9999999999999998
  0
VERTEX
  5
DDD
  8
SAPA_ANSLUTNING
 10
30.11295772059043
 20
37.905684996555692
 30
0.0
  0
VERTEX
  5
DDE
  8
SAPA_ANSLUTNING
 10
30.11295772059043
 20
26.90568315424321
 30
0.0
 42
-0.9999999999999998
  0
VERTEX
  5
DDF
  8
SAPA_ANSLUTNING
 10
26.11295772059043
 20
26.90568315424321
 30
0.0
  0
VERTEX
  5
DE0
  8
SAPA_ANSLUTNING
 10
26.11295772059043
 20
37.900000000000773
 30
0.0
 42
0.9999999999999998
  0
VERTEX
  5
DE1
  8
SAPA_ANSLUTNING
 10
22.112957720597709
 20
37.900000000000773
 30
0.0
  0
VERTEX
  5
DE2
  8
SAPA_ANSLUTNING
 10
22.11295772059589
 20
26.905681311930721
 30
0.0
 42
-0.9999999999999998
  0
VERTEX
  5
DE3
  8
SAPA_ANSLUTNING
 10
18.11295772059589
 20
26.905681311930721
 30
0.0
  0
VERTEX
  5
DE4
  8
SAPA_ANSLUTNING
 10
18.11295772059589
 20
37.899998157688287
 30
0.0
 42
0.9999999999999998
  0
VERTEX
  5
DE5
  8
SAPA_ANSLUTNING
 10
14.1129577205977
 20
37.899998157688287
 30
0.0
  0
VERTEX
  5
DE6
  8
SAPA_ANSLUTNING
 10
14.112957720599519
 20
26.905681311930721
 30
0.0
 42
-0.9999999999999998
  0
VERTEX
  5
DE7
  8
SAPA_ANSLUTNING
 10
10.112957720599519
 20
26.905681311930721
 30
0.0
  0
VERTEX
  5
DE8
  8
SAPA_ANSLUTNING
 10
10.112957720599519
 20
37.899998157688287
 30
0.0
 42
0.9999999999999998
  0
VERTEX
  5
DE9
  8
SAPA_ANSLUTNING
 10
6.1129577206049808
 20
37.899998157688287
 30
0.0
  0
VERTEX
  5
DEA
  8
SAPA_ANSLUTNING
 10
6.1129577206049808
 20
26.905681311930721
 30
0.0
 42
-0.9999999999999998
  0
VERTEX
  5
DEB
  8
SAPA_ANSLUTNING
 10
2.1129577206049812
 20
26.905681311930721
 30
0.0
  0
VERTEX
  5
DEC
  8
SAPA_ANSLUTNING
 10
2.1129577206049812
 20
37.899998157688287
 30
0.0
 42
0.9999999999999998
  0
VERTEX
  5
DED
  8
SAPA_ANSLUTNING
 10
-1.8870422793913799
 20
37.899998157688287
 30
0.0
  0
VERTEX
  5
DEE
  8
SAPA_ANSLUTNING
 10
-1.8870422793913799
 20
26.905681311930721
 30
0.0
 42
-0.9999999999999998
  0
VERTEX
  5
DEF
  8
SAPA_ANSLUTNING
 10
-5.8870422793913804
 20
26.905681311930721
 30
0.0
  0
VERTEX
  5
DF0
  8
SAPA_ANSLUTNING
 10
-5.8870422793913804
 20
37.899998157688287
 30
0.0
 42
0.9999999999999998
  0
VERTEX
  5
DF1
  8
SAPA_ANSLUTNING
 10
-9.8870422793877424
 20
37.899998157688287
 30
0.0
  0
VERTEX
  5
DF2
  8
SAPA_ANSLUTNING
 10
-9.8870422793859234
 20
26.905681311930721
 30
0.0
 42
-0.9999999999999998
  0
VERTEX
  5
DF3
  8
SAPA_ANSLUTNING
 10
-13.88704227938592
 20
26.905681311930721
 30
0.0
  0
VERTEX
  5
DF4
  8
SAPA_ANSLUTNING
 10
-13.88704227938228
 20
37.899998157688287
 30
0.0
 42
0.9999999999999998
  0
VERTEX
  5
DF5
  8
SAPA_ANSLUTNING
 10
-17.887042279382278
 20
37.899998157688287
 30
0.0
  0
VERTEX
  5
DF6
  8
SAPA_ANSLUTNING
 10
-17.887042279382278
 20
26.905681311930721
 30
0.0
 42
-0.9999999999999998
  0
VERTEX
  5
DF7
  8
SAPA_ANSLUTNING
 10
-21.887042279382289
 20
26.905681311930721
 30
0.0
  0
VERTEX
  5
DF8
  8
SAPA_ANSLUTNING
 10
-21.887042279384101
 20
37.899998157688287
 30
0.0
 42
0.9999999999999998
  0
VERTEX
  5
DF9
  8
SAPA_ANSLUTNING
 10
-25.887042279376828
 20
37.899998157688287
 30
0.0
  0
VERTEX
  5
DFA
  8
SAPA_ANSLUTNING
 10
-25.887042279376828
 20
26.905679469618239
 30
0.0
 42
-0.9999999999999998
  0
VERTEX
  5
DFB
  8
SAPA_ANSLUTNING
 10
-29.887042279376828
 20
26.905679469618239
 30
0.0
  0
VERTEX
  5
DFC
  8
SAPA_ANSLUTNING
 10
-29.887042279376828
 20
37.899996315375802
 30
0.0
 42
0.9999999999999998
  0
VERTEX
  5
DFD
  8
SAPA_ANSLUTNING
 10
-33.88704227937319
 20
37.899996315375802
 30
0.0
  0
VERTEX
  5
DFE
  8
SAPA_ANSLUTNING
 10
-33.88704227937319
 20
26.905679469618239
 30
0.0
 42
-0.9999999999999998
  0
VERTEX
  5
DFF
  8
SAPA_ANSLUTNING
 10
-37.88704227937319
 20
26.905679469618239
 30
0.0
  0
VERTEX
  5
E00
  8
SAPA_ANSLUTNING
 10
-37.88704227937319
 20
37.899996315375802
 30
0.0
 42
0.9999999999999998
  0
VERTEX
  5
E01
  8
SAPA_ANSLUTNING
 10
-41.887042279369552
 20
37.899996315375802
 30
0.0
  0
VERTEX
  5
E02
  8
SAPA_ANSLUTNING
 10
-41.887042279369552
 20
26.899999999998791
 30
0.0
 42
-0.9999999999999998
  0
VERTEX
  5
E03
  8
SAPA_ANSLUTNING
 10
-45.887042279369552
 20
26.899999999998791
 30
0.0
  0
VERTEX
  5
E04
  8
SAPA_ANSLUTNING
 10
-45.887042279369552
 20
37.899996315375802
 30
0.0
 42
0.9999999999999998
  0
VERTEX
  5
E05
  8
SAPA_ANSLUTNING
 10
-49.887042279365907
 20
37.899996315375802
 30
0.0
  0
VERTEX
  5
E06
  8
SAPA_ANSLUTNING
 10
-49.887042279365907
 20
26.899999999998791
 30
0.0
 42
-0.9999999999999998
  0
VERTEX
  5
E07
  8
SAPA_ANSLUTNING
 10
-53.887042279365907
 20
26.899999999998791
 30
0.0
  0
VERTEX
  5
E08
  8
SAPA_ANSLUTNING
 10
-53.887042279365907
 20
37.899996315375802
 30
0.0
 42
0.9999999999999998
  0
VERTEX
  5
E09
  8
SAPA_ANSLUTNING
 10
-57.887042279362277
 20
37.899996315375802
 30
0.0
  0
VERTEX
  5
E0A
  8
SAPA_ANSLUTNING
 10
-57.887042279362277
 20
26.899999999998791
 30
0.0
 42
-0.9999999999999998
  0
VERTEX
  5
E0B
  8
SAPA_ANSLUTNING
 10
-61.887042279362269
 20
26.899999999998791
 30
0.0
  0
VERTEX
  5
E0C
  8
SAPA_ANSLUTNING
 10
-61.887042279362269
 20
37.899996315375802
 30
0.0
 42
0.9999999999999998
  0
VERTEX
  5
E0D
  8
SAPA_ANSLUTNING
 10
-65.887042279358624
 20
37.899996315375802
 30
0.0
  0
VERTEX
  5
E0E
  8
SAPA_ANSLUTNING
 10
-65.887042279358624
 20
31.905679469618239
 30
0.0
  0
SEQEND
  5
E0F
  8
SAPA_ANSLUTNING
  0
LINE
  5
C47
  8
SAPA_PROFIL
 10
-120.9256579218579
 20
45.749071695819332
 30
0.0
 11
-119.86499775007699
 21
46.809731867598423
 31
0.0
  0
LINE
  5
C48
  8
SAPA_PROFIL
 10
-119.86499775007699
 20
46.809731867598423
 30
0.0
 11
-111.7773134386605
 21
38.722047556181913
 31
0.0
  0
LINE
  5
C49
  8
SAPA_PROFIL
 10
-111.7773134386605
 20
38.722047556181913
 30
0.0
 11
-96.999999999010242
 21
37.654982850142233
 31
0.0
  0
LINE
  5
C4A
  8
SAPA_PROFIL
 10
-96.999999999010242
 20
37.654982850142233
 30
0.0
 11
-96.999999999010242
 21
14.86373524251581
 31
0.0
  0
LINE
  5
C4B
  8
SAPA_PROFIL
 10
-96.999999999010242
 20
14.86373524251581
 30
0.0
 11
-98.499999999010242
 21
14.86373524251581
 31
0.0
  0
LINE
  5
C4C
  8
SAPA_PROFIL
 10
-98.499999999010242
 20
14.86373524251581
 30
0.0
 11
-98.499999999010242
 21
36.154982850142233
 31
0.0
  0
LINE
  5
C4D
  8
SAPA_PROFIL
 10
-98.499999999010242
 20
36.154982850142233
 30
0.0
 11
-112.432955016842
 21
37.256368790803442
 31
0.0
  0
LINE
  5
C4E
  8
SAPA_PROFIL
 10
-112.432955016842
 20
37.256368790803442
 30
0.0
 11
-120.9256579218579
 21
45.749071695819332
 31
0.0
  0
LINE
  5
D00
  8
SAPA_PROFIL
 10
-52.500000000001819
 20
10.99999999999932
 30
0.0
 11
-98.00000000000189
 21
10.99999999999932
 31
0.0
  0
LINE
  5
D01
  8
SAPA_PROFIL
 10
-52.500000000001819
 20
4.999999999999317
 30
0.0
 11
-52.500000000001819
 21
10.99999999999932
 31
0.0
  0
LINE
  5
D02
  8
SAPA_PROFIL
 10
-35.500000000001819
 20
4.999999999999317
 30
0.0
 11
-52.500000000001819
 21
4.999999999999317
 31
0.0
  0
LINE
  5
D03
  8
SAPA_PROFIL
 10
-35.500000000001819
 20
24.999999999999321
 30
0.0
 11
-35.500000000001819
 21
4.999999999999317
 31
0.0
  0
LINE
  5
D04
  8
SAPA_PROFIL
 10
-98.00000000000189
 20
24.999999999999321
 30
0.0
 11
-35.500000000001819
 21
24.999999999999321
 31
0.0
  0
LINE
  5
D05
  8
SAPA_PROFIL
 10
-98.00000000000189
 20
10.99999999999932
 30
0.0
 11
-98.00000000000189
 21
24.999999999999321
 31
0.0
  0
POLYLINE
  5
D06
  8
SAPA_PROFIL
 66
     1
 10
0.0
 20
0.0
 30
0.0
 70
     1
  0
VERTEX
  5
FC3
  8
SAPA_PROFIL
 10
-100.49999999901181
 20
-11.938375275004519
 30
0.0
 42
-0.2216946626428728
  0
VERTEX
  5
FC4
  8
SAPA_PROFIL
 10
-100.8572123893253
 20
-12.70441971812315
 30
0.0
  0
VERTEX
  5
FC5
  8
SAPA_PROFIL
 10
-102.14278760869649
 20
-13.78314541054803
 30
0.0
 42
0.2216946626428911
  0
VERTEX
  5
FC6
  8
SAPA_PROFIL
 10
-102.4999999990099
 20
-14.54918985366678
 30
0.0
  0
VERTEX
  5
FC7
  8
SAPA_PROFIL
 10
-102.4999999990104
 20
-16.325735931288339
 30
0.0
 42
-0.1989123673796749
  0
VERTEX
  5
FC8
  8
SAPA_PROFIL
 10
-102.58786796465439
 20
-16.537867965644612
 30
0.0
  0
VERTEX
  5
FC9
  8
SAPA_PROFIL
 10
-103.15857864277309
 20
-17.108578643762911
 30
0.0
 42
-0.6681786379193591
  0
VERTEX
  5
FCA
  8
SAPA_PROFIL
 10
-103.4999999990104
 20
-16.967157287525399
 30
0.0
  0
VERTEX
  5
FCB
  8
SAPA_PROFIL
 10
-103.4999999990102
 20
-16.000000000000199
 30
0.0
 42
0.4142135623730951
  0
VERTEX
  5
FCC
  8
SAPA_PROFIL
 10
-103.99999999901
 20
-15.500000000000201
 30
0.0
  0
VERTEX
  5
FCD
  8
SAPA_PROFIL
 10
-104.39080892873061
 20
-15.500000000000201
 30
0.0
 42
0.1763269807084316
  0
VERTEX
  5
FCE
  8
SAPA_PROFIL
 10
-104.58364521163639
 20
-15.57018666706446
 30
0.0
  0
VERTEX
  5
FCF
  8
SAPA_PROFIL
 10
-106.3213938038532
 20
-17.028330869872409
 30
0.0
 42
0.2216946626429586
  0
VERTEX
  5
FD0
  8
SAPA_PROFIL
 10
-106.4999999990099
 20
-17.411353091431891
 30
0.0
  0
VERTEX
  5
FD1
  8
SAPA_PROFIL
 10
-106.49999999901
 20
-19.981908440199248
 30
0.0
 42
0.2216946626429592
  0
VERTEX
  5
FD2
  8
SAPA_PROFIL
 10
-106.392836281916
 20
-20.211721773135171
 30
0.0
  0
VERTEX
  5
FD3
  8
SAPA_PROFIL
 10
-104.58364521163639
 20
-21.729813332935901
 30
0.0
 42
0.1763269807084563
  0
VERTEX
  5
FD4
  8
SAPA_PROFIL
 10
-104.39080892873061
 20
-21.800000000000161
 30
0.0
  0
VERTEX
  5
FD5
  8
SAPA_PROFIL
 10
-103.99999999901
 20
-21.800000000000161
 30
0.0
 42
0.4142135623730951
  0
VERTEX
  5
FD6
  8
SAPA_PROFIL
 10
-103.4999999990105
 20
-21.300000000000161
 30
0.0
  0
VERTEX
  5
FD7
  8
SAPA_PROFIL
 10
-103.4999999990105
 20
-20.332842712474729
 30
0.0
 42
-0.6681786379193841
  0
VERTEX
  5
FD8
  8
SAPA_PROFIL
 10
-103.15857864277309
 20
-20.191421356237669
 30
0.0
  0
VERTEX
  5
FD9
  8
SAPA_PROFIL
 10
-102.58786796465439
 20
-20.76213203435643
 30
0.0
 42
-0.1989123673796471
  0
VERTEX
  5
FDA
  8
SAPA_PROFIL
 10
-102.49999999901
 20
-20.974264068712252
 30
0.0
  0
VERTEX
  5
FDB
  8
SAPA_PROFIL
 10
-102.4999999990105
 20
-23.300000000000161
 30
0.0
 42
-0.4142135623730951
  0
VERTEX
  5
FDC
  8
SAPA_PROFIL
 10
-102.9999999990105
 20
-23.800000000000161
 30
0.0
  0
VERTEX
  5
FDD
  8
SAPA_PROFIL
 10
-106.6999999990103
 20
-23.800000000000729
 30
0.0
 42
-0.4142135623729843
  0
VERTEX
  5
FDE
  8
SAPA_PROFIL
 10
-106.9999999990105
 20
-23.500000000000661
 30
0.0
  0
VERTEX
  5
FDF
  8
SAPA_PROFIL
 10
-106.9999999990104
 20
-22.473205080758341
 30
0.0
 42
0.26794919243117
  0
VERTEX
  5
FE0
  8
SAPA_PROFIL
 10
-107.1499999990105
 20
-22.213397459622659
 30
0.0
  0
VERTEX
  5
FE1
  8
SAPA_PROFIL
 10
-108.6580771356048
 20
-21.342708718851419
 30
0.0
 42
0.4142135623734465
  0
VERTEX
  5
FE2
  8
SAPA_PROFIL
 10
-109.06788475674
 20
-21.452516339986659
 30
0.0
  0
VERTEX
  5
FE3
  8
SAPA_PROFIL
 10
-109.38397459522599
 20
-22.00000000000054
 30
0.0
 42
-0.4663076581550835
  0
VERTEX
  5
FE4
  8
SAPA_PROFIL
 10
-110.89278760869691
 20
-22.266044443119519
 30
0.0
  0
VERTEX
  5
FE5
  8
SAPA_PROFIL
 10
-114.3928362819163
 20
-19.329154892317291
 30
0.0
 42
-0.2216946626429129
  0
VERTEX
  5
FE6
  8
SAPA_PROFIL
 10
-114.4999999990103
 20
-19.0993415593816
 30
0.0
  0
VERTEX
  5
FE7
  8
SAPA_PROFIL
 10
-114.4999999990103
 20
-17.950000000000021
 30
0.0
 42
-0.4142135623732061
  0
VERTEX
  5
FE8
  8
SAPA_PROFIL
 10
-114.1999999990102
 20
-17.650000000000059
 30
0.0
  0
VERTEX
  5
FE9
  8
SAPA_PROFIL
 10
-110.6932604937618
 20
-17.650000000000631
 30
0.0
 42
0.1763269807085094
  0
VERTEX
  5
FEA
  8
SAPA_PROFIL
 10
-110.05047288407511
 20
-17.416044443119599
 30
0.0
  0
VERTEX
  5
FEB
  8
SAPA_PROFIL
 10
-107.307163716104
 20
-15.1141347320698
 30
0.0
 42
0.2216946626429509
  0
VERTEX
  5
FEC
  8
SAPA_PROFIL
 10
-107.19999999901
 20
-14.884321399134111
 30
0.0
  0
VERTEX
  5
FED
  8
SAPA_PROFIL
 10
-107.19999999901
 20
-14.024213696580629
 30
0.0
 42
-0.4142135623731506
  0
VERTEX
  5
FEE
  8
SAPA_PROFIL
 10
-106.89999999901001
 20
-13.72421369658068
 30
0.0
  0
VERTEX
  5
FEF
  8
SAPA_PROFIL
 10
-105.759911398917
 20
-13.72421369658068
 30
0.0
 42
0.1763269807084654
  0
VERTEX
  5
FF0
  8
SAPA_PROFIL
 10
-105.5670751160111
 20
-13.654027029516421
 30
0.0
  0
VERTEX
  5
FF1
  8
SAPA_PROFIL
 10
-103.5572123893233
 20
-11.967551956835759
 30
0.0
 42
0.2216946626429509
  0
VERTEX
  5
FF2
  8
SAPA_PROFIL
 10
-103.1999999990099
 20
-11.201507513716789
 30
0.0
  0
VERTEX
  5
FF3
  8
SAPA_PROFIL
 10
-103.19999999901
 20
11.201507513716839
 30
0.0
 42
0.2216946626429508
  0
VERTEX
  5
FF4
  8
SAPA_PROFIL
 10
-103.5572123893234
 20
11.967551956835811
 30
0.0
  0
VERTEX
  5
FF5
  8
SAPA_PROFIL
 10
-105.5670751160112
 20
13.65402702951646
 30
0.0
 42
0.1763269807084657
  0
VERTEX
  5
FF6
  8
SAPA_PROFIL
 10
-105.7599113989171
 20
13.72421369658073
 30
0.0
  0
VERTEX
  5
FF7
  8
SAPA_PROFIL
 10
-106.89999999901001
 20
13.72421369658073
 30
0.0
 42
-0.4142135623730951
  0
VERTEX
  5
FF8
  8
SAPA_PROFIL
 10
-107.1999999990099
 20
14.024213696580681
 30
0.0
  0
VERTEX
  5
FF9
  8
SAPA_PROFIL
 10
-107.1999999990099
 20
14.88432139913416
 30
0.0
 42
0.2216946626429889
  0
VERTEX
  5
FFA
  8
SAPA_PROFIL
 10
-107.307163716104
 20
15.11413473206985
 30
0.0
  0
VERTEX
  5
FFB
  8
SAPA_PROFIL
 10
-110.05047288407521
 20
17.416044443119649
 30
0.0
 42
0.1763269807085052
  0
VERTEX
  5
FFC
  8
SAPA_PROFIL
 10
-110.693260493762
 20
17.650000000000681
 30
0.0
  0
VERTEX
  5
FFD
  8
SAPA_PROFIL
 10
-114.1999999990102
 20
17.649999999999999
 30
0.0
 42
-0.4142135623732062
  0
VERTEX
  5
FFE
  8
SAPA_PROFIL
 10
-114.4999999990103
 20
17.94999999999995
 30
0.0
  0
VERTEX
  5
FFF
  8
SAPA_PROFIL
 10
-114.4999999990103
 20
19.099341559381539
 30
0.0
 42
-0.2216946626429129
  0
VERTEX
  5
1000
  8
SAPA_PROFIL
 10
-114.3928362819163
 20
19.329154892317231
 30
0.0
  0
VERTEX
  5
1001
  8
SAPA_PROFIL
 10
-110.89278760869691
 20
22.266044443119569
 30
0.0
 42
-0.4663076581550919
  0
VERTEX
  5
1002
  8
SAPA_PROFIL
 10
-109.38397459522599
 20
22.00000000000059
 30
0.0
  0
VERTEX
  5
1003
  8
SAPA_PROFIL
 10
-109.0678847567401
 20
21.452516339986708
 30
0.0
 42
0.4142135623731708
  0
VERTEX
  5
1004
  8
SAPA_PROFIL
 10
-108.6580771356048
 20
21.342708718851469
 30
0.0
  0
VERTEX
  5
1005
  8
SAPA_PROFIL
 10
-107.1499999990105
 20
22.213397459622708
 30
0.0
 42
0.26794919243117
  0
VERTEX
  5
1006
  8
SAPA_PROFIL
 10
-106.9999999990104
 20
22.47320508075839
 30
0.0
  0
VERTEX
  5
1007
  8
SAPA_PROFIL
 10
-106.9999999990104
 20
23.500000000000711
 30
0.0
 42
-0.4142135623729287
  0
VERTEX
  5
1008
  8
SAPA_PROFIL
 10
-106.6999999990103
 20
23.800000000000779
 30
0.0
  0
VERTEX
  5
1009
  8
SAPA_PROFIL
 10
-102.9999999990104
 20
23.8000000000002
 30
0.0
 42
-0.4142135623730951
  0
VERTEX
  5
100A
  8
SAPA_PROFIL
 10
-102.4999999990104
 20
23.3000000000002
 30
0.0
  0
VERTEX
  5
100B
  8
SAPA_PROFIL
 10
-102.49999999901
 20
20.974264068712301
 30
0.0
 42
-0.1989123673796819
  0
VERTEX
  5
100C
  8
SAPA_PROFIL
 10
-102.58786796465439
 20
20.762132034356469
 30
0.0
  0
VERTEX
  5
100D
  8
SAPA_PROFIL
 10
-103.15857864277309
 20
20.191421356237718
 30
0.0
 42
-0.6681786379193841
  0
VERTEX
  5
100E
  8
SAPA_PROFIL
 10
-103.4999999990104
 20
20.332842712474779
 30
0.0
  0
VERTEX
  5
100F
  8
SAPA_PROFIL
 10
-103.4999999990104
 20
21.3000000000002
 30
0.0
 42
0.4142135623730951
  0
VERTEX
  5
1010
  8
SAPA_PROFIL
 10
-103.99999999901
 20
21.80000000000021
 30
0.0
  0
VERTEX
  5
1011
  8
SAPA_PROFIL
 10
-104.39080892873061
 20
21.80000000000021
 30
0.0
 42
0.1763269807084561
  0
VERTEX
  5
1012
  8
SAPA_PROFIL
 10
-104.58364521163639
 20
21.72981333293594
 30
0.0
  0
VERTEX
  5
1013
  8
SAPA_PROFIL
 10
-106.392836281916
 20
20.211721773135221
 30
0.0
 42
0.2216946626429592
  0
VERTEX
  5
1014
  8
SAPA_PROFIL
 10
-106.49999999901
 20
19.981908440199302
 30
0.0
  0
VERTEX
  5
1015
  8
SAPA_PROFIL
 10
-106.4999999990099
 20
17.411353091431941
 30
0.0
 42
0.2216946626429736
  0
VERTEX
  5
1016
  8
SAPA_PROFIL
 10
-106.3213938038532
 20
17.028330869872448
 30
0.0
  0
VERTEX
  5
1017
  8
SAPA_PROFIL
 10
-104.58364521163639
 20
15.57018666706451
 30
0.0
 42
0.1763269807084407
  0
VERTEX
  5
1018
  8
SAPA_PROFIL
 10
-104.39080892873061
 20
15.50000000000025
 30
0.0
  0
VERTEX
  5
1019
  8
SAPA_PROFIL
 10
-103.99999999901
 20
15.50000000000025
 30
0.0
 42
0.4142135623730951
  0
VERTEX
  5
101A
  8
SAPA_PROFIL
 10
-103.4999999990104
 20
16.000000000000249
 30
0.0
  0
VERTEX
  5
101B
  8
SAPA_PROFIL
 10
-103.4999999990104
 20
16.967157287525438
 30
0.0
 42
-0.6681786379193591
  0
VERTEX
  5
101C
  8
SAPA_PROFIL
 10
-103.15857864277309
 20
17.108578643762961
 30
0.0
  0
VERTEX
  5
101D
  8
SAPA_PROFIL
 10
-102.58786796465439
 20
16.537867965644661
 30
0.0
 42
-0.1989123673796749
  0
VERTEX
  5
101E
  8
SAPA_PROFIL
 10
-102.4999999990104
 20
16.325735931288381
 30
0.0
  0
VERTEX
  5
101F
  8
SAPA_PROFIL
 10
-102.4999999990099
 20
14.54918985366694
 30
0.0
 42
0.2216946626428804
  0
VERTEX
  5
1020
  8
SAPA_PROFIL
 10
-102.14278760869639
 20
13.78314541054819
 30
0.0
  0
VERTEX
  5
1021
  8
SAPA_PROFIL
 10
-100.8572123893253
 20
12.7044197181232
 30
0.0
 42
-0.2216946626428499
  0
VERTEX
  5
1022
  8
SAPA_PROFIL
 10
-100.49999999901181
 20
11.938375275004571
 30
0.0
  0
VERTEX
  5
1023
  8
SAPA_PROFIL
 10
-100.49999999901
 20
6.6500000000001123
 30
0.0
 42
0.4142135623730951
  0
VERTEX
  5
1024
  8
SAPA_PROFIL
 10
-100.1999999990103
 20
6.3499999999999304
 30
0.0
  0
VERTEX
  5
1025
  8
SAPA_PROFIL
 10
-99.799999999010197
 20
6.3499999999999304
 30
0.0
 42
-0.4142135623730951
  0
VERTEX
  5
1026
  8
SAPA_PROFIL
 10
-99.499999999010015
 20
6.0500000000002032
 30
0.0
  0
VERTEX
  5
1027
  8
SAPA_PROFIL
 10
-99.499999999010015
 20
5.6500000000001123
 30
0.0
 42
-0.4142135623730951
  0
VERTEX
  5
1028
  8
SAPA_PROFIL
 10
-99.799999999010197
 20
5.3499999999999304
 30
0.0
  0
VERTEX
  5
1029
  8
SAPA_PROFIL
 10
-100.1999999990103
 20
5.3499999999999304
 30
0.0
 42
0.4142135623730951
  0
VERTEX
  5
102A
  8
SAPA_PROFIL
 10
-100.49999999901
 20
5.0500000000002032
 30
0.0
  0
VERTEX
  5
102B
  8
SAPA_PROFIL
 10
-100.49999999901
 20
0.6242640687119306
 30
0.0
 42
-0.1989123673795535
  0
VERTEX
  5
102C
  8
SAPA_PROFIL
 10
-100.5878679646539
 20
0.4121320343561124
 30
0.0
  0
VERTEX
  5
102D
  8
SAPA_PROFIL
 10
-100.99999999901
 20
0.0000000000000213
 30
0.0
  0
VERTEX
  5
102E
  8
SAPA_PROFIL
 10
-100.5878679646539
 20
-0.4121320343560697
 30
0.0
 42
-0.1989123673795536
  0
VERTEX
  5
102F
  8
SAPA_PROFIL
 10
-100.49999999901
 20
-0.6242640687118879
 30
0.0
  0
VERTEX
  5
1030
  8
SAPA_PROFIL
 10
-100.49999999901
 20
-5.0499999999997049
 30
0.0
 42
0.4142135623730951
  0
VERTEX
  5
1031
  8
SAPA_PROFIL
 10
-100.1999999990103
 20
-5.3499999999998868
 30
0.0
  0
VERTEX
  5
1032
  8
SAPA_PROFIL
 10
-99.799999999010197
 20
-5.3499999999998868
 30
0.0
 42
-0.4142135623730951
  0
VERTEX
  5
1033
  8
SAPA_PROFIL
 10
-99.499999999010015
 20
-5.6500000000000687
 30
0.0
  0
VERTEX
  5
1034
  8
SAPA_PROFIL
 10
-99.499999999010015
 20
-6.0500000000001597
 30
0.0
 42
-0.4142135623730951
  0
VERTEX
  5
1035
  8
SAPA_PROFIL
 10
-99.799999999010197
 20
-6.3499999999998868
 30
0.0
  0
VERTEX
  5
1036
  8
SAPA_PROFIL
 10
-100.1999999990103
 20
-6.3499999999998868
 30
0.0
 42
0.414213562373095
  0
VERTEX
  5
1037
  8
SAPA_PROFIL
 10
-100.49999999901
 20
-6.6500000000000687
 30
0.0
  0
SEQEND
  5
1038
  8
SAPA_PROFIL
  0
POLYLINE
  5
D07
  8
SAPA_PROFIL
 66
     1
 10
0.0
 20
0.0
 30
0.0
 70
     1
  0
VERTEX
  5
1039
  8
SAPA_PROFIL
 10
-35.283588601451129
 20
18.272948575180632
 30
0.0
 42
0.1691807452125083
  0
VERTEX
  5
103A
  8
SAPA_PROFIL
 10
-35.500000000002053
 20
17.651668522644741
 30
0.0
  0
VERTEX
  5
103B
  8
SAPA_PROFIL
 10
-35.500000000002053
 20
11.2999999999995
 30
0.0
 42
0.4142135623730951
  0
VERTEX
  5
103C
  8
SAPA_PROFIL
 10
-35.200000000002092
 20
10.99999999999954
 30
0.0
  0
VERTEX
  5
103D
  8
SAPA_PROFIL
 10
-34.500000000002053
 20
10.99999999999954
 30
0.0
 42
0.4142135623730951
  0
VERTEX
  5
103E
  8
SAPA_PROFIL
 10
-34.200000000002092
 20
11.2999999999995
 30
0.0
  0
VERTEX
  5
103F
  8
SAPA_PROFIL
 10
-34.200000000002092
 20
14.19999999999936
 30
0.0
 42
-0.4142135623730951
  0
VERTEX
  5
1040
  8
SAPA_PROFIL
 10
-33.700000000002092
 20
14.69999999999936
 30
0.0
  0
VERTEX
  5
1041
  8
SAPA_PROFIL
 10
-30.50000000000205
 20
14.69999999999936
 30
0.0
 42
-0.4142135623730951
  0
VERTEX
  5
1042
  8
SAPA_PROFIL
 10
-30.00000000000205
 20
14.19999999999936
 30
0.0
  0
VERTEX
  5
1043
  8
SAPA_PROFIL
 10
-30.00000000000199
 20
5.9999999999995453
 30
0.0
 42
-0.4142135623730951
  0
VERTEX
  5
1044
  8
SAPA_PROFIL
 10
-31.00000000000199
 20
4.9999999999995453
 30
0.0
  0
VERTEX
  5
1045
  8
SAPA_PROFIL
 10
-52.200000000002042
 20
4.9999999999995453
 30
0.0
 42
0.4142135623730948
  0
VERTEX
  5
1046
  8
SAPA_PROFIL
 10
-52.500000000001982
 20
4.6999999999993634
 30
0.0
  0
VERTEX
  5
1047
  8
SAPA_PROFIL
 10
-52.500000000001982
 20
3.2100053408689742
 30
0.0
 42
0.2135746067194863
  0
VERTEX
  5
1048
  8
SAPA_PROFIL
 10
-52.399869219877189
 20
2.9862816386234949
 30
0.0
  0
VERTEX
  5
1049
  8
SAPA_PROFIL
 10
-51.562132034357937
 20
2.2378679656435452
 30
0.0
 42
0.6681786379193474
  0
VERTEX
  5
104A
  8
SAPA_PROFIL
 10
-51.050000000002171
 20
2.4499999999993629
 30
0.0
  0
VERTEX
  5
104B
  8
SAPA_PROFIL
 10
-51.050000000002171
 20
2.6999999999993629
 30
0.0
  0
VERTEX
  5
104C
  8
SAPA_PROFIL
 10
-49.673765406425609
 20
2.1767196966975462
 30
0.0
 42
0.5450207798986705
  0
VERTEX
  5
104D
  8
SAPA_PROFIL
 10
-49.25000000000199
 20
2.4499999999993629
 30
0.0
  0
VERTEX
  5
104E
  8
SAPA_PROFIL
 10
-49.25000000000199
 20
2.6999999999993629
 30
0.0
  0
VERTEX
  5
104F
  8
SAPA_PROFIL
 10
-47.873765406425427
 20
2.1767196966975462
 30
0.0
 42
0.5450207798987319
  0
VERTEX
  5
1050
  8
SAPA_PROFIL
 10
-47.450000000002028
 20
2.4499999999993629
 30
0.0
  0
VERTEX
  5
1051
  8
SAPA_PROFIL
 10
-47.450000000002028
 20
2.6999999999993629
 30
0.0
  0
VERTEX
  5
1052
  8
SAPA_PROFIL
 10
-46.073765406425707
 20
2.1767196966975462
 30
0.0
 42
0.5450207798986705
  0
VERTEX
  5
1053
  8
SAPA_PROFIL
 10
-45.65000000000208
 20
2.4499999999993629
 30
0.0
  0
VERTEX
  5
1054
  8
SAPA_PROFIL
 10
-45.65000000000208
 20
2.6999999999993629
 30
0.0
  0
VERTEX
  5
1055
  8
SAPA_PROFIL
 10
-44.273765406425518
 20
2.1767196966975462
 30
0.0
 42
0.5450207798986705
  0
VERTEX
  5
1056
  8
SAPA_PROFIL
 10
-43.850000000001891
 20
2.4499999999993629
 30
0.0
  0
VERTEX
  5
1057
  8
SAPA_PROFIL
 10
-43.850000000001891
 20
2.6999999999993629
 30
0.0
  0
VERTEX
  5
1058
  8
SAPA_PROFIL
 10
-43.126282705195933
 20
2.4722372826154242
 30
0.0
 42
-0.2945484962562833
  0
VERTEX
  5
1059
  8
SAPA_PROFIL
 10
-42.950048040247729
 20
2.1988824689369721
 30
0.0
  0
VERTEX
  5
105A
  8
SAPA_PROFIL
 10
-42.950255222214018
 20
1.2642999377476369
 30
0.0
 42
0.3475954753796645
  0
VERTEX
  5
105B
  8
SAPA_PROFIL
 10
-42.719501178045157
 20
0.9723265106774761
 30
0.0
 42
-0.7905229096113513
  0
VERTEX
  5
105C
  8
SAPA_PROFIL
 10
-42.719490973604643
 20
-0.9736640898661335
 30
0.0
 42
0.3476065658631767
  0
VERTEX
  5
105D
  8
SAPA_PROFIL
 10
-42.950241952336619
 20
-1.2656518108876751
 30
0.0
  0
VERTEX
  5
105E
  8
SAPA_PROFIL
 10
-42.950095231627699
 20
-1.849992662093882
 30
0.0
 42
-0.4102317530970184
  0
VERTEX
  5
105F
  8
SAPA_PROFIL
 10
-43.245946879781222
 20
-2.1500282985862209
 30
0.0
 42
0.0712587206050455
  0
VERTEX
  5
1060
  8
SAPA_PROFIL
 10
-43.329990804709659
 20
-2.163255612455941
 30
0.0
  0
VERTEX
  5
1061
  8
SAPA_PROFIL
 10
-44.75000000000199
 20
-2.7000000000004998
 30
0.0
  0
VERTEX
  5
1062
  8
SAPA_PROFIL
 10
-44.75000000000199
 20
-2.4500000000004998
 30
0.0
 42
0.5450200690651181
  0
VERTEX
  5
1063
  8
SAPA_PROFIL
 10
-45.173765000001993
 20
-2.176719000000503
 30
0.0
  0
VERTEX
  5
1064
  8
SAPA_PROFIL
 10
-46.550000000002157
 20
-2.7000000000004998
 30
0.0
  0
VERTEX
  5
1065
  8
SAPA_PROFIL
 10
-46.550000000001937
 20
-2.4500000000004998
 30
0.0
 42
0.5450200690652297
  0
VERTEX
  5
1066
  8
SAPA_PROFIL
 10
-46.973765000002167
 20
-2.176719000000503
 30
0.0
  0
VERTEX
  5
1067
  8
SAPA_PROFIL
 10
-48.350000000001899
 20
-2.7000000000004998
 30
0.0
  0
VERTEX
  5
1068
  8
SAPA_PROFIL
 10
-48.350000000001899
 20
-2.4500000000004998
 30
0.0
 42
0.5450200690651181
  0
VERTEX
  5
1069
  8
SAPA_PROFIL
 10
-48.773765000001902
 20
-2.176719000000503
 30
0.0
  0
VERTEX
  5
106A
  8
SAPA_PROFIL
 10
-50.15000000000208
 20
-2.7000000000004998
 30
0.0
  0
VERTEX
  5
106B
  8
SAPA_PROFIL
 10
-50.15000000000208
 20
-2.1500000000005448
 30
0.0
  0
VERTEX
  5
106C
  8
SAPA_PROFIL
 10
-51.350000000001891
 20
-2.1500000000005448
 30
0.0
 42
0.1989123673797028
  0
VERTEX
  5
106D
  8
SAPA_PROFIL
 10
-51.562132000002009
 20
-2.237868000000617
 30
0.0
  0
VERTEX
  5
106E
  8
SAPA_PROFIL
 10
-52.399869211247669
 20
-2.9862816378599741
 30
0.0
 42
0.2135746168025217
  0
VERTEX
  5
106F
  8
SAPA_PROFIL
 10
-52.500000000001982
 20
-3.210005347815013
 30
0.0
  0
VERTEX
  5
1070
  8
SAPA_PROFIL
 10
-52.500000000001982
 20
-4.7000000000005002
 30
0.0
 42
0.4142135623730951
  0
VERTEX
  5
1071
  8
SAPA_PROFIL
 10
-52.200000000002042
 20
-5.0000000000004539
 30
0.0
  0
VERTEX
  5
1072
  8
SAPA_PROFIL
 10
-31.00000000000199
 20
-5.0000000000004539
 30
0.0
 42
-0.4142135623730951
  0
VERTEX
  5
1073
  8
SAPA_PROFIL
 10
-30.00000000000199
 20
-6.0000000000004539
 30
0.0
  0
VERTEX
  5
1074
  8
SAPA_PROFIL
 10
-30.00000000000199
 20
-14.2000000000005
 30
0.0
 42
-0.4142135623730951
  0
VERTEX
  5
1075
  8
SAPA_PROFIL
 10
-30.50000000000199
 20
-14.7000000000005
 30
0.0
  0
VERTEX
  5
1076
  8
SAPA_PROFIL
 10
-33.700000000002028
 20
-14.7000000000005
 30
0.0
 42
-0.4142135623730951
  0
VERTEX
  5
1077
  8
SAPA_PROFIL
 10
-34.200000000002042
 20
-14.2000000000005
 30
0.0
  0
VERTEX
  5
1078
  8
SAPA_PROFIL
 10
-34.200000000002042
 20
-11.30000000000063
 30
0.0
 42
0.4142135623730951
  0
VERTEX
  5
1079
  8
SAPA_PROFIL
 10
-34.50000000000199
 20
-11.000000000000449
 30
0.0
  0
VERTEX
  5
107A
  8
SAPA_PROFIL
 10
-35.200000000002042
 20
-11.000000000000449
 30
0.0
 42
0.4142135623730948
  0
VERTEX
  5
107B
  8
SAPA_PROFIL
 10
-35.50000000000199
 20
-11.30000000000063
 30
0.0
  0
VERTEX
  5
107C
  8
SAPA_PROFIL
 10
-35.50000000000199
 20
-17.65166852264565
 30
0.0
 42
0.1691807452125083
  0
VERTEX
  5
107D
  8
SAPA_PROFIL
 10
-35.283588601451072
 20
-18.272948575181541
 30
0.0
  0
VERTEX
  5
107E
  8
SAPA_PROFIL
 10
-35.035076580643079
 20
-18.586384015501149
 30
0.0
 42
0.7105995019815232
  0
VERTEX
  5
107F
  8
SAPA_PROFIL
 10
-34.50000000000199
 20
-18.400000000000539
 30
0.0
  0
VERTEX
  5
1080
  8
SAPA_PROFIL
 10
-34.50000000000199
 20
-16.500000000000451
 30
0.0
 42
-0.4142135623730951
  0
VERTEX
  5
1081
  8
SAPA_PROFIL
 10
-34.200000000002042
 20
-16.2000000000005
 30
0.0
  0
VERTEX
  5
1082
  8
SAPA_PROFIL
 10
-30.300000000001951
 20
-16.2000000000005
 30
0.0
 42
-0.4142135623730951
  0
VERTEX
  5
1083
  8
SAPA_PROFIL
 10
-30.00000000000199
 20
-16.500000000000451
 30
0.0
  0
VERTEX
  5
1084
  8
SAPA_PROFIL
 10
-30.00000000000199
 20
-23.2000000000005
 30
0.0
 42
-0.4142135623730951
  0
VERTEX
  5
1085
  8
SAPA_PROFIL
 10
-30.300000000002171
 20
-23.500000000000451
 30
0.0
  0
VERTEX
  5
1086
  8
SAPA_PROFIL
 10
-34.200000000002042
 20
-23.500000000000451
 30
0.0
 42
-0.4142135623730951
  0
VERTEX
  5
1087
  8
SAPA_PROFIL
 10
-34.50000000000199
 20
-23.2000000000005
 30
0.0
  0
VERTEX
  5
1088
  8
SAPA_PROFIL
 10
-34.50000000000199
 20
-22.000000000000451
 30
0.0
 42
0.7105990647992588
  0
VERTEX
  5
1089
  8
SAPA_PROFIL
 10
-35.035076000002107
 20
-21.813616000000589
 30
0.0
  0
VERTEX
  5
108A
  8
SAPA_PROFIL
 10
-35.283588215719369
 20
-22.127051286415281
 30
0.0
 42
0.1691809048716788
  0
VERTEX
  5
108B
  8
SAPA_PROFIL
 10
-35.50000000000199
 20
-22.748331825454901
 30
0.0
  0
VERTEX
  5
108C
  8
SAPA_PROFIL
 10
-35.50000000000199
 20
-24.7000000000005
 30
0.0
 42
0.4142135623730951
  0
VERTEX
  5
108D
  8
SAPA_PROFIL
 10
-35.200000000002042
 20
-25.000000000000458
 30
0.0
  0
VERTEX
  5
108E
  8
SAPA_PROFIL
 10
83.999999999997826
 20
-25.000000000000458
 30
0.0
 42
0.4142135623730951
  0
VERTEX
  5
108F
  8
SAPA_PROFIL
 10
84.49999999999784
 20
-24.500000000000451
 30
0.0
  0
VERTEX
  5
1090
  8
SAPA_PROFIL
 10
84.49999999999784
 20
24.499999999999549
 30
0.0
 42
0.4142135623730951
  0
VERTEX
  5
1091
  8
SAPA_PROFIL
 10
83.999999999997826
 20
24.999999999999549
 30
0.0
  0
VERTEX
  5
1092
  8
SAPA_PROFIL
 10
-35.200000000002092
 20
24.999999999999549
 30
0.0
 42
0.4142135623730948
  0
VERTEX
  5
1093
  8
SAPA_PROFIL
 10
-35.500000000002053
 20
24.69999999999937
 30
0.0
  0
VERTEX
  5
1094
  8
SAPA_PROFIL
 10
-35.500000000002053
 20
22.74833147735421
 30
0.0
 42
0.1691807452125083
  0
VERTEX
  5
1095
  8
SAPA_PROFIL
 10
-35.283588601451129
 20
22.127051424818319
 30
0.0
  0
VERTEX
  5
1096
  8
SAPA_PROFIL
 10
-35.035076580643143
 20
21.813615984498941
 30
0.0
 42
0.7105995019815232
  0
VERTEX
  5
1097
  8
SAPA_PROFIL
 10
-34.50000000000199
 20
21.999999999999542
 30
0.0
  0
VERTEX
  5
1098
  8
SAPA_PROFIL
 10
-34.500000000002053
 20
23.19999999999936
 30
0.0
 42
-0.4142135623730948
  0
VERTEX
  5
1099
  8
SAPA_PROFIL
 10
-34.200000000002092
 20
23.499999999999549
 30
0.0
  0
VERTEX
  5
109A
  8
SAPA_PROFIL
 10
-30.300000000002228
 20
23.499999999999549
 30
0.0
 42
-0.4142135623730951
  0
VERTEX
  5
109B
  8
SAPA_PROFIL
 10
-30.00000000000205
 20
23.19999999999936
 30
0.0
  0
VERTEX
  5
109C
  8
SAPA_PROFIL
 10
-30.00000000000205
 20
16.499999999999542
 30
0.0
 42
-0.4142135623730951
  0
VERTEX
  5
109D
  8
SAPA_PROFIL
 10
-30.300000000002001
 20
16.19999999999936
 30
0.0
  0
VERTEX
  5
109E
  8
SAPA_PROFIL
 10
-34.200000000002092
 20
16.19999999999936
 30
0.0
 42
-0.414213562373095
  0
VERTEX
  5
109F
  8
SAPA_PROFIL
 10
-34.500000000002053
 20
16.499999999999542
 30
0.0
  0
VERTEX
  5
10A0
  8
SAPA_PROFIL
 10
-34.500000000002053
 20
18.399999999999409
 30
0.0
 42
0.7105995019815232
  0
VERTEX
  5
10A1
  8
SAPA_PROFIL
 10
-35.035076580643079
 20
18.586384015500009
 30
0.0
  0
SEQEND
  5
10A2
  8
SAPA_PROFIL
  0
POLYLINE
  5
D08
  8
SAPA_PROFIL
 66
     1
 10
0.0
 20
0.0
 30
0.0
 70
     1
  0
VERTEX
  5
10A3
  8
SAPA_PROFIL
 10
-33.050000000002171
 20
2.6999999999993629
 30
0.0
  0
VERTEX
  5
10A4
  8
SAPA_PROFIL
 10
-33.050000000002171
 20
2.3499999999994539
 30
0.0
 42
-0.545020779898761
  0
VERTEX
  5
10A5
  8
SAPA_PROFIL
 10
-33.473765406425571
 20
2.0767196966974089
 30
0.0
  0
VERTEX
  5
10A6
  8
SAPA_PROFIL
 10
-34.850000000001899
 20
2.6999999999993629
 30
0.0
  0
VERTEX
  5
10A7
  8
SAPA_PROFIL
 10
-34.850000000001899
 20
2.3499999999994539
 30
0.0
 42
-0.54502077989874
  0
VERTEX
  5
10A8
  8
SAPA_PROFIL
 10
-35.273765406425532
 20
2.0767196966974089
 30
0.0
  0
VERTEX
  5
10A9
  8
SAPA_PROFIL
 10
-36.65000000000208
 20
2.6999999999993629
 30
0.0
  0
VERTEX
  5
10AA
  8
SAPA_PROFIL
 10
-36.65000000000208
 20
2.3499999999994539
 30
0.0
 42
-0.545020779898768
  0
VERTEX
  5
10AB
  8
SAPA_PROFIL
 10
-37.073765406425707
 20
2.0767196966974089
 30
0.0
  0
VERTEX
  5
10AC
  8
SAPA_PROFIL
 10
-38.450000000002042
 20
2.6999999999993629
 30
0.0
  0
VERTEX
  5
10AD
  8
SAPA_PROFIL
 10
-38.450000000002042
 20
2.3499999999994539
 30
0.0
 42
-0.5450205149791638
  0
VERTEX
  5
10AE
  8
SAPA_PROFIL
 10
-38.873765000002038
 20
2.0767199999995678
 30
0.0
  0
VERTEX
  5
10AF
  8
SAPA_PROFIL
 10
-40.25000000000199
 20
2.6999999999993629
 30
0.0
  0
VERTEX
  5
10B0
  8
SAPA_PROFIL
 10
-40.25000000000199
 20
2.3499999999994539
 30
0.0
 42
-0.5450207798987328
  0
VERTEX
  5
10B1
  8
SAPA_PROFIL
 10
-40.673765406425623
 20
2.0767196966974089
 30
0.0
  0
VERTEX
  5
10B2
  8
SAPA_PROFIL
 10
-41.450000000002028
 20
2.428267633510131
 30
0.0
  0
VERTEX
  5
10B3
  8
SAPA_PROFIL
 10
-41.450000000002028
 20
-2.7000000000004998
 30
0.0
  0
VERTEX
  5
10B4
  8
SAPA_PROFIL
 10
-41.15000000000208
 20
-2.7000000000004998
 30
0.0
  0
VERTEX
  5
10B5
  8
SAPA_PROFIL
 10
-39.773765000001902
 20
-2.0767190000005931
 30
0.0
 42
-0.5450200690651692
  0
VERTEX
  5
10B6
  8
SAPA_PROFIL
 10
-39.350000000001899
 20
-2.3500000000005912
 30
0.0
  0
VERTEX
  5
10B7
  8
SAPA_PROFIL
 10
-39.350000000001899
 20
-2.7000000000004998
 30
0.0
  0
VERTEX
  5
10B8
  8
SAPA_PROFIL
 10
-37.973765000002167
 20
-2.0767190000005931
 30
0.0
 42
-0.5450200690651619
  0
VERTEX
  5
10B9
  8
SAPA_PROFIL
 10
-37.550000000001937
 20
-2.3500000000005912
 30
0.0
  0
VERTEX
  5
10BA
  8
SAPA_PROFIL
 10
-37.550000000002171
 20
-2.7000000000004998
 30
0.0
  0
VERTEX
  5
10BB
  8
SAPA_PROFIL
 10
-36.173765000002
 20
-2.0767190000005931
 30
0.0
 42
-0.5450200690651619
  0
VERTEX
  5
10BC
  8
SAPA_PROFIL
 10
-35.75000000000199
 20
-2.3500000000005912
 30
0.0
  0
VERTEX
  5
10BD
  8
SAPA_PROFIL
 10
-35.75000000000199
 20
-2.7000000000004998
 30
0.0
  0
VERTEX
  5
10BE
  8
SAPA_PROFIL
 10
-34.373765000002038
 20
-2.0767190000005931
 30
0.0
 42
-0.5450200690651692
  0
VERTEX
  5
10BF
  8
SAPA_PROFIL
 10
-33.950000000002042
 20
-2.3500000000005912
 30
0.0
  0
VERTEX
  5
10C0
  8
SAPA_PROFIL
 10
-33.950000000002042
 20
-2.7000000000004998
 30
0.0
  0
VERTEX
  5
10C1
  8
SAPA_PROFIL
 10
-32.573765000002091
 20
-2.0767190000005931
 30
0.0
 42
-0.5450200690651551
  0
VERTEX
  5
10C2
  8
SAPA_PROFIL
 10
-32.15000000000208
 20
-2.3500000000005912
 30
0.0
  0
VERTEX
  5
10C3
  8
SAPA_PROFIL
 10
-32.15000000000208
 20
-2.7000000000004998
 30
0.0
  0
VERTEX
  5
10C4
  8
SAPA_PROFIL
 10
-31.00000000000199
 20
-2.7000000000004998
 30
0.0
 42
0.4142135623730951
  0
VERTEX
  5
10C5
  8
SAPA_PROFIL
 10
-30.00000000000199
 20
-1.7000000000005
 30
0.0
  0
VERTEX
  5
10C6
  8
SAPA_PROFIL
 10
-30.00000000000199
 20
1.6999999999993629
 30
0.0
 42
0.4142135623730951
  0
VERTEX
  5
10C7
  8
SAPA_PROFIL
 10
-31.00000000000199
 20
2.6999999999993629
 30
0.0
  0
VERTEX
  5
10C8
  8
SAPA_PROFIL
 10
-31.25000000000199
 20
2.6999999999993629
 30
0.0
  0
VERTEX
  5
10C9
  8
SAPA_PROFIL
 10
-31.25000000000199
 20
2.3499999999994539
 30
0.0
 42
-0.5450207798987328
  0
VERTEX
  5
10CA
  8
SAPA_PROFIL
 10
-31.67376540642562
 20
2.0767196966974089
 30
0.0
  0
SEQEND
  5
10CB
  8
SAPA_PROFIL
  0
POLYLINE
  5
D09
  8
SAPA_PROFIL
 66
     1
 10
0.0
 20
0.0
 30
0.0
 70
     1
  0
VERTEX
  5
10CC
  8
SAPA_PROFIL
 10
79.99999999999784
 20
22.7999999999995
 30
0.0
  0
VERTEX
  5
10CD
  8
SAPA_PROFIL
 10
77.824264068709795
 20
22.7999999999995
 30
0.0
 42
0.1989123673796407
  0
VERTEX
  5
10CE
  8
SAPA_PROFIL
 10
77.612132034353735
 20
22.71213203435536
 30
0.0
  0
VERTEX
  5
10CF
  8
SAPA_PROFIL
 10
76.087867965641976
 20
21.18786796564336
 30
0.0
 42
-0.1989123673796753
  0
VERTEX
  5
10D0
  8
SAPA_PROFIL
 10
75.875735931285931
 20
21.099999999999461
 30
0.0
  0
VERTEX
  5
10D1
  8
SAPA_PROFIL
 10
75.299999999997794
 20
21.099999999999461
 30
0.0
 42
-0.4142135623730951
  0
VERTEX
  5
10D2
  8
SAPA_PROFIL
 10
74.99999999999784
 20
21.399999999999409
 30
0.0
  0
VERTEX
  5
10D3
  8
SAPA_PROFIL
 10
74.99999999999784
 20
22.499999999999549
 30
0.0
 42
0.4142135623730951
  0
VERTEX
  5
10D4
  8
SAPA_PROFIL
 10
74.699999999997658
 20
22.7999999999995
 30
0.0
  0
VERTEX
  5
10D5
  8
SAPA_PROFIL
 10
72.299999999997794
 20
22.799999999999269
 30
0.0
 42
0.4142135623730951
  0
VERTEX
  5
10D6
  8
SAPA_PROFIL
 10
71.99999999999784
 20
22.499999999999549
 30
0.0
  0
VERTEX
  5
10D7
  8
SAPA_PROFIL
 10
71.99999999999784
 20
21.399999999999409
 30
0.0
 42
-0.4142135623730951
  0
VERTEX
  5
10D8
  8
SAPA_PROFIL
 10
71.699999999997658
 20
21.099999999999461
 30
0.0
  0
VERTEX
  5
10D9
  8
SAPA_PROFIL
 10
71.124264068709749
 20
21.099999999999461
 30
0.0
 42
-0.198912367379658
  0
VERTEX
  5
10DA
  8
SAPA_PROFIL
 10
70.912132034353704
 20
21.18786796564336
 30
0.0
  0
VERTEX
  5
10DB
  8
SAPA_PROFIL
 10
69.387867965641703
 20
22.71213203435536
 30
0.0
 42
0.198912367379658
  0
VERTEX
  5
10DC
  8
SAPA_PROFIL
 10
69.175735931285644
 20
22.7999999999995
 30
0.0
  0
VERTEX
  5
10DD
  8
SAPA_PROFIL
 10
29.999999999997961
 20
22.7999999999995
 30
0.0
 42
0.4142135623730951
  0
VERTEX
  5
10DE
  8
SAPA_PROFIL
 10
28.999999999997961
 20
21.7999999999995
 30
0.0
  0
VERTEX
  5
10DF
  8
SAPA_PROFIL
 10
28.999999999997961
 20
17.599999999999451
 30
0.0
 42
-0.4142135623730951
  0
VERTEX
  5
10E0
  8
SAPA_PROFIL
 10
28.699999999997772
 20
17.2999999999995
 30
0.0
  0
VERTEX
  5
10E1
  8
SAPA_PROFIL
 10
26.399999999998052
 20
17.2999999999995
 30
0.0
 42
-0.4142135623730951
  0
VERTEX
  5
10E2
  8
SAPA_PROFIL
 10
26.099999999997859
 20
17.599999999999451
 30
0.0
  0
VERTEX
  5
10E3
  8
SAPA_PROFIL
 10
26.099999999997859
 20
18.099999999999451
 30
0.0
 42
-0.4142135623730951
  0
VERTEX
  5
10E4
  8
SAPA_PROFIL
 10
26.399999999998052
 20
18.399999999999409
 30
0.0
  0
VERTEX
  5
10E5
  8
SAPA_PROFIL
 10
26.73662692463245
 20
18.399999999999409
 30
0.0
 42
0.5535245743249297
  0
VERTEX
  5
10E6
  8
SAPA_PROFIL
 10
24.964107602122571
 20
22.710554211530731
 30
0.0
  0
VERTEX
  5
10E7
  8
SAPA_PROFIL
 10
24.67677669529462
 20
22.423223304702791
 30
0.0
 42
-0.4142135623729421
  0
VERTEX
  5
10E8
  8
SAPA_PROFIL
 10
24.32322330470129
 20
22.423223304702791
 30
0.0
  0
VERTEX
  5
10E9
  8
SAPA_PROFIL
 10
24.03589239787334
 20
22.710554211530731
 30
0.0
 42
0.5535245743249292
  0
VERTEX
  5
10EA
  8
SAPA_PROFIL
 10
22.263373075363461
 20
18.399999999999409
 30
0.0
  0
VERTEX
  5
10EB
  8
SAPA_PROFIL
 10
22.599999999997859
 20
18.399999999999409
 30
0.0
 42
-0.4142135623730951
  0
VERTEX
  5
10EC
  8
SAPA_PROFIL
 10
22.899999999998052
 20
18.099999999999451
 30
0.0
  0
VERTEX
  5
10ED
  8
SAPA_PROFIL
 10
22.899999999998052
 20
17.599999999999451
 30
0.0
 42
-0.4142135623730951
  0
VERTEX
  5
10EE
  8
SAPA_PROFIL
 10
22.599999999997859
 20
17.2999999999995
 30
0.0
  0
VERTEX
  5
10EF
  8
SAPA_PROFIL
 10
21.499999999997961
 20
17.2999999999995
 30
0.0
 42
-0.4142135623730951
  0
VERTEX
  5
10F0
  8
SAPA_PROFIL
 10
19.99999999999795
 20
18.7999999999995
 30
0.0
  0
VERTEX
  5
10F1
  8
SAPA_PROFIL
 10
19.99999999999795
 20
21.43397459621497
 30
0.0
 42
-0.267949192431143
  0
VERTEX
  5
10F2
  8
SAPA_PROFIL
 10
20.249999999997961
 20
21.86698729810723
 30
0.0
 42
0.767326987978956
  0
VERTEX
  5
10F3
  8
SAPA_PROFIL
 10
19.99999999999795
 20
22.7999999999995
 30
0.0
  0
VERTEX
  5
10F4
  8
SAPA_PROFIL
 10
-15.000000000002039
 20
22.7999999999995
 30
0.0
 42
0.4142135623730951
  0
VERTEX
  5
10F5
  8
SAPA_PROFIL
 10
-16.000000000002039
 20
21.7999999999995
 30
0.0
  0
VERTEX
  5
10F6
  8
SAPA_PROFIL
 10
-16.000000000002039
 20
17.599999999999451
 30
0.0
 42
-0.4142135623730951
  0
VERTEX
  5
10F7
  8
SAPA_PROFIL
 10
-16.300000000002001
 20
17.2999999999995
 30
0.0
  0
VERTEX
  5
10F8
  8
SAPA_PROFIL
 10
-18.600000000001948
 20
17.2999999999995
 30
0.0
 42
-0.4142135623730951
  0
VERTEX
  5
10F9
  8
SAPA_PROFIL
 10
-18.90000000000213
 20
17.599999999999451
 30
0.0
  0
VERTEX
  5
10FA
  8
SAPA_PROFIL
 10
-18.90000000000213
 20
18.099999999999451
 30
0.0
 42
-0.4142135623730951
  0
VERTEX
  5
10FB
  8
SAPA_PROFIL
 10
-18.600000000001948
 20
18.399999999999409
 30
0.0
  0
VERTEX
  5
10FC
  8
SAPA_PROFIL
 10
-18.26337307536755
 20
18.399999999999409
 30
0.0
 42
0.5535245743249297
  0
VERTEX
  5
10FD
  8
SAPA_PROFIL
 10
-20.035892397877429
 20
22.710554211530731
 30
0.0
  0
VERTEX
  5
10FE
  8
SAPA_PROFIL
 10
-20.32322330470538
 20
22.423223304702791
 30
0.0
 42
-0.4142135623730243
  0
VERTEX
  5
10FF
  8
SAPA_PROFIL
 10
-20.67677669529871
 20
22.423223304702791
 30
0.0
  0
VERTEX
  5
1100
  8
SAPA_PROFIL
 10
-20.96410760212666
 20
22.710554211530731
 30
0.0
 42
0.5535245743249292
  0
VERTEX
  5
1101
  8
SAPA_PROFIL
 10
-22.736626924636539
 20
18.399999999999409
 30
0.0
  0
VERTEX
  5
1102
  8
SAPA_PROFIL
 10
-22.400000000002141
 20
18.399999999999409
 30
0.0
 42
-0.4142135623730951
  0
VERTEX
  5
1103
  8
SAPA_PROFIL
 10
-22.100000000001959
 20
18.099999999999451
 30
0.0
  0
VERTEX
  5
1104
  8
SAPA_PROFIL
 10
-22.100000000001959
 20
17.599999999999451
 30
0.0
 42
-0.4142135623730951
  0
VERTEX
  5
1105
  8
SAPA_PROFIL
 10
-22.400000000002141
 20
17.2999999999995
 30
0.0
  0
VERTEX
  5
1106
  8
SAPA_PROFIL
 10
-23.50000000000205
 20
17.2999999999995
 30
0.0
 42
-0.4142135623730951
  0
VERTEX
  5
1107
  8
SAPA_PROFIL
 10
-25.00000000000205
 20
18.7999999999995
 30
0.0
  0
VERTEX
  5
1108
  8
SAPA_PROFIL
 10
-25.00000000000205
 20
21.780384757728829
 30
0.0
 42
-0.2679491924311188
  0
VERTEX
  5
1109
  8
SAPA_PROFIL
 10
-24.850000000001959
 20
22.040192378864049
 30
0.0
 42
0.7673269879789557
  0
VERTEX
  5
110A
  8
SAPA_PROFIL
 10
-25.00000000000205
 20
22.599999999999461
 30
0.0
  0
VERTEX
  5
110B
  8
SAPA_PROFIL
 10
-27.00000000000205
 20
22.599999999999
 30
0.0
 42
0.4142137811865366
  0
VERTEX
  5
110C
  8
SAPA_PROFIL
 10
-28.00000000000205
 20
21.60000074707477
 30
0.0
  0
VERTEX
  5
110D
  8
SAPA_PROFIL
 10
-28.00000000000199
 20
-21.600000000000591
 30
0.0
 42
0.4142140000000124
  0
VERTEX
  5
110E
  8
SAPA_PROFIL
 10
-27.00000000000199
 20
-22.600000000000591
 30
0.0
  0
VERTEX
  5
110F
  8
SAPA_PROFIL
 10
-25.00000000000199
 20
-22.600000000000591
 30
0.0
 42
0.7673269879789457
  0
VERTEX
  5
1110
  8
SAPA_PROFIL
 10
-24.850000000001899
 20
-22.040192378865409
 30
0.0
 42
-0.2679491924311191
  0
VERTEX
  5
1111
  8
SAPA_PROFIL
 10
-25.00000000000199
 20
-21.780384757729959
 30
0.0
  0
VERTEX
  5
1112
  8
SAPA_PROFIL
 10
-25.00000000000199
 20
-18.80000000000064
 30
0.0
 42
-0.4142135623730951
  0
VERTEX
  5
1113
  8
SAPA_PROFIL
 10
-23.50000000000199
 20
-17.30000000000063
 30
0.0
  0
VERTEX
  5
1114
  8
SAPA_PROFIL
 10
-22.40000000000208
 20
-17.30000000000063
 30
0.0
 42
-0.4142135623730951
  0
VERTEX
  5
1115
  8
SAPA_PROFIL
 10
-22.100000000001899
 20
-17.600000000000591
 30
0.0
  0
VERTEX
  5
1116
  8
SAPA_PROFIL
 10
-22.100000000001899
 20
-18.100000000000591
 30
0.0
 42
-0.4142135623730951
  0
VERTEX
  5
1117
  8
SAPA_PROFIL
 10
-22.40000000000208
 20
-18.400000000000539
 30
0.0
  0
VERTEX
  5
1118
  8
SAPA_PROFIL
 10
-22.736626924636479
 20
-18.400000000000539
 30
0.0
 42
0.5535245743249307
  0
VERTEX
  5
1119
  8
SAPA_PROFIL
 10
-20.9641076021266
 20
-22.710554211531871
 30
0.0
  0
VERTEX
  5
111A
  8
SAPA_PROFIL
 10
-20.676776695298649
 20
-22.423223304703921
 30
0.0
 42
-0.4142135623730951
  0
VERTEX
  5
111B
  8
SAPA_PROFIL
 10
-20.323223304705319
 20
-22.423223304703921
 30
0.0
  0
VERTEX
  5
111C
  8
SAPA_PROFIL
 10
-20.035892397877369
 20
-22.710554211531871
 30
0.0
 42
0.553524574324932
  0
VERTEX
  5
111D
  8
SAPA_PROFIL
 10
-18.2633730753675
 20
-18.400000000000539
 30
0.0
  0
VERTEX
  5
111E
  8
SAPA_PROFIL
 10
-18.600000000001899
 20
-18.400000000000539
 30
0.0
 42
-0.4142135623730951
  0
VERTEX
  5
111F
  8
SAPA_PROFIL
 10
-18.90000000000208
 20
-18.100000000000591
 30
0.0
  0
VERTEX
  5
1120
  8
SAPA_PROFIL
 10
-18.90000000000208
 20
-17.600000000000591
 30
0.0
 42
-0.4142135623730951
  0
VERTEX
  5
1121
  8
SAPA_PROFIL
 10
-18.600000000001899
 20
-17.30000000000063
 30
0.0
  0
VERTEX
  5
1122
  8
SAPA_PROFIL
 10
-16.30000000000194
 20
-17.30000000000063
 30
0.0
 42
-0.4142135623730951
  0
VERTEX
  5
1123
  8
SAPA_PROFIL
 10
-16.00000000000199
 20
-17.600000000000591
 30
0.0
  0
VERTEX
  5
1124
  8
SAPA_PROFIL
 10
-16.00000000000199
 20
-21.80000000000064
 30
0.0
 42
0.4142135623730951
  0
VERTEX
  5
1125
  8
SAPA_PROFIL
 10
-15.00000000000199
 20
-22.80000000000064
 30
0.0
  0
VERTEX
  5
1126
  8
SAPA_PROFIL
 10
19.99999999999795
 20
-22.80000000000064
 30
0.0
 42
0.7673269879789505
  0
VERTEX
  5
1127
  8
SAPA_PROFIL
 10
20.249999999997961
 20
-21.866987298108139
 30
0.0
 42
-0.2679491924311202
  0
VERTEX
  5
1128
  8
SAPA_PROFIL
 10
19.99999999999795
 20
-21.4339745962161
 30
0.0
  0
VERTEX
  5
1129
  8
SAPA_PROFIL
 10
19.99999999999795
 20
-18.80000000000064
 30
0.0
 42
-0.4142135623730951
  0
VERTEX
  5
112A
  8
SAPA_PROFIL
 10
21.499999999997961
 20
-17.30000000000063
 30
0.0
  0
VERTEX
  5
112B
  8
SAPA_PROFIL
 10
22.599999999997859
 20
-17.30000000000063
 30
0.0
 42
-0.4142135623730951
  0
VERTEX
  5
112C
  8
SAPA_PROFIL
 10
22.899999999998052
 20
-17.600000000000591
 30
0.0
  0
VERTEX
  5
112D
  8
SAPA_PROFIL
 10
22.899999999998052
 20
-18.100000000000591
 30
0.0
 42
-0.4142135623730951
  0
VERTEX
  5
112E
  8
SAPA_PROFIL
 10
22.599999999997859
 20
-18.400000000000539
 30
0.0
  0
VERTEX
  5
112F
  8
SAPA_PROFIL
 10
22.263373075363461
 20
-18.400000000000539
 30
0.0
 42
0.5535245743249307
  0
VERTEX
  5
1130
  8
SAPA_PROFIL
 10
24.03589239787334
 20
-22.710554211531871
 30
0.0
  0
VERTEX
  5
1131
  8
SAPA_PROFIL
 10
24.32322330470129
 20
-22.423223304703921
 30
0.0
 42
-0.4142135623731068
  0
VERTEX
  5
1132
  8
SAPA_PROFIL
 10
24.67677669529462
 20
-22.423223304703921
 30
0.0
  0
VERTEX
  5
1133
  8
SAPA_PROFIL
 10
24.964107602122571
 20
-22.710554211531871
 30
0.0
 42
0.553524574324932
  0
VERTEX
  5
1134
  8
SAPA_PROFIL
 10
26.73662692463245
 20
-18.400000000000539
 30
0.0
  0
VERTEX
  5
1135
  8
SAPA_PROFIL
 10
26.399999999998052
 20
-18.400000000000539
 30
0.0
 42
-0.4142135623730951
  0
VERTEX
  5
1136
  8
SAPA_PROFIL
 10
26.099999999997859
 20
-18.100000000000591
 30
0.0
  0
VERTEX
  5
1137
  8
SAPA_PROFIL
 10
26.099999999997859
 20
-17.600000000000591
 30
0.0
 42
-0.4142135623730951
  0
VERTEX
  5
1138
  8
SAPA_PROFIL
 10
26.399999999998052
 20
-17.30000000000063
 30
0.0
  0
VERTEX
  5
1139
  8
SAPA_PROFIL
 10
28.699999999997772
 20
-17.30000000000063
 30
0.0
 42
-0.4142135623730951
  0
VERTEX
  5
113A
  8
SAPA_PROFIL
 10
28.999999999997961
 20
-17.600000000000591
 30
0.0
  0
VERTEX
  5
113B
  8
SAPA_PROFIL
 10
28.999999999997961
 20
-21.80000000000064
 30
0.0
 42
0.4142135623730951
  0
VERTEX
  5
113C
  8
SAPA_PROFIL
 10
29.999999999997961
 20
-22.80000000000064
 30
0.0
  0
VERTEX
  5
113D
  8
SAPA_PROFIL
 10
69.175735931285644
 20
-22.80000000000064
 30
0.0
 42
0.198912367379658
  0
VERTEX
  5
113E
  8
SAPA_PROFIL
 10
69.387867965641703
 20
-22.7121320343565
 30
0.0
  0
VERTEX
  5
113F
  8
SAPA_PROFIL
 10
70.912132034353476
 20
-21.1878679656445
 30
0.0
 42
-0.1989123673797102
  0
VERTEX
  5
1140
  8
SAPA_PROFIL
 10
71.124264068709749
 20
-21.10000000000036
 30
0.0
  0
VERTEX
  5
1141
  8
SAPA_PROFIL
 10
71.699999999997658
 20
-21.100000000000591
 30
0.0
 42
-0.4142135623730951
  0
VERTEX
  5
1142
  8
SAPA_PROFIL
 10
71.99999999999784
 20
-21.400000000000549
 30
0.0
  0
VERTEX
  5
1143
  8
SAPA_PROFIL
 10
71.99999999999784
 20
-22.500000000000458
 30
0.0
 42
0.4142135623730951
  0
VERTEX
  5
1144
  8
SAPA_PROFIL
 10
72.299999999997794
 20
-22.80000000000064
 30
0.0
  0
VERTEX
  5
1145
  8
SAPA_PROFIL
 10
74.699999999997658
 20
-22.80000000000064
 30
0.0
 42
0.4142135623730951
  0
VERTEX
  5
1146
  8
SAPA_PROFIL
 10
74.99999999999784
 20
-22.500000000000458
 30
0.0
  0
VERTEX
  5
1147
  8
SAPA_PROFIL
 10
74.99999999999784
 20
-21.400000000000549
 30
0.0
 42
-0.4142135623730951
  0
VERTEX
  5
1148
  8
SAPA_PROFIL
 10
75.299999999997794
 20
-21.100000000000591
 30
0.0
  0
VERTEX
  5
1149
  8
SAPA_PROFIL
 10
75.875735931285931
 20
-21.100000000000591
 30
0.0
 42
-0.1989123673796752
  0
VERTEX
  5
114A
  8
SAPA_PROFIL
 10
76.087867965641735
 20
-21.187867965644731
 30
0.0
  0
VERTEX
  5
114B
  8
SAPA_PROFIL
 10
77.612132034353735
 20
-22.7121320343565
 30
0.0
 42
0.1989123673797102
  0
VERTEX
  5
114C
  8
SAPA_PROFIL
 10
77.824264068709795
 20
-22.80000000000064
 30
0.0
  0
VERTEX
  5
114D
  8
SAPA_PROFIL
 10
79.99999999999784
 20
-22.80000000000064
 30
0.0
 42
0.4142135623730951
  0
VERTEX
  5
114E
  8
SAPA_PROFIL
 10
80.99999999999784
 20
-21.80000000000064
 30
0.0
  0
VERTEX
  5
114F
  8
SAPA_PROFIL
 10
80.99999999999784
 20
21.7999999999995
 30
0.0
 42
0.4142135623730951
  0
SEQEND
  5
1150
  8
SAPA_PROFIL
  0
POLYLINE
  5
D0A
  8
SAPA_PROFIL
 66
     1
 10
0.0
 20
0.0
 30
0.0
 70
     1
  0
VERTEX
  5
1151
  8
SAPA_PROFIL
 10
-107.0984750712072
 20
22.799999999999049
 30
0.0
  0
VERTEX
  5
1152
  8
SAPA_PROFIL
 10
-107.0984750712072
 20
23.799999999999049
 30
0.0
  0
VERTEX
  5
1153
  8
SAPA_PROFIL
 10
-104.4984750712071
 20
23.799999999999049
 30
0.0
 42
0.4142135623730951
  0
VERTEX
  5
1154
  8
SAPA_PROFIL
 10
-103.9984750712071
 20
24.299999999999059
 30
0.0
  0
VERTEX
  5
1155
  8
SAPA_PROFIL
 10
-103.9984750712071
 20
24.69999999999914
 30
0.0
 42
0.4142135623730951
  0
VERTEX
  5
1156
  8
SAPA_PROFIL
 10
-104.29847507120699
 20
24.999999999999101
 30
0.0
  0
VERTEX
  5
1157
  8
SAPA_PROFIL
 10
-121.9999999990097
 20
24.999999999999091
 30
0.0
 42
0.4142135623730951
  0
VERTEX
  5
1158
  8
SAPA_PROFIL
 10
-122.4999999990097
 20
24.499999999999091
 30
0.0
  0
VERTEX
  5
1159
  8
SAPA_PROFIL
 10
-122.4999999990097
 20
-24.500000000000909
 30
0.0
 42
0.4142135623730951
  0
VERTEX
  5
115A
  8
SAPA_PROFIL
 10
-121.9999999990097
 20
-25.000000000000909
 30
0.0
  0
VERTEX
  5
115B
  8
SAPA_PROFIL
 10
-104.29847507120699
 20
-25.000000000000909
 30
0.0
 42
0.4142135623730951
  0
VERTEX
  5
115C
  8
SAPA_PROFIL
 10
-103.998475071207
 20
-24.700000000000951
 30
0.0
  0
VERTEX
  5
115D
  8
SAPA_PROFIL
 10
-103.998475071207
 20
-24.30000000000086
 30
0.0
 42
0.4142135623730951
  0
VERTEX
  5
115E
  8
SAPA_PROFIL
 10
-104.4984750712071
 20
-23.80000000000086
 30
0.0
  0
VERTEX
  5
115F
  8
SAPA_PROFIL
 10
-107.0984750712072
 20
-23.80000000000086
 30
0.0
  0
VERTEX
  5
1160
  8
SAPA_PROFIL
 10
-107.0984750712072
 20
-22.80000000000086
 30
0.0
  0
VERTEX
  5
1161
  8
SAPA_PROFIL
 10
-108.1025078308402
 20
-22.2203392215797
 30
0.0
 42
0.4155392929676362
  0
VERTEX
  5
1162
  8
SAPA_PROFIL
 10
-109.1971268026322
 20
-22.51631264788557
 30
0.0
  0
VERTEX
  5
1163
  8
SAPA_PROFIL
 10
-109.9382640409312
 20
-23.80000000000086
 30
0.0
  0
VERTEX
  5
1164
  8
SAPA_PROFIL
 10
-120.0999999990098
 20
-23.80000000000086
 30
0.0
 42
-0.4142135623730951
  0
VERTEX
  5
1165
  8
SAPA_PROFIL
 10
-121.0999999990098
 20
-22.80000000000086
 30
0.0
  0
VERTEX
  5
1166
  8
SAPA_PROFIL
 10
-121.0999999990099
 20
22.799999999999049
 30
0.0
 42
-0.4142135623730951
  0
VERTEX
  5
1167
  8
SAPA_PROFIL
 10
-120.0999999990099
 20
23.799999999999041
 30
0.0
  0
VERTEX
  5
1168
  8
SAPA_PROFIL
 10
-109.9382640409312
 20
23.799999999999049
 30
0.0
  0
VERTEX
  5
1169
  8
SAPA_PROFIL
 10
-109.1971268026322
 20
22.516312647883758
 30
0.0
 42
0.4155392929676362
  0
VERTEX
  5
116A
  8
SAPA_PROFIL
 10
-108.1025078308402
 20
22.220339221577891
 30
0.0
  0
SEQEND
  5
116B
  8
SAPA_PROFIL
  0
POLYLINE
  5
D1D
  8
SAPA_GLAS
 66
     1
 10
0.0
 20
0.0
 30
0.0
  0
VERTEX
  5
1187
  8
SAPA_GLAS
 10
-74.499999999011834
 20
-40.999999999994749
 30
0.0
  0
VERTEX
  5
1188
  8
SAPA_GLAS
 10
-74.499999999011834
 20
-10.999999999994751
 30
0.0
  0
VERTEX
  5
1189
  8
SAPA_GLAS
 10
-70.499999999011834
 20
-10.999999999994751
 30
0.0
  0
VERTEX
  5
118A
  8
SAPA_GLAS
 10
-70.499999999011834
 20
-40.999999999994749
 30
0.0
  0
SEQEND
  5
118B
  8
SAPA_GLAS
  0
POLYLINE
  5
D1E
  8
SAPA_GLAS
 66
     1
 10
0.0
 20
0.0
 30
0.0
  0
VERTEX
  5
118C
  8
SAPA_GLAS
 10
-98.499999999011834
 20
-40.999999999994742
 30
0.0
  0
VERTEX
  5
118D
  8
SAPA_GLAS
 10
-98.499999999011834
 20
-10.999999999994751
 30
0.0
  0
VERTEX
  5
118E
  8
SAPA_GLAS
 10
-90.499999999011834
 20
-10.999999999994751
 30
0.0
  0
VERTEX
  5
118F
  8
SAPA_GLAS
 10
-90.499999999011834
 20
-40.999999999994742
 30
0.0
  0
SEQEND
  5
1190
  8
SAPA_GLAS
  0
POLYLINE
  5
D1F
  8
SAPA_GLAS
 66
     1
 10
0.0
 20
0.0
 30
0.0
  0
VERTEX
  5
1191
  8
SAPA_GLAS
 10
-54.499999999010242
 20
-40.999999999995673
 30
0.0
  0
VERTEX
  5
1192
  8
SAPA_GLAS
 10
-54.499999999010242
 20
-10.99999999999566
 30
0.0
  0
VERTEX
  5
1193
  8
SAPA_GLAS
 10
-48.499999999010242
 20
-10.999999999995669
 30
0.0
  0
VERTEX
  5
1194
  8
SAPA_GLAS
 10
-48.499999999010242
 20
-40.999999999995673
 30
0.0
  0
SEQEND
  5
1195
  8
SAPA_GLAS
  0
POLYLINE
  5
D20
  8
SAPA_GLAS
 66
     1
 10
0.0
 20
0.0
 30
0.0
  0
VERTEX
  5
1196
  8
SAPA_GLAS
 10
-90.499999999010228
 20
-20.999999999994749
 30
0.0
  0
VERTEX
  5
1197
  8
SAPA_GLAS
 10
-74.499999999010242
 20
-20.999999999994749
 30
0.0
  0
VERTEX
  5
1198
  8
SAPA_GLAS
 10
-74.499999999010242
 20
-10.99999999999566
 30
0.0
  0
VERTEX
  5
1199
  8
SAPA_GLAS
 10
-90.499999999010228
 20
-10.99999999999566
 30
0.0
  0
VERTEX
  5
119A
  8
SAPA_GLAS
 10
-90.499999999010228
 20
-20.999999999994749
 30
0.0
  0
SEQEND
  5
119B
  8
SAPA_GLAS
  0
POLYLINE
  5
D21
  8
SAPA_GLAS
 66
     1
 10
0.0
 20
0.0
 30
0.0
  0
VERTEX
  5
119C
  8
SAPA_GLAS
 10
-70.499999999010242
 20
-20.99999999999476
 30
0.0
  0
VERTEX
  5
119D
  8
SAPA_GLAS
 10
-54.499999999010242
 20
-20.99999999999476
 30
0.0
  0
VERTEX
  5
119E
  8
SAPA_GLAS
 10
-54.499999999010242
 20
-10.99999999999566
 30
0.0
  0
VERTEX
  5
119F
  8
SAPA_GLAS
 10
-70.499999999010242
 20
-10.99999999999566
 30
0.0
  0
VERTEX
  5
11A0
  8
SAPA_GLAS
 10
-70.499999999010242
 20
-20.99999999999476
 30
0.0
  0
SEQEND
  5
11A1
  8
SAPA_GLAS
  0
INSERT
  5
D29
  8
SAPA_FYLLNING
  6
CONTINUOUS
  2
*X37
 10
0.0
 20
0.0
 30
0.0
1001
ACAD
1000
HATCH
1002
{
1070
    19
1000
HEX
1040
0.25
1040
0.0
1000
R14_HATCH_DATA
1000
D29
1011
1.0
1021
0.0
1031
0.0
1021
0.0
1031
0.0
1011
0.0
1021
0.0
1031
0.0
1021
1.0
1031
0.0
1011
0.0
1021
0.0
1031
0.0
1021
0.0
1031
1.0
1040
0.0
1010
0.0
1020
0.0
1030
1.0
1000
HEX
1070
     0
1070
     0
1071
        1
1071
        5
1071
        1
1070
     3
1040
66.414921939407463
1040
32.414959482202221
1040
0.0
1040
-7.4013872152117974
1040
0.5404392289838516
1040
0.0
1040
6.2831853071795862
1070
     0
1071
        0
1070
     0
1070
     1
1040
0.0
1040
0.25
1070
     0
1070
     3
1040
0.0
1040
-14837.35464878719
1040
-8890.349946838176
1040
0.0
1040
1.374814999999999
1070
     2
1040
0.79375
1040
-1.587499999999999
1040
2.0943951023931948
1040
-14837.35464878719
1040
-8890.349946838176
1040
-1.190624715503902
1040
-0.6874074999999996
1070
     2
1040
0.7937499999999992
1040
-1.5874999999999979
1040
1.047197551196597
1040
-14836.56089878718
1040
-8890.349946838176
1040
-1.190624715503902
1040
0.6874075000000001
1070
     2
1040
0.79375
1040
-1.587499999999999
1040
0.0689716451332303
1071
        1
1040
65.286338270036026
1040
32.781226230153379
1040
0.0
1002
}
  0
INSERT
  5
D2A
  8
SAPA_FYLLNING
  6
CONTINUOUS
  2
*X38
 10
0.0
 20
0.0
 30
0.0
1001
ACAD
1000
HATCH
1002
{
1070
    19
1000
ANSI37
1040
0.25
1040
0.0
1000
R14_HATCH_DATA
1000
D2A
1011
1.0
1021
0.0
1031
0.0
1021
0.0
1031
0.0
1011
0.0
1021
0.0
1031
0.0
1021
1.0
1031
0.0
1011
0.0
1021
0.0
1031
0.0
1021
0.0
1031
1.0
1040
0.0
1010
0.0
1020
0.0
1030
1.0
1000
ANSI37
1070
     0
1070
     0
1071
        1
1071
        7
1070
     1
1070
     1
1071
        4
1040
69.113819047355605
1040
24.999999999999321
1040
0.0
1040
83.999999999998053
1040
24.999999999999321
1040
-0.2625797940973267
1040
83.999999999998053
1040
39.79999999999859
1040
0.0
1040
69.113819047357424
1040
39.79999999999859
1040
-0.2625797940972474
1071
        0
1070
     0
1070
     1
1040
0.0
1040
0.25
1070
     0
1070
     2
1040
0.7853981633974483
1040
-14837.35464878719
1040
-8890.349946838176
1040
-0.5612660075668221
1040
0.5612660075668221
1070
     0
1040
2.3561944901923439
1040
-14837.35464878719
1040
-8890.349946838176
1040
-0.5612660075668221
1040
-0.5612660075668221
1070
     0
1040
0.2777446059011853
1071
        1
1040
75.280702929725393
1040
31.90163543049789
1040
0.0
1002
}
  0
INSERT
  5
D2B
  8
SAPA_FYLLNING
  6
CONTINUOUS
  2
*X39
 10
0.0
 20
0.0
 30
0.0
1001
ACAD
1000
HATCH
1002
{
1070
    19
1000
HEX
1040
0.5
1040
0.0
1000
R14_HATCH_DATA
1000
D2B
1011
1.0
1021
0.0
1031
0.0
1021
0.0
1031
0.0
1011
0.0
1021
0.0
1031
0.0
1021
1.0
1031
0.0
1011
0.0
1021
0.0
1031
0.0
1021
0.0
1031
1.0
1040
0.0
1010
0.0
1020
0.0
1030
1.0
1000
HEX
1070
     0
1070
     0
1071
        1
1071
        7
1070
     0
1070
     1
1071
        4
1040
-86.413648529774719
1040
39.899999999998947
1040
-86.413648529774719
1040
24.89999999999878
1040
-66.413648529774719
1040
24.89999999999878
1040
-66.413648529774719
1040
39.899999999998947
1071
        0
1070
     0
1070
     1
1040
0.0
1040
0.5
1070
     0
1070
     3
1040
0.0
1040
-14874.1735166043
1040
-8890.349946838176
1040
0.0
1040
2.7496299999999989
1070
     2
1040
1.587499999999999
1040
-3.1749999999999989
1040
2.0943951023931948
1040
-14874.1735166043
1040
-8890.349946838176
1040
-2.381249431007805
1040
-1.374814999999999
1070
     2
1040
1.587499999999997
1040
-3.174999999999994
1040
1.047197551196597
1040
-14872.586016604289
1040
-8890.349946838176
1040
-2.381249431007805
1040
1.3748149999999999
1070
     2
1040
1.587499999999999
1040
-3.1749999999999989
1040
0.2819629331102995
1071
        1
1040
-74.464159583052364
1040
34.6501846154963
1040
0.0
1002
}
  0
POLYLINE
  5
D3A
  8
SAPA_ISOLATOR
 66
     1
 10
0.0
 20
0.0
 30
0.0
 70
     1
  0
VERTEX
  5
13F2
  8
SAPA_ISOLATOR
 10
-58.235078053681718
 20
-8.8339473861457734
 30
0.0
 42
0.2133140774071598
  0
VERTEX
  5
13F3
  8
SAPA_ISOLATOR
 10
-56.744915521943767
 20
-9.5000000000002238
 30
0.0
  0
VERTEX
  5
13F4
  8
SAPA_ISOLATOR
 10
-56.57305861328485
 20
-9.5000000000002238
 30
0.0
 42
-0.9999999999999998
  0
VERTEX
  5
13F5
  8
SAPA_ISOLATOR
 10
-56.57305861328485
 20
-10.00000000000022
 30
0.0
  0
VERTEX
  5
13F6
  8
SAPA_ISOLATOR
 10
-57.532183152571399
 20
-10.00000000000022
 30
0.0
 42
-0.2072397715914422
  0
VERTEX
  5
13F7
  8
SAPA_ISOLATOR
 10
-59.355587195491808
 20
-9.2103209337029668
 30
0.0
 42
-0.1421101772925093
  0
VERTEX
  5
13F8
  8
SAPA_ISOLATOR
 10
-61.499999999010242
 20
-5.0000000000002212
 30
0.0
  0
VERTEX
  5
13F9
  8
SAPA_ISOLATOR
 10
-59.68783475446525
 20
-5.0000000000002212
 30
0.0
 42
0.1860725815673001
  0
SEQEND
  5
13FA
  8
SAPA_ISOLATOR
  0
POLYLINE
  5
D3B
  8
SAPA_ISOLATOR
 66
     1
 10
0.0
 20
0.0
 30
0.0
 70
     1
  0
VERTEX
  5
13FB
  8
SAPA_ISOLATOR
 10
-58.235078053681718
 20
8.8339473861454483
 30
0.0
 42
-0.2133140774071598
  0
VERTEX
  5
13FC
  8
SAPA_ISOLATOR
 10
-56.744915521943767
 20
9.4999999999998934
 30
0.0
  0
VERTEX
  5
13FD
  8
SAPA_ISOLATOR
 10
-56.57305861328485
 20
9.4999999999998934
 30
0.0
 42
0.9999999999999998
  0
VERTEX
  5
13FE
  8
SAPA_ISOLATOR
 10
-56.57305861328485
 20
9.9999999999998934
 30
0.0
  0
VERTEX
  5
13FF
  8
SAPA_ISOLATOR
 10
-57.532183152571399
 20
9.9999999999998934
 30
0.0
 42
0.2072397715914422
  0
VERTEX
  5
1400
  8
SAPA_ISOLATOR
 10
-59.355587195491808
 20
9.2103209337026382
 30
0.0
 42
0.1421101772925093
  0
VERTEX
  5
1401
  8
SAPA_ISOLATOR
 10
-61.499999999010242
 20
4.9999999999998908
 30
0.0
  0
VERTEX
  5
1402
  8
SAPA_ISOLATOR
 10
-59.68783475446525
 20
4.9999999999998908
 30
0.0
 42
-0.1860725815673001
  0
SEQEND
  5
1403
  8
SAPA_ISOLATOR
  0
POLYLINE
  5
D3C
  8
SAPA_ISOLATOR
 66
     1
 10
0.0
 20
0.0
 30
0.0
 70
     1
  0
VERTEX
  5
1404
  8
SAPA_ISOLATOR
 10
-75.235078053681718
 20
8.8339473861454501
 30
0.0
 42
-0.2133140774071598
  0
VERTEX
  5
1405
  8
SAPA_ISOLATOR
 10
-73.744915521943767
 20
9.4999999999998952
 30
0.0
  0
VERTEX
  5
1406
  8
SAPA_ISOLATOR
 10
-73.573058613284843
 20
9.4999999999998952
 30
0.0
 42
0.9999999999999998
  0
VERTEX
  5
1407
  8
SAPA_ISOLATOR
 10
-73.573058613284843
 20
9.9999999999998952
 30
0.0
  0
VERTEX
  5
1408
  8
SAPA_ISOLATOR
 10
-74.532183152571406
 20
9.9999999999998952
 30
0.0
 42
0.2072397715914422
  0
VERTEX
  5
1409
  8
SAPA_ISOLATOR
 10
-76.355587195491793
 20
9.2103209337026435
 30
0.0
 42
0.1421101772925093
  0
VERTEX
  5
140A
  8
SAPA_ISOLATOR
 10
-78.499999999010242
 20
4.9999999999998943
 30
0.0
  0
VERTEX
  5
140B
  8
SAPA_ISOLATOR
 10
-76.687834754465257
 20
4.9999999999998943
 30
0.0
 42
-0.1860725815673001
  0
SEQEND
  5
140C
  8
SAPA_ISOLATOR
  0
POLYLINE
  5
D3D
  8
SAPA_ISOLATOR
 66
     1
 10
0.0
 20
0.0
 30
0.0
 70
     1
  0
VERTEX
  5
140D
  8
SAPA_ISOLATOR
 10
-92.235078053681264
 20
8.8339473861453968
 30
0.0
 42
-0.2133140774071598
  0
VERTEX
  5
140E
  8
SAPA_ISOLATOR
 10
-90.744915521943312
 20
9.4999999999998437
 30
0.0
  0
VERTEX
  5
140F
  8
SAPA_ISOLATOR
 10
-90.573058613284388
 20
9.4999999999998437
 30
0.0
 42
0.9999999999999998
  0
VERTEX
  5
1410
  8
SAPA_ISOLATOR
 10
-90.573058613284388
 20
9.9999999999998437
 30
0.0
  0
VERTEX
  5
1411
  8
SAPA_ISOLATOR
 10
-91.532183152570951
 20
9.9999999999998437
 30
0.0
 42
0.2072397715914422
  0
VERTEX
  5
1412
  8
SAPA_ISOLATOR
 10
-93.355587195491353
 20
9.2103209337025902
 30
0.0
 42
0.1421101772925093
  0
VERTEX
  5
1413
  8
SAPA_ISOLATOR
 10
-95.499999999009788
 20
4.999999999999841
 30
0.0
  0
VERTEX
  5
1414
  8
SAPA_ISOLATOR
 10
-93.687834754464802
 20
4.999999999999841
 30
0.0
 42
-0.1860725815673001
  0
SEQEND
  5
1415
  8
SAPA_ISOLATOR
  0
POLYLINE
  5
D3E
  8
SAPA_ISOLATOR
 66
     1
 10
0.0
 20
0.0
 30
0.0
 70
     1
  0
VERTEX
  5
1416
  8
SAPA_ISOLATOR
 10
-75.235078053681718
 20
-8.8339473861457734
 30
0.0
 42
0.2133140774071598
  0
VERTEX
  5
1417
  8
SAPA_ISOLATOR
 10
-73.744915521943767
 20
-9.5000000000002203
 30
0.0
  0
VERTEX
  5
1418
  8
SAPA_ISOLATOR
 10
-73.573058613284843
 20
-9.5000000000002203
 30
0.0
 42
-0.9999999999999998
  0
VERTEX
  5
1419
  8
SAPA_ISOLATOR
 10
-73.573058613284843
 20
-10.00000000000022
 30
0.0
  0
VERTEX
  5
141A
  8
SAPA_ISOLATOR
 10
-74.532183152571406
 20
-10.00000000000022
 30
0.0
 42
-0.2072397715914422
  0
VERTEX
  5
141B
  8
SAPA_ISOLATOR
 10
-76.355587195491793
 20
-9.2103209337029632
 30
0.0
 42
-0.1421101772925093
  0
VERTEX
  5
141C
  8
SAPA_ISOLATOR
 10
-78.499999999010242
 20
-5.0000000000002167
 30
0.0
  0
VERTEX
  5
141D
  8
SAPA_ISOLATOR
 10
-76.687834754465257
 20
-5.0000000000002167
 30
0.0
 42
0.1860725815673001
  0
SEQEND
  5
141E
  8
SAPA_ISOLATOR
  0
POLYLINE
  5
D3F
  8
SAPA_ISOLATOR
 66
     1
 10
0.0
 20
0.0
 30
0.0
 70
     1
  0
VERTEX
  5
141F
  8
SAPA_ISOLATOR
 10
-92.235078053681264
 20
-8.8339473861457112
 30
0.0
 42
0.2133140774071598
  0
VERTEX
  5
1420
  8
SAPA_ISOLATOR
 10
-90.744915521943312
 20
-9.5000000000001599
 30
0.0
  0
VERTEX
  5
1421
  8
SAPA_ISOLATOR
 10
-90.573058613284388
 20
-9.5000000000001599
 30
0.0
 42
-0.9999999999999998
  0
VERTEX
  5
1422
  8
SAPA_ISOLATOR
 10
-90.573058613284388
 20
-10.00000000000016
 30
0.0
  0
VERTEX
  5
1423
  8
SAPA_ISOLATOR
 10
-91.532183152570951
 20
-10.00000000000016
 30
0.0
 42
-0.2072397715914422
  0
VERTEX
  5
1424
  8
SAPA_ISOLATOR
 10
-93.355587195491353
 20
-9.2103209337029064
 30
0.0
 42
-0.1421101772925093
  0
VERTEX
  5
1425
  8
SAPA_ISOLATOR
 10
-95.499999999009788
 20
-5.0000000000001581
 30
0.0
  0
VERTEX
  5
1426
  8
SAPA_ISOLATOR
 10
-93.687834754464802
 20
-5.0000000000001581
 30
0.0
 42
0.1860725815673001
  0
SEQEND
  5
1427
  8
SAPA_ISOLATOR
  0
POLYLINE
  5
D40
  8
SAPA_ISOLATOR
 66
     1
 10
0.0
 20
0.0
 30
0.0
 70
     1
  0
VERTEX
  5
1428
  8
SAPA_ISOLATOR
 10
-100.4121320335894
 20
3.4121320343941308
 30
0.0
 42
-0.1989123671061558
  0
VERTEX
  5
1429
  8
SAPA_ISOLATOR
 10
-100.4999999990101
 20
3.624264068526839
 30
0.0
  0
VERTEX
  5
142A
  8
SAPA_ISOLATOR
 10
-100.49999999901
 20
4.6999999999999256
 30
0.0
 42
-0.4142135623730605
  0
VERTEX
  5
142B
  8
SAPA_ISOLATOR
 10
-100.19999999901
 20
4.9999999999998979
 30
0.0
  0
VERTEX
  5
142C
  8
SAPA_ISOLATOR
 10
-52.999999999010129
 20
4.999999999999889
 30
0.0
 42
-0.4142135623730951
  0
VERTEX
  5
142D
  8
SAPA_ISOLATOR
 10
-52.499999999010242
 20
4.4999999999997762
 30
0.0
  0
VERTEX
  5
142E
  8
SAPA_ISOLATOR
 10
-52.499999999010129
 20
3.2742640687117759
 30
0.0
 42
0.1989123673796248
  0
VERTEX
  5
142F
  8
SAPA_ISOLATOR
 10
-52.412132033366099
 20
3.0621320343557872
 30
0.0
  0
VERTEX
  5
1430
  8
SAPA_ISOLATOR
 10
-51.737867964654242
 20
2.387867965643923
 30
0.0
 42
0.1989123673796571
  0
VERTEX
  5
1431
  8
SAPA_ISOLATOR
 10
-51.525735930298197
 20
2.2999999999999008
 30
0.0
  0
VERTEX
  5
1432
  8
SAPA_ISOLATOR
 10
-47.094967040794813
 20
2.2999999999998999
 30
0.0
 42
-0.0912836897734216
  0
VERTEX
  5
1433
  8
SAPA_ISOLATOR
 10
-44.975410007192863
 20
1.0813583321900091
 30
0.0
 42
-0.4396415083054796
  0
VERTEX
  5
1434
  8
SAPA_ISOLATOR
 10
-44.97541000719275
 20
-1.081358332190171
 30
0.0
 42
-0.0912836897734209
  0
VERTEX
  5
1435
  8
SAPA_ISOLATOR
 10
-47.094967040794813
 20
-2.3000000000001219
 30
0.0
  0
VERTEX
  5
1436
  8
SAPA_ISOLATOR
 10
-51.525735930298197
 20
-2.3000000000001211
 30
0.0
 42
0.1989123673796602
  0
VERTEX
  5
1437
  8
SAPA_ISOLATOR
 10
-51.737867964654242
 20
-2.387867965644201
 30
0.0
  0
VERTEX
  5
1438
  8
SAPA_ISOLATOR
 10
-52.412132033366099
 20
-3.062132034356063
 30
0.0
 42
0.1989123673796276
  0
VERTEX
  5
1439
  8
SAPA_ISOLATOR
 10
-52.499999999010129
 20
-3.2742640687120521
 30
0.0
  0
VERTEX
  5
143A
  8
SAPA_ISOLATOR
 10
-52.499999999010129
 20
-4.5000000000001661
 30
0.0
 42
-0.4142135623730951
  0
VERTEX
  5
143B
  8
SAPA_ISOLATOR
 10
-52.999999999010129
 20
-5.0000000000001661
 30
0.0
  0
VERTEX
  5
143C
  8
SAPA_ISOLATOR
 10
-100.19999999901
 20
-5.0000000000001599
 30
0.0
 42
-0.4142135623731471
  0
VERTEX
  5
143D
  8
SAPA_ISOLATOR
 10
-100.49999999901
 20
-4.70000000000016
 30
0.0
  0
VERTEX
  5
143E
  8
SAPA_ISOLATOR
 10
-100.4999999990101
 20
-3.6242640688969781
 30
0.0
 42
-0.1989123676531289
  0
VERTEX
  5
143F
  8
SAPA_ISOLATOR
 10
-100.4121320331428
 20
-3.4121320343177648
 30
0.0
  0
VERTEX
  5
1440
  8
SAPA_ISOLATOR
 10
-97.353553389603348
 20
-0.3535533972161486
 30
0.0
 42
0.4142135623730478
  0
VERTEX
  5
1441
  8
SAPA_ISOLATOR
 10
-97.353553389603348
 20
0.3535533839704046
 30
0.0
  0
SEQEND
  5
1442
  8
SAPA_ISOLATOR
  0
POLYLINE
  5
D41
  8
SAPA_ISOLATOR
 66
     1
 10
0.0
 20
0.0
 30
0.0
 70
     1
  0
VERTEX
  5
1443
  8
SAPA_ISOLATOR
 10
-52.193502883264607
 20
-1.287867965644178
 30
0.0
 42
-0.198912367379658
  0
VERTEX
  5
1444
  8
SAPA_ISOLATOR
 10
-51.981370848908682
 20
-1.2000000000001549
 30
0.0
  0
VERTEX
  5
1445
  8
SAPA_ISOLATOR
 10
-47.330245110800661
 20
-1.2000000000001561
 30
0.0
 42
0.0949127563617268
  0
VERTEX
  5
1446
  8
SAPA_ISOLATOR
 10
-47.25633651655761
 20
-1.185842728393812
 30
0.0
 42
0.0825355669758324
  0
VERTEX
  5
1447
  8
SAPA_ISOLATOR
 10
-45.669861747255418
 20
-0.2279162213644463
 30
0.0
 42
0.4603672002713016
  0
VERTEX
  5
1448
  8
SAPA_ISOLATOR
 10
-45.669861747255418
 20
0.2279162213641852
 30
0.0
 42
0.08253556697594
  0
VERTEX
  5
1449
  8
SAPA_ISOLATOR
 10
-47.25633651655982
 20
1.1858427283940809
 30
0.0
 42
0.0949127563615792
  0
VERTEX
  5
144A
  8
SAPA_ISOLATOR
 10
-47.330245110802991
 20
1.1999999999998769
 30
0.0
  0
VERTEX
  5
144B
  8
SAPA_ISOLATOR
 10
-51.981370848908682
 20
1.1999999999998781
 30
0.0
 42
-0.1989123673796566
  0
VERTEX
  5
144C
  8
SAPA_ISOLATOR
 10
-52.1935028832645
 20
1.2878679656439009
 30
0.0
  0
VERTEX
  5
144D
  8
SAPA_ISOLATOR
 10
-53.512132033366122
 20
2.606497115745416
 30
0.0
 42
-0.1989123673796571
  0
VERTEX
  5
144E
  8
SAPA_ISOLATOR
 10
-53.599999999010151
 20
2.8186291501013478
 30
0.0
  0
VERTEX
  5
144F
  8
SAPA_ISOLATOR
 10
-53.599999999010151
 20
3.5999999999998549
 30
0.0
 42
0.4142135623730395
  0
VERTEX
  5
1450
  8
SAPA_ISOLATOR
 10
-53.899999999010113
 20
3.8999999999998671
 30
0.0
  0
VERTEX
  5
1451
  8
SAPA_ISOLATOR
 10
-66.099999999010095
 20
3.89999999999988
 30
0.0
 42
0.4142135623730673
  0
VERTEX
  5
1452
  8
SAPA_ISOLATOR
 10
-66.399999999010049
 20
3.5999999999998691
 30
0.0
  0
VERTEX
  5
1453
  8
SAPA_ISOLATOR
 10
-66.399999999010049
 20
-3.6000000000001191
 30
0.0
 42
0.4142135623731228
  0
VERTEX
  5
1454
  8
SAPA_ISOLATOR
 10
-66.099999999010095
 20
-3.9000000000001021
 30
0.0
  0
VERTEX
  5
1455
  8
SAPA_ISOLATOR
 10
-53.899999999010113
 20
-3.9000000000001429
 30
0.0
 42
0.4142135623730743
  0
VERTEX
  5
1456
  8
SAPA_ISOLATOR
 10
-53.599999999010151
 20
-3.6000000000001879
 30
0.0
  0
VERTEX
  5
1457
  8
SAPA_ISOLATOR
 10
-53.599999999010151
 20
-2.8186291501016241
 30
0.0
 42
-0.1989123673796576
  0
VERTEX
  5
1458
  8
SAPA_ISOLATOR
 10
-53.512132033366022
 20
-2.6064971157456931
 30
0.0
  0
SEQEND
  5
1459
  8
SAPA_ISOLATOR
  0
POLYLINE
  5
D42
  8
SAPA_ISOLATOR
 66
     1
 10
0.0
 20
0.0
 30
0.0
 70
     1
  0
VERTEX
  5
145A
  8
SAPA_ISOLATOR
 10
-67.499999999010072
 20
3.5999999999998691
 30
0.0
 42
0.4142135623731076
  0
VERTEX
  5
145B
  8
SAPA_ISOLATOR
 10
-67.79999999901014
 20
3.89999999999988
 30
0.0
  0
VERTEX
  5
145C
  8
SAPA_ISOLATOR
 10
-83.099999999010038
 20
3.8999999999998551
 30
0.0
 42
0.4142135623730659
  0
VERTEX
  5
145D
  8
SAPA_ISOLATOR
 10
-83.399999999009992
 20
3.5999999999998429
 30
0.0
  0
VERTEX
  5
145E
  8
SAPA_ISOLATOR
 10
-83.399999999010106
 20
-3.6000000000002008
 30
0.0
 42
0.414213562373041
  0
VERTEX
  5
145F
  8
SAPA_ISOLATOR
 10
-83.099999999010038
 20
-3.9000000000001549
 30
0.0
  0
VERTEX
  5
1460
  8
SAPA_ISOLATOR
 10
-67.79999999901014
 20
-3.9000000000001291
 30
0.0
 42
0.4142135623730784
  0
VERTEX
  5
1461
  8
SAPA_ISOLATOR
 10
-67.499999999010186
 20
-3.6000000000001742
 30
0.0
  0
SEQEND
  5
1462
  8
SAPA_ISOLATOR
  0
POLYLINE
  5
D43
  8
SAPA_ISOLATOR
 66
     1
 10
0.0
 20
0.0
 30
0.0
 70
     1
  0
VERTEX
  5
1463
  8
SAPA_ISOLATOR
 10
-84.499999999010129
 20
3.5999999999998442
 30
0.0
 42
0.4142135623730659
  0
VERTEX
  5
1464
  8
SAPA_ISOLATOR
 10
-84.799999999010083
 20
3.8999999999998551
 30
0.0
  0
VERTEX
  5
1465
  8
SAPA_ISOLATOR
 10
-98.861522369438944
 20
3.899999999999876
 30
0.0
 42
0.6681786375387276
  0
VERTEX
  5
1466
  8
SAPA_ISOLATOR
 10
-99.002943725825105
 20
3.5585786439114009
 30
0.0
  0
VERTEX
  5
1467
  8
SAPA_ISOLATOR
 10
-96.57573592947962
 20
1.131370842456999
 30
0.0
 42
-0.4142135623730892
  0
VERTEX
  5
1468
  8
SAPA_ISOLATOR
 10
-96.575735930298165
 20
-1.1313708565213449
 30
0.0
  0
VERTEX
  5
1469
  8
SAPA_ISOLATOR
 10
-99.002943722499708
 20
-3.5585786436139881
 30
0.0
 42
0.6681786382998753
  0
VERTEX
  5
146A
  8
SAPA_ISOLATOR
 10
-98.861522366411236
 20
-3.900000000000134
 30
0.0
  0
VERTEX
  5
146B
  8
SAPA_ISOLATOR
 10
-84.799999999010197
 20
-3.9000000000001549
 30
0.0
 42
0.4142135623730951
  0
VERTEX
  5
146C
  8
SAPA_ISOLATOR
 10
-84.499999999010129
 20
-3.600000000000144
 30
0.0
  0
SEQEND
  5
146D
  8
SAPA_ISOLATOR
  0
CIRCLE
  5
D55
  8
SAPA_FOGBAND
 10
-100.6375682197657
 20
18.61213203435625
 30
0.0
 40
0.2549509756796394
  0
INSERT
  5
D56
  8
SAPA_FOGBAND
  6
CONTINUOUS
  2
*U42
 10
0.0
 20
0.0
 30
0.0
1001
ACAD
1002
{
1000
R14_HATCH_DATA
1000
D56
1011
1.0
1021
0.0
1031
0.0
1021
0.0
1031
0.0
1011
0.0
1021
0.0
1031
0.0
1021
1.0
1031
0.0
1011
0.0
1021
0.0
1031
0.0
1021
0.0
1031
1.0
1040
0.0
1010
0.0
1020
0.0
1030
1.0
1000
SOLID
1070
     1
1070
     1
1071
        1
1071
        1
1071
        1
1070
     2
1040
-100.6375682197657
1040
18.61213203435625
1040
0.2549509756796394
1040
-1.5707963267948959
1040
4.7123889803846888
1070
     1
1071
        1
1005
D55
1070
     0
1070
     1
1071
        1
1040
-100.5557167224368
1040
18.84887093592636
1040
0.0
1002
}
  0
POLYLINE
  5
D57
  8
SAPA_FOGBAND
 66
     1
 10
0.0
 20
0.0
 30
0.0
 70
     1
  0
VERTEX
  5
1546
  8
SAPA_FOGBAND
 10
-103.59999999901019
 20
17.712132034356269
 30
0.0
 42
0.9999999999999998
  0
VERTEX
  5
1547
  8
SAPA_FOGBAND
 10
-103.59999999901019
 20
19.512132034356231
 30
0.0
  0
VERTEX
  5
1548
  8
SAPA_FOGBAND
 10
-104.1999999990103
 20
19.512132034356231
 30
0.0
 42
0.9999999999999998
  0
VERTEX
  5
1549
  8
SAPA_FOGBAND
 10
-104.1999999990103
 20
17.712132034356269
 30
0.0
  0
SEQEND
  5
154A
  8
SAPA_FOGBAND
  0
POLYLINE
  5
D58
  8
SAPA_FOGBAND
 66
     1
 10
0.0
 20
0.0
 30
0.0
 70
     1
  0
VERTEX
  5
154B
  8
SAPA_FOGBAND
 10
-98.499999999010242
 20
27.24000834252945
 30
0.0
 42
0.0775891054856093
  0
VERTEX
  5
154C
  8
SAPA_FOGBAND
 10
-98.816635983071592
 20
23.7732266121069
 30
0.0
  0
VERTEX
  5
154D
  8
SAPA_FOGBAND
 10
-98.599999999010194
 20
23.5353371192781
 30
0.0
 42
-0.5773502691896298
  0
VERTEX
  5
154E
  8
SAPA_FOGBAND
 10
-98.599999999010194
 20
23.188926957764242
 30
0.0
  0
VERTEX
  5
154F
  8
SAPA_FOGBAND
 10
-98.816909853233255
 20
22.950879341033438
 30
0.0
  0
VERTEX
  5
1550
  8
SAPA_FOGBAND
 10
-98.816909853233255
 20
22.173384731116808
 30
0.0
  0
VERTEX
  5
1551
  8
SAPA_FOGBAND
 10
-98.599999999010194
 20
21.935337119278071
 30
0.0
 42
-0.577350269189699
  0
VERTEX
  5
1552
  8
SAPA_FOGBAND
 10
-98.599999999010194
 20
21.588926957764329
 30
0.0
  0
VERTEX
  5
1553
  8
SAPA_FOGBAND
 10
-98.816909853233255
 20
21.350879341033529
 30
0.0
  0
VERTEX
  5
1554
  8
SAPA_FOGBAND
 10
-98.816909853233255
 20
20.573384731116789
 30
0.0
  0
VERTEX
  5
1555
  8
SAPA_FOGBAND
 10
-98.599999999010194
 20
20.335337119278051
 30
0.0
 42
-0.577350269189699
  0
VERTEX
  5
1556
  8
SAPA_FOGBAND
 10
-98.599999999010194
 20
19.988926957764299
 30
0.0
  0
VERTEX
  5
1557
  8
SAPA_FOGBAND
 10
-98.816909853233255
 20
19.75087934103351
 30
0.0
  0
VERTEX
  5
1558
  8
SAPA_FOGBAND
 10
-98.816909853233255
 20
18.97338473111677
 30
0.0
  0
VERTEX
  5
1559
  8
SAPA_FOGBAND
 10
-98.599999999010194
 20
18.735337119278139
 30
0.0
 42
-0.5773502691896298
  0
VERTEX
  5
155A
  8
SAPA_FOGBAND
 10
-98.599999999010194
 20
18.38892695776428
 30
0.0
  0
VERTEX
  5
155B
  8
SAPA_FOGBAND
 10
-98.816909853233255
 20
18.150879341033491
 30
0.0
  0
VERTEX
  5
155C
  8
SAPA_FOGBAND
 10
-98.816909853233255
 20
17.37338473111674
 30
0.0
  0
VERTEX
  5
155D
  8
SAPA_FOGBAND
 10
-98.599999999010194
 20
17.13533711927812
 30
0.0
 42
-0.5773502691896298
  0
VERTEX
  5
155E
  8
SAPA_FOGBAND
 10
-98.599999999010194
 20
16.788926957764261
 30
0.0
  0
VERTEX
  5
155F
  8
SAPA_FOGBAND
 10
-98.816909853233255
 20
16.550879341033461
 30
0.0
  0
VERTEX
  5
1560
  8
SAPA_FOGBAND
 10
-98.816909853233255
 20
15.7733847269518
 30
0.0
  0
VERTEX
  5
1561
  8
SAPA_FOGBAND
 10
-98.599999999010194
 20
15.535337115113061
 30
0.0
 42
-0.577350269189699
  0
VERTEX
  5
1562
  8
SAPA_FOGBAND
 10
-98.599999999010194
 20
15.188926953599321
 30
0.0
  0
VERTEX
  5
1563
  8
SAPA_FOGBAND
 10
-99.673330067494703
 20
14.388926954044219
 30
0.0
 42
-0.1316524987190269
  0
VERTEX
  5
1564
  8
SAPA_FOGBAND
 10
-99.773330068265395
 20
14.36213203435625
 30
0.0
  0
VERTEX
  5
1565
  8
SAPA_FOGBAND
 10
-102.2999999990102
 20
14.362132034356129
 30
0.0
 42
-0.4142135623730951
  0
VERTEX
  5
1566
  8
SAPA_FOGBAND
 10
-102.4999999990102
 20
14.56213203435618
 30
0.0
  0
VERTEX
  5
1567
  8
SAPA_FOGBAND
 10
-102.4999999990102
 20
16.61213203435625
 30
0.0
 42
0.4142135623730951
  0
VERTEX
  5
1568
  8
SAPA_FOGBAND
 10
-102.9999999990102
 20
17.11213203435625
 30
0.0
  0
VERTEX
  5
1569
  8
SAPA_FOGBAND
 10
-103.7267949182534
 20
17.11213203435625
 30
0.0
  0
VERTEX
  5
156A
  8
SAPA_FOGBAND
 10
-103.7942548275638
 20
16.860368225335719
 30
0.0
 42
-0.4740571810232869
  0
VERTEX
  5
156B
  8
SAPA_FOGBAND
 10
-104.0765374132024
 20
16.733074362972161
 30
0.0
  0
VERTEX
  5
156C
  8
SAPA_FOGBAND
 10
-105.5227435499622
 20
17.35317486573069
 30
0.0
 42
-0.2846003776495916
  0
VERTEX
  5
156D
  8
SAPA_FOGBAND
 10
-105.7999999990102
 20
17.800819044190909
 30
0.0
  0
VERTEX
  5
156E
  8
SAPA_FOGBAND
 10
-105.7999999990102
 20
19.42344502452147
 30
0.0
 42
-0.2846003776495917
  0
VERTEX
  5
156F
  8
SAPA_FOGBAND
 10
-105.5227435499622
 20
19.87108920298169
 30
0.0
  0
VERTEX
  5
1570
  8
SAPA_FOGBAND
 10
-104.0765374132024
 20
20.491189705740219
 30
0.0
 42
-0.4740571810232869
  0
VERTEX
  5
1571
  8
SAPA_FOGBAND
 10
-103.7942548275638
 20
20.363895843376671
 30
0.0
  0
VERTEX
  5
1572
  8
SAPA_FOGBAND
 10
-103.7267949182534
 20
20.11213203435625
 30
0.0
  0
VERTEX
  5
1573
  8
SAPA_FOGBAND
 10
-102.9999999990102
 20
20.11213203435625
 30
0.0
 42
0.4142135623730951
  0
VERTEX
  5
1574
  8
SAPA_FOGBAND
 10
-102.4999999990102
 20
20.61213203435625
 30
0.0
  0
VERTEX
  5
1575
  8
SAPA_FOGBAND
 10
-102.4999999990102
 20
23.662132034356201
 30
0.0
 42
0.4142135623730951
  0
VERTEX
  5
1576
  8
SAPA_FOGBAND
 10
-102.6999999990103
 20
23.86213203435625
 30
0.0
  0
VERTEX
  5
1577
  8
SAPA_FOGBAND
 10
-103.59999999901019
 20
23.86213203435614
 30
0.0
 42
-0.4142135623731784
  0
VERTEX
  5
1578
  8
SAPA_FOGBAND
 10
-103.7999999990102
 20
24.062132034356178
 30
0.0
  0
VERTEX
  5
1579
  8
SAPA_FOGBAND
 10
-103.7999999990103
 20
24.762132034356231
 30
0.0
 42
-0.4142135623730398
  0
VERTEX
  5
157A
  8
SAPA_FOGBAND
 10
-103.4999999990102
 20
25.062132034356178
 30
0.0
  0
VERTEX
  5
157B
  8
SAPA_FOGBAND
 10
-102.6894882223587
 20
25.062132034356178
 30
0.0
 42
0.1316524975873973
  0
VERTEX
  5
157C
  8
SAPA_FOGBAND
 10
-101.6894882223587
 20
25.330081226787339
 30
0.0
  0
VERTEX
  5
157D
  8
SAPA_FOGBAND
 10
-99.099920230266775
 20
30.492926376827771
 30
0.0
 42
-0.7057658529986604
  0
VERTEX
  5
157E
  8
SAPA_FOGBAND
 10
-98.499999999010242
 20
30.225333201469429
 30
0.0
  0
SEQEND
  5
157F
  8
SAPA_FOGBAND
  0
POLYLINE
  5
D59
  8
SAPA_FOGBAND
 66
     1
 10
0.0
 20
0.0
 30
0.0
 70
     1
  0
VERTEX
  5
1580
  8
SAPA_FOGBAND
 10
-36.299999999010652
 20
-23.301327184514989
 30
0.0
  0
VERTEX
  5
1581
  8
SAPA_FOGBAND
 10
-36.299999999010652
 20
-16.00132718451481
 30
0.0
 42
-0.4142135623730951
  0
VERTEX
  5
1582
  8
SAPA_FOGBAND
 10
-35.799999999010652
 20
-15.50132718451481
 30
0.0
  0
VERTEX
  5
1583
  8
SAPA_FOGBAND
 10
-35.499999999010697
 20
-15.50132718451481
 30
0.0
  0
VERTEX
  5
1584
  8
SAPA_FOGBAND
 10
-35.499999999010932
 20
-18.201327184514518
 30
0.0
 42
0.414213562373117
  0
VERTEX
  5
1585
  8
SAPA_FOGBAND
 10
-34.999999999010917
 20
-18.701327184514518
 30
0.0
  0
VERTEX
  5
1586
  8
SAPA_FOGBAND
 10
-34.273205079767649
 20
-18.701327184514518
 30
0.0
  0
VERTEX
  5
1587
  8
SAPA_FOGBAND
 10
-34.205745170457313
 20
-18.449563375494439
 30
0.0
 42
-0.4740571810233732
  0
VERTEX
  5
1588
  8
SAPA_FOGBAND
 10
-33.923462584818708
 20
-18.322269513130991
 30
0.0
  0
VERTEX
  5
1589
  8
SAPA_FOGBAND
 10
-32.477256448058881
 20
-18.942370015888731
 30
0.0
 42
-0.2846003776494633
  0
VERTEX
  5
158A
  8
SAPA_FOGBAND
 10
-32.199999999010743
 20
-19.390014194349408
 30
0.0
  0
VERTEX
  5
158B
  8
SAPA_FOGBAND
 10
-32.199999999010743
 20
-21.012640174680541
 30
0.0
 42
-0.2846003776496146
  0
VERTEX
  5
158C
  8
SAPA_FOGBAND
 10
-32.477256448058661
 20
-21.460284353140409
 30
0.0
  0
VERTEX
  5
158D
  8
SAPA_FOGBAND
 10
-33.923462584818772
 20
-22.08038485589827
 30
0.0
 42
-0.4740571810233364
  0
VERTEX
  5
158E
  8
SAPA_FOGBAND
 10
-34.205745170457313
 20
-21.953090993534818
 30
0.0
  0
VERTEX
  5
158F
  8
SAPA_FOGBAND
 10
-34.273205079767649
 20
-21.701327184514518
 30
0.0
  0
VERTEX
  5
1590
  8
SAPA_FOGBAND
 10
-34.999999999010917
 20
-21.701327184514518
 30
0.0
 42
0.4142135623731218
  0
VERTEX
  5
1591
  8
SAPA_FOGBAND
 10
-35.499999999010932
 20
-22.201327184514628
 30
0.0
  0
VERTEX
  5
1592
  8
SAPA_FOGBAND
 10
-35.499999999010747
 20
-23.80132718451409
 30
0.0
  0
VERTEX
  5
1593
  8
SAPA_FOGBAND
 10
-35.799999999009117
 20
-23.801327184514999
 30
0.0
 42
-0.4142135623739815
  0
SEQEND
  5
1594
  8
SAPA_FOGBAND
  0
POLYLINE
  5
D5A
  8
SAPA_FOGBAND
 10
-42.113213331627833
 20
-22.264574318351723
 30
0.0
 66
     1
 70
     8
  0
VERTEX
  8
SAPA_FOGBAND
  5
167E
 10
-42.1132
 20
-22.2646
 30
0.000000
  70
    32
  0
VERTEX
  8
SAPA_FOGBAND
  5
167F
 10
-42.2294
 20
-22.2594
 30
0.000000
  70
    32
  0
VERTEX
  8
SAPA_FOGBAND
  5
1680
 10
-42.3452
 20
-22.2464
 30
0.000000
  70
    32
  0
VERTEX
  8
SAPA_FOGBAND
  5
1681
 10
-42.4604
 20
-22.2254
 30
0.000000
  70
    32
  0
VERTEX
  8
SAPA_FOGBAND
  5
1682
 10
-42.5746
 20
-22.1966
 30
0.000000
  70
    32
  0
VERTEX
  8
SAPA_FOGBAND
  5
1683
 10
-42.6877
 20
-22.1600
 30
0.000000
  70
    32
  0
VERTEX
  8
SAPA_FOGBAND
  5
1684
 10
-42.7993
 20
-22.1157
 30
0.000000
  70
    32
  0
VERTEX
  8
SAPA_FOGBAND
  5
1685
 10
-42.9092
 20
-22.0638
 30
0.000000
  70
    32
  0
VERTEX
  8
SAPA_FOGBAND
  5
1686
 10
-43.0170
 20
-22.0045
 30
0.000000
  70
    32
  0
VERTEX
  8
SAPA_FOGBAND
  5
1687
 10
-43.1226
 20
-21.9378
 30
0.000000
  70
    32
  0
VERTEX
  8
SAPA_FOGBAND
  5
1688
 10
-43.2258
 20
-21.8640
 30
0.000000
  70
    32
  0
VERTEX
  8
SAPA_FOGBAND
  5
1689
 10
-43.3261
 20
-21.7832
 30
0.000000
  70
    32
  0
VERTEX
  8
SAPA_FOGBAND
  5
168A
 10
-43.4234
 20
-21.6956
 30
0.000000
  70
    32
  0
VERTEX
  8
SAPA_FOGBAND
  5
168B
 10
-43.5176
 20
-21.6015
 30
0.000000
  70
    32
  0
VERTEX
  8
SAPA_FOGBAND
  5
168C
 10
-43.6082
 20
-21.5009
 30
0.000000
  70
    32
  0
VERTEX
  8
SAPA_FOGBAND
  5
168D
 10
-43.6952
 20
-21.3943
 30
0.000000
  70
    32
  0
VERTEX
  8
SAPA_FOGBAND
  5
168E
 10
-43.7783
 20
-21.2819
 30
0.000000
  70
    32
  0
VERTEX
  8
SAPA_FOGBAND
  5
168F
 10
-43.8572
 20
-21.1638
 30
0.000000
  70
    32
  0
VERTEX
  8
SAPA_FOGBAND
  5
1690
 10
-43.9319
 20
-21.0405
 30
0.000000
  70
    32
  0
VERTEX
  8
SAPA_FOGBAND
  5
1691
 10
-44.0022
 20
-20.9121
 30
0.000000
  70
    32
  0
VERTEX
  8
SAPA_FOGBAND
  5
1692
 10
-44.0678
 20
-20.7791
 30
0.000000
  70
    32
  0
VERTEX
  8
SAPA_FOGBAND
  5
1693
 10
-44.1286
 20
-20.6417
 30
0.000000
  70
    32
  0
VERTEX
  8
SAPA_FOGBAND
  5
1694
 10
-44.1845
 20
-20.5003
 30
0.000000
  70
    32
  0
VERTEX
  8
SAPA_FOGBAND
  5
1695
 10
-44.2354
 20
-20.3552
 30
0.000000
  70
    32
  0
VERTEX
  8
SAPA_FOGBAND
  5
1696
 10
-44.2810
 20
-20.2067
 30
0.000000
  70
    32
  0
VERTEX
  8
SAPA_FOGBAND
  5
1697
 10
-44.3213
 20
-20.0553
 30
0.000000
  70
    32
  0
VERTEX
  8
SAPA_FOGBAND
  5
1698
 10
-44.3563
 20
-19.9012
 30
0.000000
  70
    32
  0
VERTEX
  8
SAPA_FOGBAND
  5
1699
 10
-44.3857
 20
-19.7449
 30
0.000000
  70
    32
  0
VERTEX
  8
SAPA_FOGBAND
  5
169A
 10
-44.4096
 20
-19.5866
 30
0.000000
  70
    32
  0
VERTEX
  8
SAPA_FOGBAND
  5
169B
 10
-44.4279
 20
-19.4269
 30
0.000000
  70
    32
  0
VERTEX
  8
SAPA_FOGBAND
  5
169C
 10
-44.4405
 20
-19.2661
 30
0.000000
  70
    32
  0
VERTEX
  8
SAPA_FOGBAND
  5
169D
 10
-44.4475
 20
-19.1046
 30
0.000000
  70
    32
  0
VERTEX
  8
SAPA_FOGBAND
  5
169E
 10
-44.4487
 20
-18.9427
 30
0.000000
  70
    32
  0
VERTEX
  8
SAPA_FOGBAND
  5
169F
 10
-44.4442
 20
-18.7809
 30
0.000000
  70
    32
  0
VERTEX
  8
SAPA_FOGBAND
  5
16A0
 10
-44.4341
 20
-18.6196
 30
0.000000
  70
    32
  0
VERTEX
  8
SAPA_FOGBAND
  5
16A1
 10
-44.4183
 20
-18.4590
 30
0.000000
  70
    32
  0
VERTEX
  8
SAPA_FOGBAND
  5
16A2
 10
-44.3968
 20
-18.2997
 30
0.000000
  70
    32
  0
VERTEX
  8
SAPA_FOGBAND
  5
16A3
 10
-44.3698
 20
-18.1420
 30
0.000000
  70
    32
  0
VERTEX
  8
SAPA_FOGBAND
  5
16A4
 10
-44.3372
 20
-17.9863
 30
0.000000
  70
    32
  0
VERTEX
  8
SAPA_FOGBAND
  5
16A5
 10
-44.2992
 20
-17.8330
 30
0.000000
  70
    32
  0
VERTEX
  8
SAPA_FOGBAND
  5
16A6
 10
-44.2559
 20
-17.6823
 30
0.000000
  70
    32
  0
VERTEX
  8
SAPA_FOGBAND
  5
16A7
 10
-44.2073
 20
-17.5348
 30
0.000000
  70
    32
  0
VERTEX
  8
SAPA_FOGBAND
  5
16A8
 10
-44.1536
 20
-17.3907
 30
0.000000
  70
    32
  0
VERTEX
  8
SAPA_FOGBAND
  5
16A9
 10
-44.0949
 20
-17.2504
 30
0.000000
  70
    32
  0
VERTEX
  8
SAPA_FOGBAND
  5
16AA
 10
-44.0313
 20
-17.1143
 30
0.000000
  70
    32
  0
VERTEX
  8
SAPA_FOGBAND
  5
16AB
 10
-43.9631
 20
-16.9826
 30
0.000000
  70
    32
  0
VERTEX
  8
SAPA_FOGBAND
  5
16AC
 10
-43.8903
 20
-16.8557
 30
0.000000
  70
    32
  0
VERTEX
  8
SAPA_FOGBAND
  5
16AD
 10
-43.8131
 20
-16.7339
 30
0.000000
  70
    32
  0
VERTEX
  8
SAPA_FOGBAND
  5
16AE
 10
-43.7318
 20
-16.6174
 30
0.000000
  70
    32
  0
VERTEX
  8
SAPA_FOGBAND
  5
16AF
 10
-43.6465
 20
-16.5066
 30
0.000000
  70
    32
  0
VERTEX
  8
SAPA_FOGBAND
  5
16B0
 10
-43.5575
 20
-16.4018
 30
0.000000
  70
    32
  0
VERTEX
  8
SAPA_FOGBAND
  5
16B1
 10
-43.4648
 20
-16.3031
 30
0.000000
  70
    32
  0
VERTEX
  8
SAPA_FOGBAND
  5
16B2
 10
-43.3689
 20
-16.2108
 30
0.000000
  70
    32
  0
VERTEX
  8
SAPA_FOGBAND
  5
16B3
 10
-43.2698
 20
-16.1252
 30
0.000000
  70
    32
  0
VERTEX
  8
SAPA_FOGBAND
  5
16B4
 10
-43.1679
 20
-16.0464
 30
0.000000
  70
    32
  0
VERTEX
  8
SAPA_FOGBAND
  5
16B5
 10
-43.0633
 20
-15.9746
 30
0.000000
  70
    32
  0
VERTEX
  8
SAPA_FOGBAND
  5
16B6
 10
-42.9564
 20
-15.9101
 30
0.000000
  70
    32
  0
VERTEX
  8
SAPA_FOGBAND
  5
16B7
 10
-42.8473
 20
-15.8529
 30
0.000000
  70
    32
  0
VERTEX
  8
SAPA_FOGBAND
  5
16B8
 10
-42.7365
 20
-15.8032
 30
0.000000
  70
    32
  0
VERTEX
  8
SAPA_FOGBAND
  5
16B9
 10
-42.6240
 20
-15.7612
 30
0.000000
  70
    32
  0
VERTEX
  8
SAPA_FOGBAND
  5
16BA
 10
-42.5102
 20
-15.7268
 30
0.000000
  70
    32
  0
VERTEX
  8
SAPA_FOGBAND
  5
16BB
 10
-42.3954
 20
-15.7003
 30
0.000000
  70
    32
  0
VERTEX
  8
SAPA_FOGBAND
  5
16BC
 10
-42.2799
 20
-15.6816
 30
0.000000
  70
    32
  0
VERTEX
  8
SAPA_FOGBAND
  5
16BD
 10
-42.1638
 20
-15.6709
 30
0.000000
  70
    32
  0
VERTEX
  8
SAPA_FOGBAND
  5
16BE
 10
-42.0476
 20
-15.6680
 30
0.000000
  70
    32
  0
VERTEX
  8
SAPA_FOGBAND
  5
16BF
 10
-41.9314
 20
-15.6732
 30
0.000000
  70
    32
  0
VERTEX
  8
SAPA_FOGBAND
  5
16C0
 10
-41.8156
 20
-15.6862
 30
0.000000
  70
    32
  0
VERTEX
  8
SAPA_FOGBAND
  5
16C1
 10
-41.7004
 20
-15.7072
 30
0.000000
  70
    32
  0
VERTEX
  8
SAPA_FOGBAND
  5
16C2
 10
-41.5861
 20
-15.7360
 30
0.000000
  70
    32
  0
VERTEX
  8
SAPA_FOGBAND
  5
16C3
 10
-41.4731
 20
-15.7726
 30
0.000000
  70
    32
  0
VERTEX
  8
SAPA_FOGBAND
  5
16C4
 10
-41.3615
 20
-15.8169
 30
0.000000
  70
    32
  0
VERTEX
  8
SAPA_FOGBAND
  5
16C5
 10
-41.2516
 20
-15.8688
 30
0.000000
  70
    32
  0
VERTEX
  8
SAPA_FOGBAND
  5
16C6
 10
-41.1437
 20
-15.9281
 30
0.000000
  70
    32
  0
VERTEX
  8
SAPA_FOGBAND
  5
16C7
 10
-41.0381
 20
-15.9948
 30
0.000000
  70
    32
  0
VERTEX
  8
SAPA_FOGBAND
  5
16C8
 10
-40.9350
 20
-16.0686
 30
0.000000
  70
    32
  0
VERTEX
  8
SAPA_FOGBAND
  5
16C9
 10
-40.8347
 20
-16.1494
 30
0.000000
  70
    32
  0
VERTEX
  8
SAPA_FOGBAND
  5
16CA
 10
-40.7373
 20
-16.2370
 30
0.000000
  70
    32
  0
VERTEX
  8
SAPA_FOGBAND
  5
16CB
 10
-40.6432
 20
-16.3312
 30
0.000000
  70
    32
  0
VERTEX
  8
SAPA_FOGBAND
  5
16CC
 10
-40.5526
 20
-16.4317
 30
0.000000
  70
    32
  0
VERTEX
  8
SAPA_FOGBAND
  5
16CD
 10
-40.4656
 20
-16.5383
 30
0.000000
  70
    32
  0
VERTEX
  8
SAPA_FOGBAND
  5
16CE
 10
-40.3825
 20
-16.6507
 30
0.000000
  70
    32
  0
VERTEX
  8
SAPA_FOGBAND
  5
16CF
 10
-40.3035
 20
-16.7688
 30
0.000000
  70
    32
  0
VERTEX
  8
SAPA_FOGBAND
  5
16D0
 10
-40.2288
 20
-16.8921
 30
0.000000
  70
    32
  0
VERTEX
  8
SAPA_FOGBAND
  5
16D1
 10
-40.1586
 20
-17.0205
 30
0.000000
  70
    32
  0
VERTEX
  8
SAPA_FOGBAND
  5
16D2
 10
-40.0930
 20
-17.1535
 30
0.000000
  70
    32
  0
VERTEX
  8
SAPA_FOGBAND
  5
16D3
 10
-40.0321
 20
-17.2909
 30
0.000000
  70
    32
  0
VERTEX
  8
SAPA_FOGBAND
  5
16D4
 10
-39.9762
 20
-17.4323
 30
0.000000
  70
    32
  0
VERTEX
  8
SAPA_FOGBAND
  5
16D5
 10
-39.9254
 20
-17.5774
 30
0.000000
  70
    32
  0
VERTEX
  8
SAPA_FOGBAND
  5
16D6
 10
-39.8798
 20
-17.7259
 30
0.000000
  70
    32
  0
VERTEX
  8
SAPA_FOGBAND
  5
16D7
 10
-39.8394
 20
-17.8773
 30
0.000000
  70
    32
  0
VERTEX
  8
SAPA_FOGBAND
  5
16D8
 10
-39.8045
 20
-18.0314
 30
0.000000
  70
    32
  0
VERTEX
  8
SAPA_FOGBAND
  5
16D9
 10
-39.7751
 20
-18.1878
 30
0.000000
  70
    32
  0
VERTEX
  8
SAPA_FOGBAND
  5
16DA
 10
-39.7512
 20
-18.3460
 30
0.000000
  70
    32
  0
VERTEX
  8
SAPA_FOGBAND
  5
16DB
 10
-39.7329
 20
-18.5057
 30
0.000000
  70
    32
  0
VERTEX
  8
SAPA_FOGBAND
  5
16DC
 10
-39.7202
 20
-18.6665
 30
0.000000
  70
    32
  0
VERTEX
  8
SAPA_FOGBAND
  5
16DD
 10
-39.7133
 20
-18.8280
 30
0.000000
  70
    32
  0
VERTEX
  8
SAPA_FOGBAND
  5
16DE
 10
-39.7121
 20
-18.9899
 30
0.000000
  70
    32
  0
VERTEX
  8
SAPA_FOGBAND
  5
16DF
 10
-39.7165
 20
-19.1517
 30
0.000000
  70
    32
  0
VERTEX
  8
SAPA_FOGBAND
  5
16E0
 10
-39.7267
 20
-19.3131
 30
0.000000
  70
    32
  0
VERTEX
  8
SAPA_FOGBAND
  5
16E1
 10
-39.7425
 20
-19.4736
 30
0.000000
  70
    32
  0
VERTEX
  8
SAPA_FOGBAND
  5
16E2
 10
-39.7640
 20
-19.6329
 30
0.000000
  70
    32
  0
VERTEX
  8
SAPA_FOGBAND
  5
16E3
 10
-39.7910
 20
-19.7906
 30
0.000000
  70
    32
  0
VERTEX
  8
SAPA_FOGBAND
  5
16E4
 10
-39.8236
 20
-19.9463
 30
0.000000
  70
    32
  0
VERTEX
  8
SAPA_FOGBAND
  5
16E5
 10
-39.8616
 20
-20.0997
 30
0.000000
  70
    32
  0
VERTEX
  8
SAPA_FOGBAND
  5
16E6
 10
-39.9049
 20
-20.2503
 30
0.000000
  70
    32
  0
VERTEX
  8
SAPA_FOGBAND
  5
16E7
 10
-39.9535
 20
-20.3978
 30
0.000000
  70
    32
  0
VERTEX
  8
SAPA_FOGBAND
  5
16E8
 10
-40.0072
 20
-20.5419
 30
0.000000
  70
    32
  0
VERTEX
  8
SAPA_FOGBAND
  5
16E9
 10
-40.0659
 20
-20.6822
 30
0.000000
  70
    32
  0
VERTEX
  8
SAPA_FOGBAND
  5
16EA
 10
-40.1294
 20
-20.8183
 30
0.000000
  70
    32
  0
VERTEX
  8
SAPA_FOGBAND
  5
16EB
 10
-40.1977
 20
-20.9500
 30
0.000000
  70
    32
  0
VERTEX
  8
SAPA_FOGBAND
  5
16EC
 10
-40.2705
 20
-21.0769
 30
0.000000
  70
    32
  0
VERTEX
  8
SAPA_FOGBAND
  5
16ED
 10
-40.3476
 20
-21.1988
 30
0.000000
  70
    32
  0
VERTEX
  8
SAPA_FOGBAND
  5
16EE
 10
-40.4289
 20
-21.3152
 30
0.000000
  70
    32
  0
VERTEX
  8
SAPA_FOGBAND
  5
16EF
 10
-40.5142
 20
-21.4260
 30
0.000000
  70
    32
  0
VERTEX
  8
SAPA_FOGBAND
  5
16F0
 10
-40.6033
 20
-21.5309
 30
0.000000
  70
    32
  0
VERTEX
  8
SAPA_FOGBAND
  5
16F1
 10
-40.6959
 20
-21.6295
 30
0.000000
  70
    32
  0
VERTEX
  8
SAPA_FOGBAND
  5
16F2
 10
-40.7919
 20
-21.7218
 30
0.000000
  70
    32
  0
VERTEX
  8
SAPA_FOGBAND
  5
16F3
 10
-40.8910
 20
-21.8074
 30
0.000000
  70
    32
  0
VERTEX
  8
SAPA_FOGBAND
  5
16F4
 10
-40.9929
 20
-21.8862
 30
0.000000
  70
    32
  0
VERTEX
  8
SAPA_FOGBAND
  5
16F5
 10
-41.0975
 20
-21.9580
 30
0.000000
  70
    32
  0
VERTEX
  8
SAPA_FOGBAND
  5
16F6
 10
-41.2044
 20
-22.0225
 30
0.000000
  70
    32
  0
VERTEX
  8
SAPA_FOGBAND
  5
16F7
 10
-41.3134
 20
-22.0797
 30
0.000000
  70
    32
  0
VERTEX
  8
SAPA_FOGBAND
  5
16F8
 10
-41.4243
 20
-22.1294
 30
0.000000
  70
    32
  0
VERTEX
  8
SAPA_FOGBAND
  5
16F9
 10
-41.5368
 20
-22.1715
 30
0.000000
  70
    32
  0
VERTEX
  8
SAPA_FOGBAND
  5
16FA
 10
-41.6505
 20
-22.2058
 30
0.000000
  70
    32
  0
VERTEX
  8
SAPA_FOGBAND
  5
16FB
 10
-41.7654
 20
-22.2323
 30
0.000000
  70
    32
  0
VERTEX
  8
SAPA_FOGBAND
  5
16FC
 10
-41.8809
 20
-22.2510
 30
0.000000
  70
    32
  0
VERTEX
  8
SAPA_FOGBAND
  5
16FD
 10
-41.9970
 20
-22.2618
 30
0.000000
  70
    32
  0
VERTEX
  8
SAPA_FOGBAND
  5
16FE
 10
-42.1132
 20
-22.2646
 30
0.000000
  70
    32
  0
SEQEND
  8
SAPA_FOGBAND
  5
16FF
  0
POLYLINE
  5
D5B
  8
SAPA_FOGBAND
 66
     1
 10
0.0
 20
0.0
 30
0.0
 70
     1
  0
VERTEX
  5
1595
  8
SAPA_FOGBAND
 10
-46.31336549691968
 20
-8.8913247649945681
 30
0.0
  0
VERTEX
  5
1596
  8
SAPA_FOGBAND
 10
-46.805317836809706
 20
-11.892651927563961
 30
0.0
 42
0.4464785874932524
  0
VERTEX
  5
1597
  8
SAPA_FOGBAND
 10
-45.811240531703788
 20
-13.00132718451481
 30
0.0
  0
VERTEX
  5
1598
  8
SAPA_FOGBAND
 10
-40.350147745600673
 20
-13.00132718451481
 30
0.0
 42
0.6226769977423571
  0
VERTEX
  5
1599
  8
SAPA_FOGBAND
 10
-39.55826601743729
 20
-11.39065269790102
 30
0.0
  0
VERTEX
  5
159A
  8
SAPA_FOGBAND
 10
-42.033301339954278
 20
-8.3893255353316256
 30
0.0
 42
0.232531183213058
  0
VERTEX
  5
159B
  8
SAPA_FOGBAND
 10
-42.825183068117887
 20
-8.0000000219454144
 30
0.0
  0
VERTEX
  5
159C
  8
SAPA_FOGBAND
 10
-45.319288191813939
 20
-8.0000000219454144
 30
0.0
 42
0.3826682380870913
  0
SEQEND
  5
159D
  8
SAPA_FOGBAND
  0
POLYLINE
  5
D5C
  8
SAPA_FOGBAND
 66
     1
 10
0.0
 20
0.0
 30
0.0
 70
     1
  0
VERTEX
  5
159E
  8
SAPA_FOGBAND
 10
-33.799999999010879
 20
-19.301327184514989
 30
0.0
  0
VERTEX
  5
159F
  8
SAPA_FOGBAND
 10
-34.399999999010788
 20
-19.301327184514989
 30
0.0
 42
0.9999999999999998
  0
VERTEX
  5
15A0
  8
SAPA_FOGBAND
 10
-34.399999999010788
 20
-21.101327184515181
 30
0.0
  0
VERTEX
  5
15A1
  8
SAPA_FOGBAND
 10
-33.799999999010879
 20
-21.101327184515181
 30
0.0
 42
0.9999999999999998
  0
SEQEND
  5
15A2
  8
SAPA_FOGBAND
  0
POLYLINE
  5
D5D
  8
SAPA_FOGBAND
 66
     1
 10
0.0
 20
0.0
 30
0.0
  0
VERTEX
  5
15A3
  8
SAPA_FOGBAND
 10
-35.499999999010697
 20
-15.50132718451481
 30
0.0
  0
VERTEX
  5
15A4
  8
SAPA_FOGBAND
 10
-35.499999999010697
 20
-15.17322763378001
 30
0.0
 42
0.1657205760184635
  0
VERTEX
  5
15A5
  8
SAPA_FOGBAND
 10
-35.708118270847308
 20
-14.562553147166099
 30
0.0
  0
VERTEX
  5
15A6
  8
SAPA_FOGBAND
 10
-41.10270335570317
 20
-5.1946627566896844
 30
0.0
 42
0.2325311832130381
  0
VERTEX
  5
15A7
  8
SAPA_FOGBAND
 10
-41.498644219785092
 20
-4.9999999999956692
 30
0.0
  0
VERTEX
  5
15A8
  8
SAPA_FOGBAND
 10
-52.350000001426849
 20
-5.0012075026567011
 30
0.0
 42
0.5543163197794524
  0
VERTEX
  5
15A9
  8
SAPA_FOGBAND
 10
-53.344077306532597
 20
-6.9271530581792042
 30
0.0
  0
VERTEX
  5
15AA
  8
SAPA_FOGBAND
 10
-48.499999999011152
 20
-10.25610375088614
 30
0.0
  0
VERTEX
  5
15AB
  8
SAPA_FOGBAND
 10
-48.499999999011088
 20
-25.2013271625658
 30
0.0
 42
0.425791769969346
  0
VERTEX
  5
15AC
  8
SAPA_FOGBAND
 10
-48.18819263648038
 20
-25.50109471616371
 30
0.0
  0
VERTEX
  5
15AD
  8
SAPA_FOGBAND
 10
-35.788192636479842
 20
-25.013254901494509
 30
0.0
 42
0.4027293761437539
  0
VERTEX
  5
15AE
  8
SAPA_FOGBAND
 10
-35.499999999010697
 20
-24.713487347896489
 30
0.0
  0
VERTEX
  5
15AF
  8
SAPA_FOGBAND
 10
-35.499999999006043
 20
-23.80132718451409
 30
0.0
  0
SEQEND
  5
15B0
  8
SAPA_FOGBAND
  0
CIRCLE
  5
D5E
  8
SAPA_FOGBAND
 10
-101.02846685535989
 20
-18.629356795613131
 30
0.0
 40
0.2549509756796394
  0
POLYLINE
  5
D5F
  8
SAPA_FOGBAND
 66
     1
 10
0.0
 20
0.0
 30
0.0
 70
     1
  0
VERTEX
  5
15B1
  8
SAPA_FOGBAND
 10
-103.59999999901081
 20
-17.729356795613029
 30
0.0
 42
-0.9999999999999998
  0
VERTEX
  5
15B2
  8
SAPA_FOGBAND
 10
-103.59999999901081
 20
-19.529356795612991
 30
0.0
  0
VERTEX
  5
15B3
  8
SAPA_FOGBAND
 10
-104.1999999990108
 20
-19.529356795612991
 30
0.0
 42
-0.9999999999999998
  0
VERTEX
  5
15B4
  8
SAPA_FOGBAND
 10
-104.1999999990108
 20
-17.729356795613029
 30
0.0
  0
SEQEND
  5
15B5
  8
SAPA_FOGBAND
  0
POLYLINE
  5
D60
  8
SAPA_FOGBAND
 66
     1
 10
0.0
 20
0.0
 30
0.0
 70
     1
  0
VERTEX
  5
15B6
  8
SAPA_FOGBAND
 10
-100.16422870385961
 20
-14.37935679561312
 30
0.0
  0
VERTEX
  5
15B7
  8
SAPA_FOGBAND
 10
-102.29999999901069
 20
-14.3793567956129
 30
0.0
 42
0.4142135623730951
  0
VERTEX
  5
15B8
  8
SAPA_FOGBAND
 10
-102.4999999990108
 20
-14.57935679561294
 30
0.0
  0
VERTEX
  5
15B9
  8
SAPA_FOGBAND
 10
-102.4999999990108
 20
-16.629356795613131
 30
0.0
 42
-0.4142135623730951
  0
VERTEX
  5
15BA
  8
SAPA_FOGBAND
 10
-102.9999999990108
 20
-17.129356795613131
 30
0.0
  0
VERTEX
  5
15BB
  8
SAPA_FOGBAND
 10
-103.726794918254
 20
-17.129356795613131
 30
0.0
  0
VERTEX
  5
15BC
  8
SAPA_FOGBAND
 10
-103.7942548275643
 20
-16.877592986592589
 30
0.0
 42
0.4740571810232154
  0
VERTEX
  5
15BD
  8
SAPA_FOGBAND
 10
-104.076537413203
 20
-16.750299124229031
 30
0.0
  0
VERTEX
  5
15BE
  8
SAPA_FOGBAND
 10
-105.5227435499628
 20
-17.37039962698757
 30
0.0
 42
0.2846003776496056
  0
VERTEX
  5
15BF
  8
SAPA_FOGBAND
 10
-105.79999999901069
 20
-17.81804380544779
 30
0.0
  0
VERTEX
  5
15C0
  8
SAPA_FOGBAND
 10
-105.79999999901069
 20
-19.44066978577823
 30
0.0
 42
0.2846003776496054
  0
VERTEX
  5
15C1
  8
SAPA_FOGBAND
 10
-105.5227435499628
 20
-19.888313964238449
 30
0.0
  0
VERTEX
  5
15C2
  8
SAPA_FOGBAND
 10
-104.076537413203
 20
-20.508414466996989
 30
0.0
 42
0.4740571810232154
  0
VERTEX
  5
15C3
  8
SAPA_FOGBAND
 10
-103.7942548275643
 20
-20.381120604633431
 30
0.0
  0
VERTEX
  5
15C4
  8
SAPA_FOGBAND
 10
-103.726794918254
 20
-20.12935679561312
 30
0.0
  0
VERTEX
  5
15C5
  8
SAPA_FOGBAND
 10
-102.9999999990108
 20
-20.129356795613131
 30
0.0
 42
-0.4142135623730951
  0
VERTEX
  5
15C6
  8
SAPA_FOGBAND
 10
-102.4999999990108
 20
-20.629356795613131
 30
0.0
  0
VERTEX
  5
15C7
  8
SAPA_FOGBAND
 10
-102.4999999990108
 20
-23.679356795613081
 30
0.0
 42
-0.4142135623730951
  0
VERTEX
  5
15C8
  8
SAPA_FOGBAND
 10
-102.6999999990108
 20
-23.879356795613131
 30
0.0
  0
VERTEX
  5
15C9
  8
SAPA_FOGBAND
 10
-103.59999999901081
 20
-23.8793567956129
 30
0.0
 42
0.4142135623730951
  0
VERTEX
  5
15CA
  8
SAPA_FOGBAND
 10
-103.79999999901069
 20
-24.079356795612942
 30
0.0
  0
VERTEX
  5
15CB
  8
SAPA_FOGBAND
 10
-103.79999999901089
 20
-24.779356795612991
 30
0.0
 42
0.4142135623730951
  0
VERTEX
  5
15CC
  8
SAPA_FOGBAND
 10
-103.4999999990108
 20
-25.079356795612942
 30
0.0
  0
VERTEX
  5
15CD
  8
SAPA_FOGBAND
 10
-102.6894882223593
 20
-25.079356795612942
 30
0.0
 42
-0.1316524975873982
  0
VERTEX
  5
15CE
  8
SAPA_FOGBAND
 10
-101.6894882223593
 20
-25.347305988044109
 30
0.0
  0
VERTEX
  5
15CF
  8
SAPA_FOGBAND
 10
-99.054121304015098
 20
-29.31801852514625
 30
0.0
 42
0.876976462992761
  0
VERTEX
  5
15D0
  8
SAPA_FOGBAND
 10
-98.536779967898624
 20
-29.215112935235972
 30
0.0
  0
VERTEX
  5
15D1
  8
SAPA_FOGBAND
 10
-99.09062476444285
 20
-23.790451373363769
 30
0.0
 42
-0.1353185728426623
  0
VERTEX
  5
15D2
  8
SAPA_FOGBAND
 10
-99.09062476444285
 20
-23.790451373363769
 30
0.0
  0
VERTEX
  5
15D3
  8
SAPA_FOGBAND
 10
-98.678588072042658
 20
-23.55256188053497
 30
0.0
 42
0.5773502691896196
  0
VERTEX
  5
15D4
  8
SAPA_FOGBAND
 10
-98.678588072042658
 20
-23.206151719021118
 30
0.0
  0
VERTEX
  5
15D5
  8
SAPA_FOGBAND
 10
-99.090898634604514
 20
-22.968104102290209
 30
0.0
  0
VERTEX
  5
15D6
  8
SAPA_FOGBAND
 10
-99.090898634604514
 20
-22.190609492373571
 30
0.0
  0
VERTEX
  5
15D7
  8
SAPA_FOGBAND
 10
-98.678588072042658
 20
-21.952561880534841
 30
0.0
 42
0.5773502691896196
  0
VERTEX
  5
15D8
  8
SAPA_FOGBAND
 10
-98.678588072042658
 20
-21.606151719021199
 30
0.0
  0
VERTEX
  5
15D9
  8
SAPA_FOGBAND
 10
-99.090898634604514
 20
-21.368104102290289
 30
0.0
  0
VERTEX
  5
15DA
  8
SAPA_FOGBAND
 10
-99.090898634604514
 20
-20.59060949237367
 30
0.0
  0
VERTEX
  5
15DB
  8
SAPA_FOGBAND
 10
-98.678588072042658
 20
-20.352561880534932
 30
0.0
 42
0.5773502691896196
  0
VERTEX
  5
15DC
  8
SAPA_FOGBAND
 10
-98.678588072042658
 20
-20.006151719021069
 30
0.0
  0
VERTEX
  5
15DD
  8
SAPA_FOGBAND
 10
-99.090898634604514
 20
-19.76810410229038
 30
0.0
  0
VERTEX
  5
15DE
  8
SAPA_FOGBAND
 10
-99.090898634604514
 20
-18.99060949237353
 30
0.0
  0
VERTEX
  5
15DF
  8
SAPA_FOGBAND
 10
-98.678588072042658
 20
-18.752561880535019
 30
0.0
 42
0.5773502691896196
  0
VERTEX
  5
15E0
  8
SAPA_FOGBAND
 10
-98.678588072042658
 20
-18.40615171902116
 30
0.0
  0
VERTEX
  5
15E1
  8
SAPA_FOGBAND
 10
-99.090898634604514
 20
-18.168104102290251
 30
0.0
  0
VERTEX
  5
15E2
  8
SAPA_FOGBAND
 10
-99.090898634604514
 20
-17.390609492373621
 30
0.0
  0
VERTEX
  5
15E3
  8
SAPA_FOGBAND
 10
-98.678588072042658
 20
-17.152561880534879
 30
0.0
 42
0.5773502691896196
  0
VERTEX
  5
15E4
  8
SAPA_FOGBAND
 10
-98.678588072042658
 20
-16.80615171902102
 30
0.0
  0
VERTEX
  5
15E5
  8
SAPA_FOGBAND
 10
-99.090898634604514
 20
-16.568104102290341
 30
0.0
  0
VERTEX
  5
15E6
  8
SAPA_FOGBAND
 10
-99.090898634604514
 20
-15.79060948820868
 30
0.0
  0
VERTEX
  5
15E7
  8
SAPA_FOGBAND
 10
-98.678588072042658
 20
-15.552561876369939
 30
0.0
 42
0.5773502691896196
  0
VERTEX
  5
15E8
  8
SAPA_FOGBAND
 10
-98.678588072042658
 20
-15.20615171485608
 30
0.0
  0
VERTEX
  5
15E9
  8
SAPA_FOGBAND
 10
-100.0642287030889
 20
-14.4061517153011
 30
0.0
 42
0.1316524987190407
  0
SEQEND
  5
15EA
  8
SAPA_FOGBAND
  0
INSERT
  5
D61
  8
SAPA_FOGBAND
  6
CONTINUOUS
  2
*U43
 10
0.0
 20
0.0
 30
0.0
1001
ACAD
1002
{
1000
R14_HATCH_DATA
1000
D61
1011
1.0
1021
0.0
1031
0.0
1021
0.0
1031
0.0
1011
0.0
1021
0.0
1031
0.0
1021
1.0
1031
0.0
1011
0.0
1021
0.0
1031
0.0
1021
0.0
1031
1.0
1040
0.0
1010
0.0
1020
0.0
1030
1.0
1000
SOLID
1070
     1
1070
     1
1071
        1
1071
        1
1071
        1
1070
     2
1040
-101.02846685535989
1040
-18.629356795613131
1040
0.2549509756796394
1040
-1.5707963267948959
1040
4.7123889803846888
1070
     0
1071
        1
1005
D5E
1070
     0
1070
     1
1071
        1
1040
-100.946615358031
1040
-18.86609569718323
1040
0.0
1002
}
  0
VIEWPORT
  5
C4
 67
     1
  8
0
 10
160.5543545598442
 20
116.00969601843509
 30
0.0
 40
404.96977709277462
 41
256.8421457311839
 68
     1
 69
     1
1001
ACAD
1000
MVIEW
1002
{
1070
    16
1010
0.0
1020
0.0
1030
0.0
1010
0.0
1020
0.0
1030
1.0
1040
-1.5707963267948959
1040
256.8421457311839
1040
102.1562485694885
1040
-121.90624046325679
1040
50.0
1040
0.0
1040
0.0
1070
     0
1070
     0
1070
     1
1070
     1
1070
     0
1070
     0
1070
     0
1070
     0
1040
0.0
1040
0.0
1040
0.0
1040
10.0
1040
10.0
1040
10.0
1040
10.0
1070
     0
1002
{
1002
}
1002
}
  0
ENDSEC
  0
EOF
