  0
SECTION
  2
HEADER
  9
$ACADVER
  1
AC1009
  9
$INSBASE
 10
0.0
 20
0.0
 30
0.0
  9
$EXTMIN
 10
-7.8728878068485129
 20
-14.18047314799184
 30
0.0
  9
$EXTMAX
 10
115.1574056910533
 20
255.37598493116889
 30
0.0
  9
$LIMMIN
 10
0.0
 20
0.0
  9
$LIMMAX
 10
790.0
 20
790.0
  9
$ORTHOMODE
 70
     1
  9
$REGENMODE
 70
     1
  9
$FILLMODE
 70
     1
  9
$QTEXTMODE
 70
     0
  9
$MIRRTEXT
 70
     1
  9
$DRAGMODE
 70
     2
  9
$LTSCALE
 40
4.0
  9
$OSMODE
 70
   167
  9
$ATTMODE
 70
     1
  9
$TEXTSIZE
 40
3.5
  9
$TRACEWID
 40
0.05
  9
$TEXTSTYLE
  7
ISO
  9
$CLAYER
  8
0
  9
$CELTYPE
  6
BYLAYER
  9
$CECOLOR
 62
   256
  9
$DIMSCALE
 40
0.0
  9
$DIMASZ
 40
3.0
  9
$DIMEXO
 40
1.5
  9
$DIMDLI
 40
10.0
  9
$DIMRND
 40
0.0
  9
$DIMDLE
 40
0.0
  9
$DIMEXE
 40
1.5
  9
$DIMTP
 40
0.0
  9
$DIMTM
 40
0.0
  9
$DIMTXT
 40
3.0
  9
$DIMCEN
 40
-5.0
  9
$DIMTSZ
 40
0.0
  9
$DIMTOL
 70
     0
  9
$DIMLIM
 70
     0
  9
$DIMTIH
 70
     0
  9
$DIMTOH
 70
     0
  9
$DIMSE1
 70
     0
  9
$DIMSE2
 70
     0
  9
$DIMTAD
 70
     1
  9
$DIMZIN
 70
     8
  9
$DIMBLK
  1

  9
$DIMASO
 70
     1
  9
$DIMSHO
 70
     1
  9
$DIMPOST
  1

  9
$DIMAPOST
  1

  9
$DIMALT
 70
     0
  9
$DIMALTD
 70
     0
  9
$DIMALTF
 40
25.399999999999999
  9
$DIMLFAC
 40
-1.0
  9
$DIMTOFL
 70
     1
  9
$DIMTVP
 40
0.0
  9
$DIMTIX
 70
     0
  9
$DIMSOXD
 70
     0
  9
$DIMSAH
 70
     0
  9
$DIMBLK1
  1

  9
$DIMBLK2
  1

  9
$DIMSTYLE
  2
MASKIN
  9
$DIMCLRD
 70
   256
  9
$DIMCLRE
 70
   256
  9
$DIMCLRT
 70
     2
  9
$DIMTFAC
 40
1.0
  9
$DIMGAP
 40
1.0
  9
$LUNITS
 70
     2
  9
$LUPREC
 70
     8
  9
$SKETCHINC
 40
0.1
  9
$FILLETRAD
 40
0.0
  9
$AUNITS
 70
     0
  9
$AUPREC
 70
     8
  9
$MENU
  1
ACAD
  9
$ELEVATION
 40
0.0
  9
$PELEVATION
 40
0.0
  9
$THICKNESS
 40
0.0
  9
$LIMCHECK
 70
     0
  9
$BLIPMODE
 70
     0
  9
$CHAMFERA
 40
0.0
  9
$CHAMFERB
 40
0.0
  9
$SKPOLY
 70
     0
  9
$TDCREATE
 40
2457436.6627717591
  9
$TDUPDATE
 40
2457498.358422535
  9
$TDINDWG
 40
0.003407581
  9
$TDUSRTIMER
 40
0.0034074074
  9
$USRTIMER
 70
     1
  9
$ANGBASE
 50
0.0
  9
$ANGDIR
 70
     0
  9
$PDMODE
 70
     0
  9
$PDSIZE
 40
0.0
  9
$PLINEWID
 40
0.0
  9
$COORDS
 70
     1
  9
$SPLFRAME
 70
     0
  9
$SPLINETYPE
 70
     6
  9
$SPLINESEGS
 70
     8
  9
$ATTDIA
 70
     0
  9
$ATTREQ
 70
     1
  9
$HANDLING
 70
     1
  9
$HANDSEED
  5
1726
  9
$SURFTAB1
 70
     6
  9
$SURFTAB2
 70
     6
  9
$SURFTYPE
 70
     6
  9
$SURFU
 70
     6
  9
$SURFV
 70
     6
  9
$UCSNAME
  2

  9
$UCSORG
 10
0.0
 20
0.0
 30
0.0
  9
$UCSXDIR
 10
1.0
 20
0.0
 30
0.0
  9
$UCSYDIR
 10
0.0
 20
1.0
 30
0.0
  9
$PUCSNAME
  2

  9
$PUCSORG
 10
0.0
 20
0.0
 30
0.0
  9
$PUCSXDIR
 10
1.0
 20
0.0
 30
0.0
  9
$PUCSYDIR
 10
0.0
 20
1.0
 30
0.0
  9
$USERI1
 70
     0
  9
$USERI2
 70
     0
  9
$USERI3
 70
     0
  9
$USERI4
 70
     0
  9
$USERI5
 70
     0
  9
$USERR1
 40
0.0
  9
$USERR2
 40
0.0
  9
$USERR3
 40
0.0
  9
$USERR4
 40
0.0
  9
$USERR5
 40
0.0
  9
$WORLDVIEW
 70
     1
  9
$SHADEDGE
 70
     3
  9
$SHADEDIF
 70
    70
  9
$TILEMODE
 70
     1
  9
$MAXACTVP
 70
    16
  9
$PLIMCHECK
 70
     0
  9
$PEXTMIN
 10
1.0000000000000000E+020
 20
1.0000000000000000E+020
 30
1.0000000000000000E+020
  9
$PEXTMAX
 10
-1.0000000000000000E+020
 20
-1.0000000000000000E+020
 30
-1.0000000000000000E+020
  9
$PLIMMIN
 10
-5.069427490234375
 20
-5.8737497329711914
  9
$PLIMMAX
 10
291.89889526367187
 20
204.0995779037475
  9
$UNITMODE
 70
     0
  9
$VISRETAIN
 70
     1
  9
$PLINEGEN
 70
     0
  9
$PSLTSCALE
 70
     1
  0
ENDSEC
  0
SECTION
  2
TABLES
  0
TABLE
  2
VPORT
 70
     1
  0
VPORT
  2
*ACTIVE
 70
     0
 10
0.0
 20
0.0
 11
1.0
 21
1.0
 12
132.86817226481469
 22
209.50565649192791
 13
0.0
 23
0.0
 14
1.0
 24
1.0
 15
0.0
 25
0.0
 16
0.0
 26
0.0
 36
1.0
 17
0.0
 27
0.0
 37
0.0
 40
342.29239800420481
 41
1.9285714285714279
 42
50.0
 43
0.0
 44
0.0
 50
0.0
 51
0.0
 71
     0
 72
   100
 73
     1
 74
     1
 75
     0
 76
     0
 77
     0
 78
     0
  0
ENDTAB
  0
TABLE
  2
LTYPE
 70
    33
  0
LTYPE
  2
CONTINUOUS
 70
     0
  3
Solid line
 72
    65
 73
     0
 40
0.0
  0
LTYPE
  2
NEWDOT
 70
     0
  3
____ . ____ . ____ . ____ . ____ . ____ . ____
 72
    65
 73
     4
 40
2.0
 49
1.0
 49
-0.5
 49
0.0
 49
-0.5
  0
LTYPE
  2
DASHDOT
 70
     0
  3
__ . __ . __ . __ . __ . __ . __ . __ . __ . __
 72
    65
 73
     4
 40
1.0
 49
0.5
 49
-0.25
 49
0.0
 49
-0.25
  0
LTYPE
  2
DASHED
 70
     0
  3
__ __ __ __ __ __ __ __ __ __ __ __ __ __ __
 72
    65
 73
     2
 40
0.75
 49
0.5
 49
-0.25
  0
LTYPE
  2
PHANTOM
 70
     0
  3
Phantom ______  __  __  ______  __  __  ______
 72
    65
 73
     6
 40
63.5
 49
31.75
 49
-6.3499999999999988
 49
6.3499999999999988
 49
-6.3499999999999988
 49
6.3499999999999988
 49
-6.3499999999999988
  0
LTYPE
  2
BYGG-014279$0$NEWDOT
 70
     0
  3
____ . ____ . ____ . ____ . ____ . ____ . ____
 72
    65
 73
     4
 40
2.0
 49
1.0
 49
-0.5
 49
0.0
 49
-0.5
  0
LTYPE
  2
BYGG-014279$0$ZIGZAG
 70
     0
  3
Zig zag /\/\/\/\/\/\/\/\/\/\/\/\/\/\/\/\/\/\/\/\/\/\/\/
 72
    65
 73
     4
 40
20.32254
 49
0.00254
 49
-5.0800000000000001
 49
-10.16
 49
-5.0800000000000001
  0
LTYPE
  2
BYGG-01482301$0$NEWDOT
 70
     0
  3
____ . ____ . ____ . ____ . ____ . ____ . ____
 72
    65
 73
     4
 40
2.0
 49
1.0
 49
-0.5
 49
0.0
 49
-0.5
  0
LTYPE
  2
BYGG-01482301$0$ZIGZAG
 70
     0
  3
Zig zag /\/\/\/\/\/\/\/\/\/\/\/\/\/\/\/\/\/\/\/\/\/\/\/
 72
    65
 73
     4
 40
20.32254
 49
0.00254
 49
-5.0800000000000001
 49
-10.16
 49
-5.0800000000000001
  0
LTYPE
  2
BYGG-021480$0$NEWDOT
 70
     0
  3
____ . ____ . ____ . ____ . ____ . ____ . ____
 72
    65
 73
     4
 40
2.0
 49
1.0
 49
-0.5
 49
0.0
 49
-0.5
  0
LTYPE
  2
BYGG-021480$0$DASHDOT
 70
     0
  3
__ . __ . __ . __ . __ . __ . __ . __ . __ . __
 72
    65
 73
     4
 40
1.0
 49
0.5
 49
-0.25
 49
0.0
 49
-0.25
  0
LTYPE
  2
BYGG-021480$0$DASHED
 70
     0
  3
__ __ __ __ __ __ __ __ __ __ __ __ __ __ __
 72
    65
 73
     2
 40
0.75
 49
0.5
 49
-0.25
  0
LTYPE
  2
BYGG-021480$0$PHANTOM
 70
     0
  3
Phantom ______  __  __  ______  __  __  ______
 72
    65
 73
     6
 40
63.5
 49
31.75
 49
-6.3499999999999988
 49
6.3499999999999988
 49
-6.3499999999999988
 49
6.3499999999999988
 49
-6.3499999999999988
  0
LTYPE
  2
BYGG-035293$0$NEWDOT
 70
     0
  3
____ . ____ . ____ . ____ . ____ . ____ . ____
 72
    65
 73
     4
 40
2.0
 49
1.0
 49
-0.5
 49
0.0
 49
-0.5
  0
LTYPE
  2
BYGG-035293$0$DASHDOT
 70
     0
  3
__ . __ . __ . __ . __ . __ . __ . __ . __ . __
 72
    65
 73
     4
 40
1.0
 49
0.5
 49
-0.25
 49
0.0
 49
-0.25
  0
LTYPE
  2
BYGG-035293$0$DASHED
 70
     0
  3
__ __ __ __ __ __ __ __ __ __ __ __ __ __ __
 72
    65
 73
     2
 40
0.75
 49
0.5
 49
-0.25
  0
LTYPE
  2
BYGG-035293$0$PHANTOM
 70
     0
  3
Phantom ______  __  __  ______  __  __  ______
 72
    65
 73
     6
 40
63.5
 49
31.75
 49
-6.3499999999999988
 49
6.3499999999999988
 49
-6.3499999999999988
 49
6.3499999999999988
 49
-6.3499999999999988
  0
LTYPE
  2
BYGG-020805$0$NEWDOT
 70
     0
  3
____ . ____ . ____ . ____ . ____ . ____ . ____
 72
    65
 73
     4
 40
2.0
 49
1.0
 49
-0.5
 49
0.0
 49
-0.5
  0
LTYPE
  2
BYGG-020805$0$DASHDOT
 70
     0
  3
__ . __ . __ . __ . __ . __ . __ . __ . __ . __
 72
    65
 73
     4
 40
1.0
 49
0.5
 49
-0.25
 49
0.0
 49
-0.25
  0
LTYPE
  2
BYGG-020805$0$DASHED
 70
     0
  3
__ __ __ __ __ __ __ __ __ __ __ __ __ __ __
 72
    65
 73
     2
 40
0.75
 49
0.5
 49
-0.25
  0
LTYPE
  2
BYGG-020805$0$PHANTOM
 70
     0
  3
Phantom ______  __  __  ______  __  __  ______
 72
    65
 73
     6
 40
63.5
 49
31.75
 49
-6.3499999999999988
 49
6.3499999999999988
 49
-6.3499999999999988
 49
6.3499999999999988
 49
-6.3499999999999988
  0
LTYPE
  2
BYGG-023714$0$NEWDOT
 70
     0
  3
____ . ____ . ____ . ____ . ____ . ____ . ____
 72
    65
 73
     4
 40
2.0
 49
1.0
 49
-0.5
 49
0.0
 49
-0.5
  0
LTYPE
  2
BYGG-023714$0$DASHDOT
 70
     0
  3
__ . __ . __ . __ . __ . __ . __ . __ . __ . __
 72
    65
 73
     4
 40
1.0
 49
0.5
 49
-0.25
 49
0.0
 49
-0.25
  0
LTYPE
  2
BYGG-023714$0$DASHED
 70
     0
  3
__ __ __ __ __ __ __ __ __ __ __ __ __ __ __
 72
    65
 73
     2
 40
0.75
 49
0.5
 49
-0.25
  0
LTYPE
  2
BYGG-023714$0$PHANTOM
 70
     0
  3
Phantom ______  __  __  ______  __  __  ______
 72
    65
 73
     6
 40
63.5
 49
31.75
 49
-6.3499999999999988
 49
6.3499999999999988
 49
-6.3499999999999988
 49
6.3499999999999988
 49
-6.3499999999999988
  0
LTYPE
  2
BYGG-023714$0$ZIGZAG
 70
     0
  3
Zig zag /\/\/\/\/\/\/\/\/\/\/\/\/\/\/\/\/\/\/\/\/\/\/\/
 72
    65
 73
     4
 40
20.32254
 49
0.00254
 49
-5.0800000000000001
 49
-10.16
 49
-5.0800000000000001
  0
LTYPE
  2
BYGG-025115$0$NEWDOT
 70
     0
  3
____ . ____ . ____ . ____ . ____ . ____ . ____
 72
    65
 73
     4
 40
2.0
 49
1.0
 49
-0.5
 49
0.0
 49
-0.5
  0
LTYPE
  2
BYGG-025115$0$DASHDOT
 70
     0
  3
__ . __ . __ . __ . __ . __ . __ . __ . __ . __
 72
    65
 73
     4
 40
1.0
 49
0.5
 49
-0.25
 49
0.0
 49
-0.25
  0
LTYPE
  2
BYGG-025115$0$DASHED
 70
     0
  3
__ __ __ __ __ __ __ __ __ __ __ __ __ __ __
 72
    65
 73
     2
 40
0.75
 49
0.5
 49
-0.25
  0
LTYPE
  2
BYGG-025115$0$PHANTOM
 70
     0
  3
Phantom ______  __  __  ______  __  __  ______
 72
    65
 73
     6
 40
63.5
 49
31.75
 49
-6.3499999999999988
 49
6.3499999999999988
 49
-6.3499999999999988
 49
6.3499999999999988
 49
-6.3499999999999988
  0
LTYPE
  2
BYGG-014306$0$PHANTOM2
 70
     0
  3
Phantom (.5x) ___ _ _ ___ _ _ ___ _ _ ___ _ _
 72
    65
 73
     6
 40
1.25
 49
0.625
 49
-0.125
 49
0.125
 49
-0.125
 49
0.125
 49
-0.125
  0
LTYPE
  2
BYGG-014279$0$PHANTOM2
 70
     0
  3
Phantom (.5x) ___ _ _ ___ _ _ ___ _ _ ___ _ _
 72
    65
 73
     6
 40
1.25
 49
0.625
 49
-0.125
 49
0.125
 49
-0.125
 49
0.125
 49
-0.125
  0
LTYPE
  2
BYGG-035294$0$PHANTOM2
 70
     0
  3
Phantom (.5x) ___ _ _ ___ _ _ ___ _ _ ___ _ _
 72
    65
 73
     6
 40
1.25
 49
0.625
 49
-0.125
 49
0.125
 49
-0.125
 49
0.125
 49
-0.125
  0
ENDTAB
  0
TABLE
  2
LAYER
 70
   183
  0
LAYER
  2
0
 70
     0
 62
     7
  6
CONTINUOUS
  0
LAYER
  2
SAPA_FYLLNING
 70
     0
 62
     4
  6
CONTINUOUS
  0
LAYER
  2
SAPA_ANSLUTNING
 70
     0
 62
     6
  6
CONTINUOUS
  0
LAYER
  2
SAPA_PROFIL
 70
     0
 62
     7
  6
CONTINUOUS
  0
LAYER
  2
SAPA_ISOLATOR
 70
     0
 62
     4
  6
CONTINUOUS
  0
LAYER
  2
SAPA_FOGBAND
 70
     0
 62
     2
  6
CONTINUOUS
  0
ENDTAB
  0
TABLE
  2
STYLE
 70
    30
  0
STYLE
  2
STANDARD
 70
     0
 40
0.0
 41
1.0
 50
0.0
 71
     0
 42
0.2
  3
txt
  4

  0
STYLE
  2
ISO
 70
     0
 40
0.0
 41
1.0
 50
0.0
 71
     0
 42
3.5
  3
txt
  4

  0
STYLE
  2

 70
     1
 40
0.0
 41
1.0
 50
0.0
 71
     0
 42
0.2
  3
ltypeshp.shx
  4

  0
STYLE
  2
BYGG-022681$0$STANDARD
 70
     0
 40
0.0
 41
1.0
 50
0.0
 71
     0
 42
0.2
  3
txt
  4

  0
STYLE
  2
BYGG-022681$0$ISO
 70
     0
 40
0.0
 41
1.0
 50
0.0
 71
     0
 42
3.5
  3
txt
  4

  0
STYLE
  2
BYGG-014306$0$STANDARD
 70
     0
 40
0.0
 41
1.0
 50
0.0
 71
     0
 42
0.2
  3
txt
  4

  0
STYLE
  2
BYGG-021582$0$STANDARD
 70
     0
 40
0.0
 41
1.0
 50
0.0
 71
     0
 42
0.2
  3
txt
  4

  0
STYLE
  2
BYGG-021582$0$ISO
 70
     0
 40
0.0
 41
1.0
 50
0.0
 71
     0
 42
3.5
  3
isocp3.shx
  4

  0
STYLE
  2
BYGG-014279$0$STANDARD
 70
     0
 40
0.0
 41
1.0
 50
0.0
 71
     0
 42
0.2
  3
TXT.shx
  4

  0
STYLE
  2
BYGG-014279$0$ISO
 70
     0
 40
0.0
 41
1.0
 50
0.0
 71
     0
 42
3.5
  3
iso
  4

  0
STYLE
  2
BYGG-021667$0$STANDARD
 70
     0
 40
0.0
 41
1.0
 50
0.0
 71
     0
 42
0.2
  3
txt
  4

  0
STYLE
  2
BYGG-021667$0$ISO
 70
     0
 40
0.0
 41
1.0
 50
0.0
 71
     0
 42
3.5
  3
isocp3.shx
  4

  0
STYLE
  2
BYGG-01482301$0$STANDARD
 70
     0
 40
0.0
 41
1.0
 50
0.0
 71
     0
 42
0.2
  3
txt
  4

  0
STYLE
  2
BYGG-01482301$0$ISO
 70
     0
 40
0.0
 41
1.0
 50
0.0
 71
     0
 42
3.5
  3
isocp3.shx
  4

  0
STYLE
  2
BYGG-035294$0$STANDARD
 70
     0
 40
0.0
 41
1.0
 50
0.0
 71
     0
 42
0.2
  3
txt
  4

  0
STYLE
  2
BYGG-035294$0$ISO
 70
     0
 40
0.0
 41
1.0
 50
0.0
 71
     0
 42
3.5
  3
txt
  4

  0
STYLE
  2
BYGG-035294$0$ANNOTATIVE
 70
     0
 40
0.0
 41
1.0
 50
0.0
 71
     0
 42
0.2
  3
txt
  4

  0
STYLE
  2
BYGG-021480$0$STANDARD
 70
     0
 40
0.0
 41
1.0
 50
0.0
 71
     0
 42
0.2
  3
txt
  4

  0
STYLE
  2
BYGG-021480$0$ISO
 70
     0
 40
0.0
 41
1.0
 50
0.0
 71
     0
 42
3.5
  3
txt
  4

  0
STYLE
  2
BYGG-021480$0$ROMANS
 70
     0
 40
0.0
 41
1.0
 50
0.0
 71
     0
 42
3.5
  3
romans.shx
  4

  0
STYLE
  2
BYGG-035293$0$STANDARD
 70
     0
 40
0.0
 41
1.0
 50
0.0
 71
     0
 42
0.2
  3
txt
  4

  0
STYLE
  2
BYGG-035293$0$ISO
 70
     0
 40
0.0
 41
1.0
 50
0.0
 71
     0
 42
3.5
  3
txt
  4

  0
STYLE
  2
BYGG-014117$0$STANDARD
 70
     0
 40
0.0
 41
1.0
 50
0.0
 71
     0
 42
0.2
  3
txt
  4

  0
STYLE
  2
BYGG-014117$0$ISO
 70
     0
 40
0.0
 41
1.0
 50
0.0
 71
     0
 42
3.5
  3
isocp3.shx
  4

  0
STYLE
  2
BYGG-023714$0$STANDARD
 70
     0
 40
0.0
 41
1.0
 50
0.0
 71
     0
 42
0.2
  3
txt
  4

  0
STYLE
  2
BYGG-023714$0$ISO
 70
     0
 40
0.0
 41
1.0
 50
0.0
 71
     0
 42
3.5
  3
txt
  4

  0
STYLE
  2
BYGG-020805$0$STANDARD
 70
     0
 40
0.0
 41
1.0
 50
0.0
 71
     0
 42
0.2
  3
txt
  4

  0
STYLE
  2
BYGG-020805$0$ISO
 70
     0
 40
0.0
 41
1.0
 50
0.0
 71
     0
 42
3.5
  3
txt
  4

  0
STYLE
  2
BYGG-025115$0$STANDARD
 70
     0
 40
0.0
 41
1.0
 50
0.0
 71
     0
 42
0.2
  3
txt
  4

  0
STYLE
  2
BYGG-025115$0$ISO
 70
     0
 40
0.0
 41
1.0
 50
0.0
 71
     0
 42
3.5
  3
txt
  4

  0
ENDTAB
  0
TABLE
  2
VIEW
 70
     0
  0
ENDTAB
  0
TABLE
  2
UCS
 70
     0
  0
ENDTAB
  0
TABLE
  2
APPID
 70
    27
  0
APPID
  2
ACAD
 70
     0
  0
APPID
  2
ACAD_DSTYLE_DIMTEXT_FILL
 70
     0
  0
APPID
  2
ACAD_DSTYLE_DIMEXT_LENGTH
 70
     0
  0
APPID
  2
ACAD_DSTYLE_DIMEXT_ENABLED
 70
     0
  0
APPID
  2
ACAD_DSTYLE_DIM_LINETYPE
 70
     0
  0
APPID
  2
ACAD_DSTYLE_DIM_EXT1_LINETYPE
 70
     0
  0
APPID
  2
ACAD_DSTYLE_DIM_EXT2_LINETYPE
 70
     0
  0
APPID
  2
ACAD_DSTYLE_DIMJOGGED_JOGA
 70
     0
  0
APPID
  2
ACAD_DSTYLE_DIMARC_LENGTH_
 70
     0
  0
APPID
  2
ACAD_PSEXT
 70
     0
  0
APPID
  2
ACAD_MLEADERVER
 70
     0
  0
APPID
  2
ACAD_NAV_VCDISPLAY
 70
     0
  0
APPID
  2
ACAECLAYERSTANDARD
 70
     0
  0
APPID
  2
AMG_ARCHIVE11
 70
     0
  0
APPID
  2
ACADANNOTATIVE
 70
     0
  0
APPID
  2
ACAD_EXEMPT_FROM_CAD_STANDARDS
 70
     0
  0
APPID
  2
DCO15
 70
     0
  0
APPID
  2
ACAD_DSTYLE_DIMJAG
 70
     0
  0
APPID
  2
ACAD_DSTYLE_DIMBREAK
 70
     0
  0
APPID
  2
ACAD_DSTYLE_DIMTALN
 70
     0
  0
APPID
  2
ACDBDYNAMICBLOCKGUID
 70
     0
  0
APPID
  2
ACDBBLOCKREPETAG
 70
     0
  0
APPID
  2
AME_SOL
 70
     0
  0
APPID
  2
ACCMTRANSPARENCY
 70
     0
  0
APPID
  2
ACAUTHENVIRON
 70
     0
  0
APPID
  2
ACDBDYNAMICBLOCKTRUENAME
 70
     0
  0
APPID
  2
AEC_XDATA_BOUND_SPACE
 70
     0
  0
ENDTAB
  0
TABLE
  2
DIMSTYLE
 70
    26
  0
DIMSTYLE
  2
STANDARD
 70
     0
  3

  4

  5

  6

  7

 40
1.0
 41
0.18
 42
0.0625
 43
0.38
 44
0.18
 45
0.0
 46
0.0
 47
0.0
 48
0.0
140
0.18
141
0.09
142
0.0
143
25.399999999999999
144
1.0
145
0.0
146
1.0
147
0.09
 71
     0
 72
     0
 73
     1
 74
     1
 75
     0
 76
     0
 77
     0
 78
     0
170
     0
171
     2
172
     0
173
     0
174
     0
175
     0
176
     0
177
     0
178
     0
  0
DIMSTYLE
  2
MASKIN
 70
     0
  3

  4

  5

  6

  7

 40
0.0
 41
3.0
 42
1.5
 43
10.0
 44
1.5
 45
0.0
 46
0.0
 47
0.0
 48
0.0
140
3.0
141
-5.0
142
0.0
143
25.399999999999999
144
-1.0
145
0.0
146
1.0
147
1.0
 71
     0
 72
     0
 73
     0
 74
     0
 75
     0
 76
     0
 77
     1
 78
     8
170
     0
171
     0
172
     1
173
     0
174
     0
175
     0
176
   256
177
   256
178
     2
  0
DIMSTYLE
  2
BYGG-022681$0$STANDARD
 70
     0
  3

  4

  5

  6

  7

 40
1.0
 41
0.18
 42
0.0625
 43
0.38
 44
0.18
 45
0.0
 46
0.0
 47
0.0
 48
0.0
140
0.18
141
0.09
142
0.0
143
25.399999999999999
144
1.0
145
0.0
146
1.0
147
0.09
 71
     0
 72
     0
 73
     1
 74
     1
 75
     0
 76
     0
 77
     0
 78
     0
170
     0
171
     2
172
     0
173
     0
174
     0
175
     0
176
     0
177
     0
178
     0
  0
DIMSTYLE
  2
BYGG-022681$0$MASKIN
 70
     0
  3

  4

  5

  6

  7

 40
0.0
 41
3.0
 42
1.5
 43
10.0
 44
1.5
 45
0.0
 46
0.0
 47
0.0
 48
0.0
140
3.0
141
-5.0
142
0.0
143
25.399999999999999
144
-1.0
145
0.0
146
1.0
147
1.0
 71
     0
 72
     0
 73
     0
 74
     0
 75
     0
 76
     0
 77
     1
 78
     8
170
     0
171
     0
172
     1
173
     0
174
     0
175
     0
176
   256
177
   256
178
     2
  0
DIMSTYLE
  2
BYGG-014306$0$STANDARD
 70
     0
  3

  4

  5

  6

  7

 40
1.0
 41
0.18
 42
0.0625
 43
0.38
 44
0.18
 45
0.0
 46
0.0
 47
0.0
 48
0.0
140
0.18
141
0.09
142
0.0
143
25.399999999999999
144
1.0
145
0.0
146
1.0
147
0.09
 71
     0
 72
     0
 73
     1
 74
     1
 75
     0
 76
     0
 77
     0
 78
     0
170
     0
171
     2
172
     0
173
     0
174
     0
175
     0
176
     0
177
     0
178
     0
  0
DIMSTYLE
  2
BYGG-021582$0$MASKIN
 70
     0
  3

  4

  5

  6

  7

 40
0.0
 41
3.0
 42
1.5
 43
10.0
 44
1.5
 45
0.0
 46
0.0
 47
0.0
 48
0.0
140
3.0
141
-5.0
142
0.0
143
25.399999999999999
144
-1.0
145
0.0
146
1.0
147
1.0
 71
     0
 72
     0
 73
     0
 74
     0
 75
     0
 76
     0
 77
     1
 78
     8
170
     0
171
     0
172
     1
173
     0
174
     0
175
     0
176
   256
177
   256
178
   256
  0
DIMSTYLE
  2
BYGG-014279$0$STANDARD
 70
     0
  3

  4

  5

  6

  7

 40
1.0
 41
0.18
 42
0.0625
 43
0.38
 44
0.18
 45
0.0
 46
0.0
 47
0.0
 48
0.0
140
0.18
141
0.09
142
0.0
143
25.399999999999999
144
1.0
145
0.0
146
1.0
147
0.09
 71
     0
 72
     0
 73
     1
 74
     1
 75
     0
 76
     0
 77
     0
 78
     0
170
     0
171
     2
172
     0
173
     0
174
     0
175
     0
176
     0
177
     0
178
     0
  0
DIMSTYLE
  2
BYGG-014279$0$MASKIN
 70
     0
  3

  4

  5

  6

  7

 40
0.0
 41
3.0
 42
1.5
 43
10.0
 44
1.5
 45
0.0
 46
0.0
 47
0.0
 48
0.0
140
3.0
141
-5.0
142
0.0
143
25.399999999999999
144
-1.0
145
0.0
146
1.0
147
1.0
 71
     0
 72
     0
 73
     0
 74
     1
 75
     0
 76
     0
 77
     1
 78
     8
170
     0
171
     0
172
     1
173
     0
174
     0
175
     0
176
   256
177
   256
178
     2
  0
DIMSTYLE
  2
BYGG-021667$0$MASKIN
 70
     0
  3

  4

  5

  6

  7

 40
0.0
 41
3.0
 42
1.5
 43
10.0
 44
1.5
 45
0.0
 46
0.0
 47
0.0
 48
0.0
140
3.0
141
-5.0
142
0.0
143
25.399999999999999
144
-1.0
145
0.0
146
1.0
147
1.0
 71
     0
 72
     0
 73
     0
 74
     0
 75
     0
 76
     0
 77
     1
 78
     8
170
     0
171
     0
172
     1
173
     0
174
     0
175
     0
176
   256
177
   256
178
   256
  0
DIMSTYLE
  2
BYGG-01482301$0$STANDARD
 70
     0
  3

  4

  5

  6

  7

 40
1.0
 41
0.18
 42
0.0625
 43
0.38
 44
0.18
 45
0.0
 46
0.0
 47
0.0
 48
0.0
140
0.18
141
0.09
142
0.0
143
25.399999999999999
144
1.0
145
0.0
146
1.0
147
0.09
 71
     0
 72
     0
 73
     1
 74
     1
 75
     0
 76
     0
 77
     0
 78
     0
170
     0
171
     2
172
     0
173
     0
174
     0
175
     0
176
     0
177
     0
178
     0
  0
DIMSTYLE
  2
BYGG-01482301$0$MASKIN
 70
     0
  3

  4

  5

  6

  7

 40
0.0
 41
3.0
 42
1.5
 43
10.0
 44
1.5
 45
0.0
 46
0.0
 47
0.0
 48
0.0
140
3.0
141
-5.0
142
0.0
143
25.399999999999999
144
-1.0
145
0.0
146
1.0
147
1.0
 71
     0
 72
     0
 73
     0
 74
     1
 75
     0
 76
     0
 77
     1
 78
     8
170
     0
171
     0
172
     1
173
     0
174
     0
175
     0
176
   256
177
   256
178
     2
  0
DIMSTYLE
  2
BYGG-035294$0$STANDARD
 70
     0
  3

  4

  5

  6

  7

 40
1.0
 41
0.18
 42
0.0625
 43
0.38
 44
0.18
 45
0.0
 46
0.0
 47
0.0
 48
0.0
140
0.18
141
0.09
142
0.0
143
25.399999999999999
144
1.0
145
0.0
146
1.0
147
0.09
 71
     0
 72
     0
 73
     1
 74
     1
 75
     0
 76
     0
 77
     0
 78
     0
170
     0
171
     2
172
     0
173
     0
174
     0
175
     0
176
     0
177
     0
178
     0
  0
DIMSTYLE
  2
BYGG-035294$0$MASKIN
 70
     0
  3

  4

  5

  6

  7

 40
0.0
 41
3.0
 42
1.5
 43
10.0
 44
1.5
 45
0.0
 46
0.0
 47
0.0
 48
0.0
140
3.0
141
-5.0
142
0.0
143
25.399999999999999
144
-1.0
145
0.0
146
1.0
147
1.0
 71
     0
 72
     0
 73
     0
 74
     0
 75
     0
 76
     0
 77
     1
 78
     8
170
     0
171
     0
172
     1
173
     0
174
     0
175
     0
176
   256
177
   256
178
     2
  0
DIMSTYLE
  2
BYGG-035294$0$ANNOTATIVE
 70
     0
  3

  4

  5

  6

  7

 40
1.0
 41
0.18
 42
0.0625
 43
0.38
 44
0.18
 45
0.0
 46
0.0
 47
0.0
 48
0.0
140
0.18
141
0.09
142
0.0
143
25.399999999999999
144
1.0
145
0.0
146
1.0
147
0.09
 71
     0
 72
     0
 73
     1
 74
     1
 75
     0
 76
     0
 77
     0
 78
     0
170
     0
171
     2
172
     0
173
     0
174
     0
175
     0
176
     0
177
     0
178
     0
  0
DIMSTYLE
  2
BYGG-021480$0$STANDARD
 70
     0
  3

  4

  5

  6

  7

 40
1.0
 41
0.18
 42
0.0625
 43
0.38
 44
0.18
 45
0.0
 46
0.0
 47
0.0
 48
0.0
140
0.18
141
0.09
142
0.0
143
25.399999999999999
144
1.0
145
0.0
146
1.0
147
0.09
 71
     0
 72
     0
 73
     1
 74
     1
 75
     0
 76
     0
 77
     0
 78
     0
170
     0
171
     2
172
     0
173
     0
174
     0
175
     0
176
     0
177
     0
178
     0
  0
DIMSTYLE
  2
BYGG-021480$0$MASKIN
 70
     0
  3

  4

  5

  6

  7

 40
0.0
 41
3.0
 42
1.5
 43
10.0
 44
1.5
 45
0.0
 46
0.0
 47
0.0
 48
0.0
140
3.0
141
-5.0
142
0.0
143
25.399999999999999
144
-1.0
145
0.0
146
1.0
147
1.0
 71
     0
 72
     0
 73
     0
 74
     0
 75
     0
 76
     0
 77
     1
 78
     8
170
     0
171
     0
172
     1
173
     0
174
     0
175
     0
176
   256
177
   256
178
     2
  0
DIMSTYLE
  2
BYGG-021480$0$PRIMO_2_5-1
 70
     0
  3

  4

  5

  6

  7

 40
0.4
 41
3.0
 42
1.0
 43
5.0
 44
1.0
 45
0.0
 46
0.0
 47
0.0
 48
0.0
140
3.0
141
3.0
142
0.0
143
25.399999999999999
144
1.0
145
0.0
146
1.0
147
1.0
 71
     0
 72
     0
 73
     0
 74
     0
 75
     0
 76
     0
 77
     1
 78
     8
170
     0
171
     2
172
     0
173
     0
174
     0
175
     0
176
   256
177
   256
178
     6
  0
DIMSTYLE
  2
BYGG-035293$0$STANDARD
 70
     0
  3

  4

  5

  6

  7

 40
1.0
 41
0.18
 42
0.0625
 43
0.38
 44
0.18
 45
0.0
 46
0.0
 47
0.0
 48
0.0
140
0.18
141
0.09
142
0.0
143
25.399999999999999
144
1.0
145
0.0
146
1.0
147
0.09
 71
     0
 72
     0
 73
     1
 74
     1
 75
     0
 76
     0
 77
     0
 78
     0
170
     0
171
     2
172
     0
173
     0
174
     0
175
     0
176
     0
177
     0
178
     0
  0
DIMSTYLE
  2
BYGG-035293$0$MASKIN
 70
     0
  3

  4

  5

  6

  7

 40
0.0
 41
3.0
 42
1.5
 43
10.0
 44
1.5
 45
0.0
 46
0.0
 47
0.0
 48
0.0
140
3.0
141
-5.0
142
0.0
143
25.399999999999999
144
-1.0
145
0.0
146
1.0
147
1.0
 71
     0
 72
     0
 73
     0
 74
     0
 75
     0
 76
     0
 77
     1
 78
     8
170
     0
171
     0
172
     1
173
     0
174
     0
175
     0
176
   256
177
   256
178
     2
  0
DIMSTYLE
  2
BYGG-014117$0$MASKIN
 70
     0
  3

  4

  5

  6

  7

 40
0.0
 41
3.0
 42
1.5
 43
10.0
 44
1.5
 45
0.0
 46
0.0
 47
0.0
 48
0.0
140
3.0
141
-5.0
142
0.0
143
25.399999999999999
144
-1.0
145
0.0
146
1.0
147
1.0
 71
     0
 72
     0
 73
     0
 74
     0
 75
     0
 76
     0
 77
     1
 78
     8
170
     0
171
     0
172
     1
173
     0
174
     0
175
     0
176
   256
177
   256
178
   256
  0
DIMSTYLE
  2
BYGG-023714$0$STANDARD
 70
     0
  3

  4

  5

  6

  7

 40
1.0
 41
0.18
 42
0.0625
 43
0.38
 44
0.18
 45
0.0
 46
0.0
 47
0.0
 48
0.0
140
0.18
141
0.09
142
0.0
143
25.399999999999999
144
1.0
145
0.0
146
1.0
147
0.09
 71
     0
 72
     0
 73
     1
 74
     1
 75
     0
 76
     0
 77
     0
 78
     0
170
     0
171
     2
172
     0
173
     0
174
     0
175
     0
176
     0
177
     0
178
     0
  0
DIMSTYLE
  2
BYGG-023714$0$MASKIN
 70
     0
  3

  4

  5

  6

  7

 40
0.0
 41
3.0
 42
1.5
 43
10.0
 44
1.5
 45
0.0
 46
0.0
 47
0.0
 48
0.0
140
3.0
141
-5.0
142
0.0
143
25.399999999999999
144
-1.0
145
0.0
146
1.0
147
1.0
 71
     0
 72
     0
 73
     0
 74
     0
 75
     0
 76
     0
 77
     1
 78
     8
170
     0
171
     0
172
     1
173
     0
174
     0
175
     0
176
   256
177
   256
178
     2
  0
DIMSTYLE
  2
BYGG-020805$0$STANDARD
 70
     0
  3

  4

  5

  6

  7

 40
1.0
 41
0.18
 42
0.0625
 43
0.38
 44
0.18
 45
0.0
 46
0.0
 47
0.0
 48
0.0
140
0.18
141
0.09
142
0.0
143
25.399999999999999
144
1.0
145
0.0
146
1.0
147
0.09
 71
     0
 72
     0
 73
     1
 74
     1
 75
     0
 76
     0
 77
     0
 78
     0
170
     0
171
     2
172
     0
173
     0
174
     0
175
     0
176
     0
177
     0
178
     0
  0
DIMSTYLE
  2
BYGG-020805$0$MASKIN
 70
     0
  3

  4

  5

  6

  7

 40
0.0
 41
3.0
 42
1.5
 43
10.0
 44
1.5
 45
0.0
 46
0.0
 47
0.0
 48
0.0
140
3.0
141
-5.0
142
0.0
143
25.399999999999999
144
-1.0
145
0.0
146
1.0
147
1.0
 71
     0
 72
     0
 73
     0
 74
     0
 75
     0
 76
     0
 77
     1
 78
     8
170
     0
171
     0
172
     1
173
     0
174
     0
175
     0
176
   256
177
   256
178
     2
  0
DIMSTYLE
  2
BYGG-025115$0$STANDARD
 70
     0
  3

  4

  5

  6

  7

 40
1.0
 41
0.18
 42
0.0625
 43
0.38
 44
0.18
 45
0.0
 46
0.0
 47
0.0
 48
0.0
140
0.18
141
0.09
142
0.0
143
25.399999999999999
144
1.0
145
0.0
146
1.0
147
0.09
 71
     0
 72
     0
 73
     1
 74
     1
 75
     0
 76
     0
 77
     0
 78
     0
170
     0
171
     2
172
     0
173
     0
174
     0
175
     0
176
     0
177
     0
178
     0
  0
DIMSTYLE
  2
BYGG-025115$0$MASKIN
 70
     0
  3

  4

  5

  6

  7

 40
0.0
 41
3.0
 42
1.5
 43
10.0
 44
1.5
 45
0.0
 46
0.0
 47
0.0
 48
0.0
140
3.0
141
-5.0
142
0.0
143
25.399999999999999
144
-1.0
145
0.0
146
1.0
147
1.0
 71
     0
 72
     0
 73
     0
 74
     0
 75
     0
 76
     0
 77
     1
 78
     8
170
     0
171
     0
172
     1
173
     0
174
     0
175
     0
176
   256
177
   256
178
     2
  0
ENDTAB
  0
ENDSEC
  0
SECTION
  2
BLOCKS
  0
BLOCK
  8
0
  2
$MODEL_SPACE
 70
     0
 10
0.0
 20
0.0
 30
0.0
  3
$MODEL_SPACE
  1

  0
ENDBLK
  5
37
  8
0
  0
BLOCK
 67
     1
  8
0
  2
$PAPER_SPACE
 70
     0
 10
0.0
 20
0.0
 30
0.0
  3
$PAPER_SPACE
  1

  0
ENDBLK
  5
35
 67
     1
  8
0
  0
BLOCK
  8
0
  2
*X37
 70
     1
 10
0.0
 20
0.0
 30
0.0
  3
*X37
  1

  0
LINE
  5
1243
  8
0
 62
     0
 10
10.452767287072479
 20
198.3145598224196
 30
0.0
 11
10.39961080591755
 21
198.3452497311236
 31
0.0
  0
LINE
  5
1244
  8
0
 62
     0
 10
12.514990279834169
 20
197.12393482241961
 30
0.0
 11
11.82758261558028
 21
197.52080982241961
 31
0.0
  0
LINE
  5
1245
  8
0
 62
     0
 10
14.47359676956148
 20
195.99313283833899
 30
0.0
 11
13.88980560834197
 21
196.33018482241971
 31
0.0
  0
LINE
  5
1246
  8
0
 62
     0
 10
7.7031367943099358
 20
198.31456010691559
 30
0.0
 11
7.1020298344285013
 21
198.66160937201491
 31
0.0
  0
LINE
  5
1247
  8
0
 62
     0
 10
9.7653597870716311
 20
197.12393510691561
 30
0.0
 11
9.0779521228177327
 21
197.5208101069156
 31
0.0
  0
LINE
  5
1248
  8
0
 62
     0
 10
11.827582779833319
 20
195.9333101069156
 30
0.0
 11
11.140175115579421
 21
196.33018510691559
 31
0.0
  0
LINE
  5
1249
  8
0
 62
     0
 10
13.88980577259502
 20
194.74268510691559
 30
0.0
 11
13.20239810834112
 21
195.13956010691561
 31
0.0
  0
LINE
  5
124A
  8
0
 62
     0
 10
4.9535063015493703
 20
198.3145603914117
 30
0.0
 11
4.8123758723503522
 21
198.3960420827006
 31
0.0
  0
LINE
  5
124B
  8
0
 62
     0
 10
7.015729294311063
 20
197.12393539141169
 30
0.0
 11
6.3283216300571663
 21
197.52081039141169
 31
0.0
  0
LINE
  5
124C
  8
0
 62
     0
 10
9.0779522870727583
 20
195.93331039141171
 30
0.0
 11
8.3905446228188598
 21
196.3301853914117
 31
0.0
  0
LINE
  5
124D
  8
0
 62
     0
 10
11.14017527983445
 20
194.7426853914117
 30
0.0
 11
10.45276761558055
 21
195.13956039141169
 31
0.0
  0
LINE
  5
124E
  8
0
 62
     0
 10
13.20239827259614
 20
193.55206039141169
 30
0.0
 11
12.51499060834224
 21
193.94893539141171
 31
0.0
  0
LINE
  5
124F
  8
0
 62
     0
 10
4.2660988015478498
 20
197.12393567590689
 30
0.0
 11
3.5786911372939518
 21
197.52081067590689
 31
0.0
  0
LINE
  5
1250
  8
0
 62
     0
 10
6.3283217943095442
 20
195.93331067590691
 30
0.0
 11
5.6409141300556458
 21
196.3301856759069
 31
0.0
  0
LINE
  5
1251
  8
0
 62
     0
 10
8.3905447870712386
 20
194.7426856759069
 30
0.0
 11
7.7031371228173402
 21
195.13956067590689
 31
0.0
  0
LINE
  5
1252
  8
0
 62
     0
 10
10.45276777983293
 20
193.552060675907
 30
0.0
 11
9.7653601155790337
 21
193.94893567590691
 31
0.0
  0
LINE
  5
1253
  8
0
 62
     0
 10
12.51499077259462
 20
192.36143567590699
 30
0.0
 11
11.82758310834072
 21
192.75831067590701
 31
0.0
  0
LINE
  5
1254
  8
0
 62
     0
 10
3.5786913015479538
 20
195.93331096040319
 30
0.0
 11
2.8912836372940558
 21
196.33018596040321
 31
0.0
  0
LINE
  5
1255
  8
0
 62
     0
 10
5.6409142943096482
 20
194.74268596040321
 30
0.0
 11
4.9535066300557498
 21
195.1395609604032
 31
0.0
  0
LINE
  5
1256
  8
0
 62
     0
 10
7.7031372870713408
 20
193.5520609604032
 30
0.0
 11
7.0157296228174442
 21
193.94893596040319
 31
0.0
  0
LINE
  5
1257
  8
0
 62
     0
 10
9.7653602798330361
 20
192.36143596040321
 30
0.0
 11
9.0779526155791377
 21
192.75831096040321
 31
0.0
  0
LINE
  5
1258
  8
0
 62
     0
 10
11.559312029363349
 20
191.3256974348987
 30
0.0
 11
11.140175608340829
 21
191.5676859604032
 31
0.0
  0
LINE
  5
1259
  8
0
 62
     0
 10
0.8290608087880539
 20
195.9333112448993
 30
0.0
 11
0.568884885547208
 21
196.08352388421909
 31
0.0
  0
LINE
  5
125A
  8
0
 62
     0
 10
2.8912838015497471
 20
194.7426862448994
 30
0.0
 11
2.2038761372958491
 21
195.1395612448994
 31
0.0
  0
LINE
  5
125B
  8
0
 62
     0
 10
4.9535067943114406
 20
193.55206124489939
 30
0.0
 11
4.266099130057543
 21
193.94893624489939
 31
0.0
  0
LINE
  5
125C
  8
0
 62
     0
 10
7.0157297870731341
 20
192.36143624489941
 30
0.0
 11
6.3283221228192366
 21
192.7583112448994
 31
0.0
  0
LINE
  5
125D
  8
0
 62
     0
 10
9.0779527798348294
 20
191.1708112448994
 30
0.0
 11
8.3905451155809292
 21
191.56768624489939
 31
0.0
  0
LINE
  5
125E
  8
0
 62
     0
 10
0.1416533087882108
 20
194.74268652939381
 30
0.0
 11
0.0918516694789648
 21
194.7714395192551
 31
0.0
  0
LINE
  5
125F
  8
0
 62
     0
 10
2.2038763015499039
 20
193.5520615293938
 30
0.0
 11
1.5164686372960059
 21
193.9489365293939
 31
0.0
  0
LINE
  5
1260
  8
0
 62
     0
 10
4.2660992943115978
 20
192.3614365293939
 30
0.0
 11
3.5786916300576999
 21
192.75831152939389
 31
0.0
  0
LINE
  5
1261
  8
0
 62
     0
 10
6.3283222870732923
 20
191.17081152939389
 30
0.0
 11
5.6409146228193938
 21
191.56768652939391
 31
0.0
  0
LINE
  5
1262
  8
0
 62
     0
 10
1.5164688015466301
 20
192.36143681389311
 30
0.0
 11
1.2549726619412021
 21
192.51241168048631
 31
0.0
  0
LINE
  5
1263
  8
0
 62
     0
 10
3.1010543681077252
 20
191.44657591048511
 30
0.0
 11
2.8912841300544261
 21
191.56768681389309
 31
0.0
  0
LINE
  5
1264
  8
0
 62
     0
 10
0.8321450042332109
 20
195.1377134427467
 30
0.0
 11
0.1447373399793136
 21
194.74083844274671
 31
0.0
  0
LINE
  5
1265
  8
0
 62
     0
 10
2.894367996994903
 20
196.32833844274671
 30
0.0
 11
2.206960332741005
 21
195.93146344274669
 31
0.0
  0
LINE
  5
1266
  8
0
 62
     0
 10
4.9565909897565961
 20
197.5189634427467
 30
0.0
 11
4.2691833255026976
 21
197.1220884427467
 31
0.0
  0
LINE
  5
1267
  8
0
 62
     0
 10
6.9250047492550939
 20
198.6554276566697
 30
0.0
 11
6.3314063182643912
 21
198.31271344274671
 31
0.0
  0
LINE
  5
1268
  8
0
 62
     0
 10
1.51955250423278
 20
193.94708872724291
 30
0.0
 11
0.8321448399788827
 21
193.55021372724289
 31
0.0
  0
LINE
  5
1269
  8
0
 62
     0
 10
3.5817754969944722
 20
195.13771372724281
 30
0.0
 11
2.8943678327405751
 21
194.74083872724279
 31
0.0
  0
LINE
  5
126A
  8
0
 62
     0
 10
5.6439984897561652
 20
196.32833872724279
 30
0.0
 11
4.9565908255022668
 21
195.9314637272428
 31
0.0
  0
LINE
  5
126B
  8
0
 62
     0
 10
7.706221482517857
 20
197.51896372724281
 30
0.0
 11
7.0188138182639603
 21
197.12208872724281
 31
0.0
  0
LINE
  5
126C
  8
0
 62
     0
 10
9.4482059067926798
 20
198.52469890352199
 30
0.0
 11
9.0810368110256512
 21
198.31271372724279
 31
0.0
  0
LINE
  5
126D
  8
0
 62
     0
 10
2.206960004233812
 20
192.75646401173981
 30
0.0
 11
1.5195523399799149
 21
192.35958901173981
 31
0.0
  0
LINE
  5
126E
  8
0
 62
     0
 10
4.2691829969955046
 20
193.94708901173979
 30
0.0
 11
3.5817753327416071
 21
193.5502140117398
 31
0.0
  0
LINE
  5
126F
  8
0
 62
     0
 10
6.3314059897571981
 20
195.13771401173969
 30
0.0
 11
5.6439983255032997
 21
194.74083901173981
 31
0.0
  0
LINE
  5
1270
  8
0
 62
     0
 10
8.3936289825188908
 20
196.3283390117397
 30
0.0
 11
7.7062213182649932
 21
195.93146401173979
 31
0.0
  0
LINE
  5
1271
  8
0
 62
     0
 10
10.455851975280581
 20
197.51896401173971
 30
0.0
 11
9.7684443110266859
 21
197.12208901173969
 31
0.0
  0
LINE
  5
1272
  8
0
 62
     0
 10
2.8943675042338892
 20
191.5658392962352
 30
0.0
 11
2.8607275219041011
 21
191.54641724338151
 31
0.0
  0
LINE
  5
1273
  8
0
 62
     0
 10
4.956590496995581
 20
192.75646429623521
 30
0.0
 11
4.2691828327416843
 21
192.35958929623521
 31
0.0
  0
LINE
  5
1274
  8
0
 62
     0
 10
7.0188134897572736
 20
193.94708929623511
 30
0.0
 11
6.3314058255033761
 21
193.55021429623511
 31
0.0
  0
LINE
  5
1275
  8
0
 62
     0
 10
9.0810364825189662
 20
195.13771429623509
 30
0.0
 11
8.3936288182650696
 21
194.74083929623509
 31
0.0
  0
LINE
  5
1276
  8
0
 62
     0
 10
11.14325947528066
 20
196.3283392962351
 30
0.0
 11
10.45585181102676
 21
195.93146429623511
 31
0.0
  0
LINE
  5
1277
  8
0
 62
     0
 10
12.94709640962173
 20
197.36978503585109
 30
0.0
 11
12.51807480378845
 21
197.12208929623509
 31
0.0
  0
LINE
  5
1278
  8
0
 62
     0
 10
5.643997996995175
 20
191.56583958073119
 30
0.0
 11
4.9565903327412784
 21
191.16896458073131
 31
0.0
  0
LINE
  5
1279
  8
0
 62
     0
 10
7.7062209897568676
 20
192.7564645807312
 30
0.0
 11
7.0188133255029701
 21
192.3595895807313
 31
0.0
  0
LINE
  5
127A
  8
0
 62
     0
 10
9.7684439825185603
 20
193.94708958073119
 30
0.0
 11
9.0810363182646636
 21
193.55021458073119
 31
0.0
  0
LINE
  5
127B
  8
0
 62
     0
 10
11.83066697528025
 20
195.1377145807312
 30
0.0
 11
11.14325931102635
 21
194.7408395807312
 31
0.0
  0
LINE
  5
127C
  8
0
 62
     0
 10
13.89288996804194
 20
196.32833958073121
 30
0.0
 11
13.20548230378804
 21
195.93146458073119
 31
0.0
  0
LINE
  5
127D
  8
0
 62
     0
 10
8.3936284897564697
 20
191.56583986522739
 30
0.0
 11
7.7062208255025721
 21
191.16896486522739
 31
0.0
  0
LINE
  5
127E
  8
0
 62
     0
 10
10.45585148251816
 20
192.75646486522729
 30
0.0
 11
9.7684438182642648
 21
192.35958986522741
 31
0.0
  0
LINE
  5
127F
  8
0
 62
     0
 10
12.51807447527985
 20
193.9470898652273
 30
0.0
 11
11.830666811025949
 21
193.5502148652273
 31
0.0
  0
LINE
  5
1280
  8
0
 62
     0
 10
14.58029746804154
 20
195.13771486522731
 30
0.0
 11
13.89288980378765
 21
194.74083986522729
 31
0.0
  0
LINE
  5
1281
  8
0
 62
     0
 10
11.143258982517811
 20
191.5658401497235
 30
0.0
 11
10.45585131826391
 21
191.1689651497235
 31
0.0
  0
LINE
  5
1282
  8
0
 62
     0
 10
13.205481975279501
 20
192.75646514972351
 30
0.0
 11
12.5180743110256
 21
192.35959014972349
 31
0.0
  0
LINE
  5
1283
  8
0
 62
     0
 10
14.605486581534221
 20
193.5647581860114
 30
0.0
 11
14.58029730378729
 21
193.5502151497235
 31
0.0
  0
LINE
  5
1284
  8
0
 62
     0
 10
14.580353150108751
 20
195.14130833542509
 30
0.0
 11
14.580353150108751
 21
195.8158212267663
 31
0.0
  0
LINE
  5
1285
  8
0
 62
     0
 10
14.580353150108751
 20
193.5184368972804
 30
0.0
 11
14.580353150108751
 21
193.55380833542509
 31
0.0
  0
LINE
  5
1286
  8
0
 62
     0
 10
13.205538150109531
 20
195.1413083354247
 30
0.0
 11
13.205538150109531
 21
195.93505833542471
 31
0.0
  0
LINE
  5
1287
  8
0
 62
     0
 10
13.205538150109531
 20
192.7600583354247
 30
0.0
 11
13.205538150109531
 21
193.55380833542469
 31
0.0
  0
LINE
  5
1288
  8
0
 62
     0
 10
11.830723150108501
 20
197.52255833542469
 30
0.0
 11
11.830723150108501
 21
197.90728292657869
 31
0.0
  0
LINE
  5
1289
  8
0
 62
     0
 10
11.830723150108501
 20
195.1413083354247
 30
0.0
 11
11.830723150108501
 21
195.93505833542471
 31
0.0
  0
LINE
  5
128A
  8
0
 62
     0
 10
11.830723150108501
 20
192.7600583354247
 30
0.0
 11
11.830723150108501
 21
193.55380833542469
 31
0.0
  0
LINE
  5
128B
  8
0
 62
     0
 10
10.455908150109281
 20
197.52255833542469
 30
0.0
 11
10.455908150109281
 21
198.31630833542471
 31
0.0
  0
LINE
  5
128C
  8
0
 62
     0
 10
10.455908150109281
 20
195.1413083354247
 30
0.0
 11
10.455908150109281
 21
195.93505833542471
 31
0.0
  0
LINE
  5
128D
  8
0
 62
     0
 10
10.455908150109281
 20
192.7600583354247
 30
0.0
 11
10.455908150109281
 21
193.55380833542469
 31
0.0
  0
LINE
  5
128E
  8
0
 62
     0
 10
10.455908150109281
 20
191.00216192617509
 30
0.0
 11
10.455908150109281
 21
191.1725583354247
 31
0.0
  0
LINE
  5
128F
  8
0
 62
     0
 10
9.0810931501082486
 20
197.52255833542469
 30
0.0
 11
9.0810931501082486
 21
198.31630833542471
 31
0.0
  0
LINE
  5
1290
  8
0
 62
     0
 10
9.0810931501082486
 20
195.1413083354247
 30
0.0
 11
9.0810931501082486
 21
195.93505833542471
 31
0.0
  0
LINE
  5
1291
  8
0
 62
     0
 10
9.0810931501082486
 20
192.7600583354247
 30
0.0
 11
9.0810931501082486
 21
193.55380833542469
 31
0.0
  0
LINE
  5
1292
  8
0
 62
     0
 10
9.0810931501082486
 20
190.76056261785189
 30
0.0
 11
9.0810931501082486
 21
191.1725583354247
 31
0.0
  0
LINE
  5
1293
  8
0
 62
     0
 10
7.7062781501090312
 20
197.52255833542469
 30
0.0
 11
7.7062781501090312
 21
198.31630833542471
 31
0.0
  0
LINE
  5
1294
  8
0
 62
     0
 10
7.7062781501090312
 20
195.1413083354247
 30
0.0
 11
7.7062781501090312
 21
195.93505833542471
 31
0.0
  0
LINE
  5
1295
  8
0
 62
     0
 10
7.7062781501090312
 20
192.7600583354247
 30
0.0
 11
7.7062781501090312
 21
193.55380833542469
 31
0.0
  0
LINE
  5
1296
  8
0
 62
     0
 10
7.7062781501090312
 20
190.6688258101876
 30
0.0
 11
7.7062781501090312
 21
191.1725583354247
 31
0.0
  0
LINE
  5
1297
  8
0
 62
     0
 10
6.3314631501098138
 20
197.52255833542469
 30
0.0
 11
6.3314631501098138
 21
198.31630833542471
 31
0.0
  0
LINE
  5
1298
  8
0
 62
     0
 10
6.3314631501098138
 20
195.1413083354247
 30
0.0
 11
6.3314631501098138
 21
195.93505833542471
 31
0.0
  0
LINE
  5
1299
  8
0
 62
     0
 10
6.3314631501098138
 20
192.7600583354247
 30
0.0
 11
6.3314631501098138
 21
193.55380833542469
 31
0.0
  0
LINE
  5
129A
  8
0
 62
     0
 10
6.3314631501098138
 20
190.71649789225191
 30
0.0
 11
6.3314631501098138
 21
191.1725583354247
 31
0.0
  0
LINE
  5
129B
  8
0
 62
     0
 10
4.9566481501087791
 20
197.52255833542469
 30
0.0
 11
4.9566481501087791
 21
198.31630833542471
 31
0.0
  0
LINE
  5
129C
  8
0
 62
     0
 10
4.9566481501087791
 20
195.1413083354247
 30
0.0
 11
4.9566481501087791
 21
195.93505833542471
 31
0.0
  0
LINE
  5
129D
  8
0
 62
     0
 10
4.9566481501087791
 20
192.7600583354247
 30
0.0
 11
4.9566481501087791
 21
193.55380833542469
 31
0.0
  0
LINE
  5
129E
  8
0
 62
     0
 10
4.9566481501087791
 20
190.90888018515031
 30
0.0
 11
4.9566481501087791
 21
191.1725583354247
 31
0.0
  0
LINE
  5
129F
  8
0
 62
     0
 10
3.5818331501095622
 20
197.52255833542469
 30
0.0
 11
3.5818331501095622
 21
198.0637851877581
 31
0.0
  0
LINE
  5
12A0
  8
0
 62
     0
 10
3.5818331501095622
 20
195.1413083354247
 30
0.0
 11
3.5818331501095622
 21
195.93505833542471
 31
0.0
  0
LINE
  5
12A1
  8
0
 62
     0
 10
3.5818331501095622
 20
192.7600583354247
 30
0.0
 11
3.5818331501095622
 21
193.55380833542469
 31
0.0
  0
LINE
  5
12A2
  8
0
 62
     0
 10
2.2070181501085271
 20
195.1413083354247
 30
0.0
 11
2.2070181501085271
 21
195.93505833542471
 31
0.0
  0
LINE
  5
12A3
  8
0
 62
     0
 10
2.2070181501085271
 20
192.7600583354247
 30
0.0
 11
2.2070181501085271
 21
193.55380833542469
 31
0.0
  0
LINE
  5
12A4
  8
0
 62
     0
 10
0.832203150109311
 20
195.14130833542509
 30
0.0
 11
0.832203150109311
 21
195.93505833542511
 31
0.0
  0
LINE
  5
12A5
  8
0
 62
     0
 10
0.8322031501093109
 20
192.92052665348641
 30
0.0
 11
0.8322031501093109
 21
193.55380833542509
 31
0.0
  0
ENDBLK
  5
12A7
  8
0
  0
BLOCK
  8
0
  2
*X38
 70
     1
 10
0.0
 20
0.0
 30
0.0
  3
*X38
  1

  0
LINE
  5
12A9
  8
0
 62
     0
 10
0.8029776423718431
 20
211.88263337222909
 30
0.0
 11
0.1056813119321305
 21
211.18533704178941
 31
0.0
  0
LINE
  5
12AA
  8
0
 62
     0
 10
1.5705912894927669
 20
211.52771500421659
 30
0.0
 11
0.1056813119316757
 21
210.0628050266555
 31
0.0
  0
LINE
  5
12AB
  8
0
 62
     0
 10
2.3752056515613731
 20
211.20979735115179
 30
0.0
 11
0.1056813119321305
 21
208.94027301152249
 31
0.0
  0
LINE
  5
12AC
  8
0
 62
     0
 10
3.2197053037584729
 20
210.93176498821549
 30
0.0
 11
0.1056813119316757
 21
207.81774099638869
 31
0.0
  0
LINE
  5
12AD
  8
0
 62
     0
 10
4.1078400655510441
 20
210.69736773487469
 30
0.0
 11
0.1056813119321305
 21
206.69520898125569
 31
0.0
  0
LINE
  5
12AE
  8
0
 62
     0
 10
5.0445491621562724
 20
210.51154481634421
 30
0.0
 11
0.1056813119321305
 21
205.5726769661205
 31
0.0
  0
LINE
  5
12AF
  8
0
 62
     0
 10
6.0364776748001532
 20
210.38094131385699
 30
0.0
 11
0.1056813119321305
 21
204.450144950989
 31
0.0
  0
LINE
  5
12B0
  8
0
 62
     0
 10
7.0928436757917552
 20
210.31477529971329
 30
0.0
 11
0.1056813119321305
 21
203.32761293585369
 31
0.0
  0
LINE
  5
12B1
  8
0
 62
     0
 10
8.2269982583475212
 20
210.32639786713571
 30
0.0
 11
0.1056813119321305
 21
202.20508092072029
 31
0.0
  0
LINE
  5
12B2
  8
0
 62
     0
 10
9.4595063737347118
 20
210.4363739673895
 30
0.0
 11
0.1056813119321305
 21
201.08254890558689
 31
0.0
  0
LINE
  5
12B3
  8
0
 62
     0
 10
10.82509202942674
 20
210.6794276079481
 30
0.0
 11
0.1056813119307662
 21
199.9600168904521
 31
0.0
  0
LINE
  5
12B4
  8
0
 62
     0
 10
12.391860158866161
 20
211.12366372225421
 30
0.0
 11
0.105681311931221
 21
198.83748487531869
 31
0.0
  0
LINE
  5
12B5
  8
0
 62
     0
 10
14.33911621280185
 20
211.94838776105641
 30
0.0
 11
0.1056813119307662
 21
197.71495286018529
 31
0.0
  0
LINE
  5
12B6
  8
0
 62
     0
 10
14.90568131193049
 20
211.3924208450517
 30
0.0
 11
1.6284340100924051
 21
198.11517354321359
 31
0.0
  0
LINE
  5
12B7
  8
0
 62
     0
 10
14.905681311932311
 20
210.2698888299183
 30
0.0
 11
3.3644307394674788
 21
198.72863825745341
 31
0.0
  0
LINE
  5
12B8
  8
0
 62
     0
 10
14.90568131193049
 20
209.14735681478311
 30
0.0
 11
4.8274176590452953
 21
199.0690931618978
 31
0.0
  0
LINE
  5
12B9
  8
0
 62
     0
 10
14.905681311932311
 20
208.02482479965141
 30
0.0
 11
6.1267187570088018
 21
199.2458622447275
 31
0.0
  0
LINE
  5
12BA
  8
0
 62
     0
 10
14.90568131193095
 20
206.90229278451619
 30
0.0
 11
7.3112502353369564
 21
199.30786170792271
 31
0.0
  0
LINE
  5
12BB
  8
0
 62
     0
 10
14.90568131193095
 20
205.7797607693833
 30
0.0
 11
8.4079869896918353
 21
199.28206644714419
 31
0.0
  0
LINE
  5
12BC
  8
0
 62
     0
 10
14.90568131193095
 20
204.65722875424939
 30
0.0
 11
9.4336691736821194
 21
199.18521661600099
 31
0.0
  0
LINE
  5
12BD
  8
0
 62
     0
 10
14.90568131193095
 20
203.5346967391165
 30
0.0
 11
10.39950532035027
 21
199.02852074753579
 31
0.0
  0
LINE
  5
12BE
  8
0
 62
     0
 10
14.905681311931399
 20
202.4121647239817
 30
0.0
 11
11.31340218749483
 21
198.8198855995451
 31
0.0
  0
LINE
  5
12BF
  8
0
 62
     0
 10
14.90568131192958
 20
201.28963270884651
 30
0.0
 11
12.181147189711281
 21
198.56509858662821
 31
0.0
  0
LINE
  5
12C0
  8
0
 62
     0
 10
14.905681311931399
 20
200.1671006937149
 30
0.0
 11
13.00708827926792
 21
198.26850766105139
 31
0.0
  0
LINE
  5
12C1
  8
0
 62
     0
 10
14.90568131192958
 20
199.04456867857971
 30
0.0
 11
13.794549385328541
 21
197.9334367519786
 31
0.0
  0
LINE
  5
12C2
  8
0
 62
     0
 10
14.90568131193004
 20
197.9220366634467
 30
0.0
 11
14.5460963284795
 21
197.5624516799962
 31
0.0
  0
LINE
  5
12C3
  8
0
 62
     0
 10
14.90568131192958
 20
211.79378613860169
 30
0.0
 11
14.60980562828081
 21
212.08966182225049
 31
0.0
  0
LINE
  5
12C4
  8
0
 62
     0
 10
14.905681311931399
 20
210.67125412346829
 30
0.0
 11
13.861279874392491
 21
211.7156555610072
 31
0.0
  0
LINE
  5
12C5
  8
0
 62
     0
 10
14.905681311931399
 20
209.54872210833491
 30
0.0
 11
13.07703349022813
 21
211.37736993003821
 31
0.0
  0
LINE
  5
12C6
  8
0
 62
     0
 10
14.90568131193322
 20
208.42619009319969
 30
0.0
 11
12.25455724648236
 21
211.07731415865061
 31
0.0
  0
LINE
  5
12C7
  8
0
 62
     0
 10
14.90568131192958
 20
207.30365807806811
 30
0.0
 11
11.39060207726288
 21
210.81873731273481
 31
0.0
  0
LINE
  5
12C8
  8
0
 62
     0
 10
14.905681311931399
 20
206.18112606293289
 30
0.0
 11
10.48092282064499
 21
210.6058845542193
 31
0.0
  0
LINE
  5
12C9
  8
0
 62
     0
 10
14.905681311931399
 20
205.05859404779949
 30
0.0
 11
9.5198792490882624
 21
210.4443961106426
 31
0.0
  0
LINE
  5
12CA
  8
0
 62
     0
 10
14.90568131192958
 20
203.93606203266791
 30
0.0
 11
8.4997861059109692
 21
210.34195723868649
 31
0.0
  0
LINE
  5
12CB
  8
0
 62
     0
 10
14.90568131193322
 20
202.81353001753089
 30
0.0
 11
7.4097894435490161
 21
210.3094218859151
 31
0.0
  0
LINE
  5
12CC
  8
0
 62
     0
 10
14.90568131192958
 20
201.69099800239931
 30
0.0
 11
6.2337646162104638
 21
210.3629146981184
 31
0.0
  0
LINE
  5
12CD
  8
0
 62
     0
 10
14.905681311931399
 20
200.56846598726401
 30
0.0
 11
4.9459330647932802
 21
210.52821423440221
 31
0.0
  0
LINE
  5
12CE
  8
0
 62
     0
 10
14.905681311931399
 20
199.4459339721306
 30
0.0
 11
3.5001418959000139
 21
210.85147338816199
 31
0.0
  0
LINE
  5
12CF
  8
0
 62
     0
 10
14.90568131192958
 20
198.3234019570009
 30
0.0
 11
1.795740712304905
 21
211.4333425566256
 31
0.0
  0
LINE
  5
12D0
  8
0
 62
     0
 10
14.5418612362082
 20
197.564690017587
 30
0.0
 11
0.1056813119321305
 21
212.0008699418631
 31
0.0
  0
LINE
  5
12D1
  8
0
 62
     0
 10
12.541730026659931
 20
198.4422892120019
 30
0.0
 11
0.1056813119339495
 21
210.8783379267297
 31
0.0
  0
LINE
  5
12D2
  8
0
 62
     0
 10
10.951909946956221
 20
198.90957727657221
 30
0.0
 11
0.1056813119303115
 21
209.7558059115982
 31
0.0
  0
LINE
  5
12D3
  8
0
 62
     0
 10
9.5722827768458956
 20
199.1666724315491
 30
0.0
 11
0.1056813119339495
 21
208.63327389646111
 31
0.0
  0
LINE
  5
12D4
  8
0
 62
     0
 10
8.3298725352324254
 20
199.2865506580292
 30
0.0
 11
0.1056813119321305
 21
207.51074188132949
 31
0.0
  0
LINE
  5
12D5
  8
0
 62
     0
 10
7.1881224111311894
 20
199.30576876699519
 30
0.0
 11
0.1056813119303115
 21
206.38820986619609
 31
0.0
  0
LINE
  5
12D6
  8
0
 62
     0
 10
6.125599829476414
 20
199.24575933351659
 30
0.0
 11
0.1056813119321305
 21
205.2656778510609
 31
0.0
  0
LINE
  5
12D7
  8
0
 62
     0
 10
5.128481126335827
 20
199.1203460215238
 30
0.0
 11
0.1056813119321305
 21
204.1431458359275
 31
0.0
  0
LINE
  5
12D8
  8
0
 62
     0
 10
4.1872648508015109
 20
198.93903028192469
 30
0.0
 11
0.1056813119321305
 21
203.0206138207941
 31
0.0
  0
LINE
  5
12D9
  8
0
 62
     0
 10
3.2951234801857932
 20
198.708639637407
 30
0.0
 11
0.1056813119303115
 21
201.89808180566251
 31
0.0
  0
LINE
  5
12DA
  8
0
 62
     0
 10
2.4469936175391922
 20
198.43423748491841
 30
0.0
 11
0.1056813119303115
 21
200.77554979052729
 31
0.0
  0
LINE
  5
12DB
  8
0
 62
     0
 10
1.6390369757245931
 20
198.1196621116014
 30
0.0
 11
0.1056813119321305
 21
199.65301777539389
 31
0.0
  0
LINE
  5
12DC
  8
0
 62
     0
 10
0.8683034106943524
 20
197.76786366149821
 30
0.0
 11
0.1056813119339495
 21
198.53048576025861
 31
0.0
  0
LINE
  5
12DD
  8
0
 62
     0
 10
0.1325114662213309
 20
197.3811235908378
 30
0.0
 11
0.1056813119303115
 21
197.40795374512891
 31
0.0
  0
ENDBLK
  5
12DF
  8
0
  0
BLOCK
  8
0
  2
*X39
 70
     1
 10
0.0
 20
0.0
 30
0.0
  3
*X39
  1

  0
LINE
  5
12E1
  8
0
 62
     0
 10
11.827593127829321
 20
59.895710213059459
 30
0.0
 11
10.45277779932152
 21
60.689460213059469
 31
0.0
  0
LINE
  5
12E2
  8
0
 62
     0
 10
15.005681311929949
 20
58.060840144460599
 30
0.0
 11
14.577223784844911
 21
58.308210213059468
 31
0.0
  0
LINE
  5
12E3
  8
0
 62
     0
 10
6.3283321423055501
 20
59.895710782052262
 30
0.0
 11
4.9535168137977541
 21
60.689460782052272
 31
0.0
  0
LINE
  5
12E4
  8
0
 62
     0
 10
10.45277812782893
 20
57.514460782052261
 30
0.0
 11
9.077962799321142
 21
58.308210782052271
 31
0.0
  0
LINE
  5
12E5
  8
0
 62
     0
 10
14.577224113352321
 20
55.133210782052259
 30
0.0
 11
13.202408784844531
 21
55.926960782052269
 31
0.0
  0
LINE
  5
12E6
  8
0
 62
     0
 10
0.829071156782966
 20
59.895711351045442
 30
0.0
 11
0.0056813119317041
 21
60.371095699618309
 31
0.0
  0
LINE
  5
12E7
  8
0
 62
     0
 10
4.9535171423063531
 20
57.514461351045441
 30
0.0
 11
3.578701813798558
 21
58.308211351045429
 31
0.0
  0
LINE
  5
12E8
  8
0
 62
     0
 10
9.0779631278297401
 20
55.133211351045432
 30
0.0
 11
7.703147799321945
 21
55.926961351045428
 31
0.0
  0
LINE
  5
12E9
  8
0
 62
     0
 10
13.202409113353131
 20
52.751961351045431
 30
0.0
 11
11.82759378484533
 21
53.545711351045433
 31
0.0
  0
LINE
  5
12EA
  8
0
 62
     0
 10
3.578702142308487
 20
55.133211920035869
 30
0.0
 11
2.2038868138006911
 21
55.926961920035872
 31
0.0
  0
LINE
  5
12EB
  8
0
 62
     0
 10
7.7031481278318754
 20
52.751961920035868
 30
0.0
 11
6.3283327993240794
 21
53.54571192003587
 31
0.0
  0
LINE
  5
12EC
  8
0
 62
     0
 10
11.827594113355261
 20
50.370711920035873
 30
0.0
 11
10.45277878484746
 21
51.164461920035869
 31
0.0
  0
LINE
  5
12ED
  8
0
 62
     0
 10
15.00568131193176
 20
48.535842420429617
 30
0.0
 11
14.577224770370851
 21
48.78321192003586
 31
0.0
  0
LINE
  5
12EE
  8
0
 62
     0
 10
2.2038871423062858
 20
52.751962489028671
 30
0.0
 11
0.8290718137984907
 21
53.545712489028681
 31
0.0
  0
LINE
  5
12EF
  8
0
 62
     0
 10
6.3283331278296737
 20
50.370712489028669
 30
0.0
 11
4.9535177993218777
 21
51.164462489028672
 31
0.0
  0
LINE
  5
12F0
  8
0
 62
     0
 10
10.45277911335306
 20
47.989462489028668
 30
0.0
 11
9.0779637848452666
 21
48.783212489028671
 31
0.0
  0
LINE
  5
12F1
  8
0
 62
     0
 10
14.57722509887645
 20
45.608212489028659
 30
0.0
 11
13.20240977036865
 21
46.401962489028662
 31
0.0
  0
LINE
  5
12F2
  8
0
 62
     0
 10
0.8290721423068455
 20
50.370713058020932
 30
0.0
 11
0.0056813119298841
 21
50.846097975587341
 31
0.0
  0
LINE
  5
12F3
  8
0
 62
     0
 10
4.9535181278302334
 20
47.989463058020917
 30
0.0
 11
3.578702799322437
 21
48.78321305802092
 31
0.0
  0
LINE
  5
12F4
  8
0
 62
     0
 10
9.0779641133536213
 20
45.608213058020922
 30
0.0
 11
7.7031487848458253
 21
46.401963058020918
 31
0.0
  0
LINE
  5
12F5
  8
0
 62
     0
 10
13.20241009887701
 20
43.226963058020921
 30
0.0
 11
11.82759477036921
 21
44.020713058020917
 31
0.0
  0
LINE
  5
12F6
  8
0
 62
     0
 10
3.578703127830575
 20
45.608213627013541
 30
0.0
 11
2.203887799322779
 21
46.401963627013536
 31
0.0
  0
LINE
  5
12F7
  8
0
 62
     0
 10
7.7031491133539634
 20
43.226963627013532
 30
0.0
 11
6.3283337848461674
 21
44.020713627013542
 31
0.0
  0
LINE
  5
12F8
  8
0
 62
     0
 10
2.2038881278309099
 20
43.226964196004339
 30
0.0
 11
0.8290727993231143
 21
44.020714196004342
 31
0.0
  0
LINE
  5
12F9
  8
0
 62
     0
 10
2.206950148998911
 20
60.68761326439494
 30
0.0
 11
0.8321348204911174
 21
59.893863264394938
 31
0.0
  0
LINE
  5
12FA
  8
0
 62
     0
 10
3.5817651489998821
 20
58.306363833387167
 30
0.0
 11
2.2069498204920892
 21
57.512613833387178
 31
0.0
  0
LINE
  5
12FB
  8
0
 62
     0
 10
7.7062111345232651
 20
60.687613833387161
 30
0.0
 11
6.33139580601547
 21
59.893863833387158
 31
0.0
  0
LINE
  5
12FC
  8
0
 62
     0
 10
0.8321341634758263
 20
53.543864402379498
 30
0.0
 11
0.0056813119311757
 21
53.066711626067658
 31
0.0
  0
LINE
  5
12FD
  8
0
 62
     0
 10
4.9565801489992083
 20
55.925114402379492
 30
0.0
 11
3.5817648204914141
 21
55.131364402379504
 31
0.0
  0
LINE
  5
12FE
  8
0
 62
     0
 10
9.0810261345225882
 20
58.306364402379479
 30
0.0
 11
7.7062108060147949
 21
57.512614402379477
 31
0.0
  0
LINE
  5
12FF
  8
0
 62
     0
 10
13.20547212004597
 20
60.687614402379459
 30
0.0
 11
11.83065679153818
 21
59.893864402379471
 31
0.0
  0
LINE
  5
1300
  8
0
 62
     0
 10
2.2069491634768581
 20
51.16261497137176
 30
0.0
 11
0.8321338349690641
 21
50.368864971371757
 31
0.0
  0
LINE
  5
1301
  8
0
 62
     0
 10
6.3313951490002403
 20
53.54386497137174
 30
0.0
 11
4.9565798204924461
 21
52.750114971371751
 31
0.0
  0
LINE
  5
1302
  8
0
 62
     0
 10
10.45584113452362
 20
55.925114971371741
 30
0.0
 11
9.0810258060158286
 21
55.131364971371738
 31
0.0
  0
LINE
  5
1303
  8
0
 62
     0
 10
14.580287120047
 20
58.306364971371721
 30
0.0
 11
13.20547179153921
 21
57.512614971371718
 31
0.0
  0
LINE
  5
1304
  8
0
 62
     0
 10
3.5817641634760138
 20
48.781365540363979
 30
0.0
 11
2.20694883496822
 21
47.987615540363983
 31
0.0
  0
LINE
  5
1305
  8
0
 62
     0
 10
7.7062101489993964
 20
51.162615540363973
 30
0.0
 11
6.3313948204916022
 21
50.368865540363977
 31
0.0
  0
LINE
  5
1306
  8
0
 62
     0
 10
11.83065613452278
 20
53.54386554036396
 30
0.0
 11
10.455840806014979
 21
52.750115540363957
 31
0.0
  0
LINE
  5
1307
  8
0
 62
     0
 10
15.005681311931029
 20
55.376967181224437
 30
0.0
 11
14.58028679153837
 21
55.131365540363952
 31
0.0
  0
LINE
  5
1308
  8
0
 62
     0
 10
0.8321331779532648
 20
44.01886610935707
 30
0.0
 11
0.0056813119299818
 21
43.54171390203625
 31
0.0
  0
LINE
  5
1309
  8
0
 62
     0
 10
4.9565791634766461
 20
46.40011610935705
 30
0.0
 11
3.5817638349688519
 21
45.606366109357062
 31
0.0
  0
LINE
  5
130A
  8
0
 62
     0
 10
9.0810251490000287
 20
48.781366109357052
 30
0.0
 11
7.7062098204922336
 21
47.987616109357049
 31
0.0
  0
LINE
  5
130B
  8
0
 62
     0
 10
13.20547113452341
 20
51.162616109357032
 30
0.0
 11
11.83065580601561
 21
50.368866109357029
 31
0.0
  0
LINE
  5
130C
  8
0
 62
     0
 10
6.3313941634762498
 20
44.018866678348481
 30
0.0
 11
4.9565788349684556
 21
43.225116678348492
 31
0.0
  0
LINE
  5
130D
  8
0
 62
     0
 10
10.455840148999631
 20
46.400116678348468
 30
0.0
 11
9.0810248204918391
 21
45.606366678348479
 31
0.0
  0
LINE
  5
130E
  8
0
 62
     0
 10
14.580286134523011
 20
48.781366678348462
 30
0.0
 11
13.205470806015221
 21
47.987616678348459
 31
0.0
  0
LINE
  5
130F
  8
0
 62
     0
 10
11.830655148998879
 20
44.018867247340751
 30
0.0
 11
10.455839820491089
 21
43.225117247340762
 31
0.0
  0
LINE
  5
1310
  8
0
 62
     0
 10
15.005681311930569
 20
45.851969457193462
 30
0.0
 11
14.580285806014469
 21
45.606367247340749
 31
0.0
  0
LINE
  5
1311
  8
0
 62
     0
 10
13.205538150109531
 20
60.691190518315842
 30
0.0
 11
13.205538150109531
 21
61.83855859284084
 31
0.0
  0
LINE
  5
1312
  8
0
 62
     0
 10
13.205538150109531
 20
55.92869051831584
 30
0.0
 11
13.205538150109531
 21
57.516190518315838
 31
0.0
  0
LINE
  5
1313
  8
0
 62
     0
 10
13.205538150109531
 20
51.166190518315837
 30
0.0
 11
13.205538150109531
 21
52.753690518315842
 31
0.0
  0
LINE
  5
1314
  8
0
 62
     0
 10
13.205538150109531
 20
46.403690518315841
 30
0.0
 11
13.205538150109531
 21
47.99119051831584
 31
0.0
  0
LINE
  5
1315
  8
0
 62
     0
 10
13.205538150109531
 20
41.838558592840847
 30
0.0
 11
13.205538150109531
 21
43.228690518315851
 31
0.0
  0
LINE
  5
1316
  8
0
 62
     0
 10
10.45590815010927
 20
60.691190518315842
 30
0.0
 11
10.45590815010927
 21
61.83855859284084
 31
0.0
  0
LINE
  5
1317
  8
0
 62
     0
 10
10.45590815010927
 20
55.92869051831584
 30
0.0
 11
10.45590815010927
 21
57.516190518315838
 31
0.0
  0
LINE
  5
1318
  8
0
 62
     0
 10
10.45590815010927
 20
51.166190518315837
 30
0.0
 11
10.45590815010927
 21
52.753690518315842
 31
0.0
  0
LINE
  5
1319
  8
0
 62
     0
 10
10.45590815010927
 20
46.403690518315841
 30
0.0
 11
10.45590815010927
 21
47.99119051831584
 31
0.0
  0
LINE
  5
131A
  8
0
 62
     0
 10
10.45590815010927
 20
41.838558592840847
 30
0.0
 11
10.45590815010927
 21
43.228690518315851
 31
0.0
  0
LINE
  5
131B
  8
0
 62
     0
 10
7.7062781501090241
 20
60.691190518315842
 30
0.0
 11
7.7062781501090241
 21
61.83855859284084
 31
0.0
  0
LINE
  5
131C
  8
0
 62
     0
 10
7.7062781501090241
 20
55.92869051831584
 30
0.0
 11
7.7062781501090241
 21
57.516190518315838
 31
0.0
  0
LINE
  5
131D
  8
0
 62
     0
 10
7.7062781501090241
 20
51.166190518315837
 30
0.0
 11
7.7062781501090241
 21
52.753690518315842
 31
0.0
  0
LINE
  5
131E
  8
0
 62
     0
 10
7.7062781501090241
 20
46.403690518315841
 30
0.0
 11
7.7062781501090241
 21
47.99119051831584
 31
0.0
  0
LINE
  5
131F
  8
0
 62
     0
 10
7.7062781501090241
 20
41.838558592840847
 30
0.0
 11
7.7062781501090241
 21
43.228690518315851
 31
0.0
  0
LINE
  5
1320
  8
0
 62
     0
 10
4.956648150108772
 20
60.691190518315842
 30
0.0
 11
4.956648150108772
 21
61.83855859284084
 31
0.0
  0
LINE
  5
1321
  8
0
 62
     0
 10
4.956648150108772
 20
55.92869051831584
 30
0.0
 11
4.956648150108772
 21
57.516190518315838
 31
0.0
  0
LINE
  5
1322
  8
0
 62
     0
 10
4.956648150108772
 20
51.166190518315837
 30
0.0
 11
4.956648150108772
 21
52.753690518315842
 31
0.0
  0
LINE
  5
1323
  8
0
 62
     0
 10
4.956648150108772
 20
46.403690518315841
 30
0.0
 11
4.956648150108772
 21
47.99119051831584
 31
0.0
  0
LINE
  5
1324
  8
0
 62
     0
 10
4.956648150108772
 20
41.838558592840847
 30
0.0
 11
4.956648150108772
 21
43.228690518315851
 31
0.0
  0
LINE
  5
1325
  8
0
 62
     0
 10
2.20701815010852
 20
60.691190518315842
 30
0.0
 11
2.20701815010852
 21
61.83855859284084
 31
0.0
  0
LINE
  5
1326
  8
0
 62
     0
 10
2.20701815010852
 20
55.92869051831584
 30
0.0
 11
2.20701815010852
 21
57.516190518315838
 31
0.0
  0
LINE
  5
1327
  8
0
 62
     0
 10
2.20701815010852
 20
51.166190518315837
 30
0.0
 11
2.20701815010852
 21
52.753690518315842
 31
0.0
  0
LINE
  5
1328
  8
0
 62
     0
 10
2.20701815010852
 20
46.403690518315841
 30
0.0
 11
2.20701815010852
 21
47.99119051831584
 31
0.0
  0
LINE
  5
1329
  8
0
 62
     0
 10
2.20701815010852
 20
41.838558592840847
 30
0.0
 11
2.20701815010852
 21
43.228690518315851
 31
0.0
  0
ENDBLK
  5
132B
  8
0
  0
BLOCK
  8
0
  2
*X40
 70
     1
 10
0.0
 20
0.0
 30
0.0
  3
*X40
  1

  0
LINE
  5
132D
  8
0
 62
     0
 10
10.452767287072479
 20
198.3145598224196
 30
0.0
 11
10.39961080591755
 21
198.3452497311236
 31
0.0
  0
LINE
  5
132E
  8
0
 62
     0
 10
12.514990279834169
 20
197.12393482241961
 30
0.0
 11
11.827582615580271
 21
197.52080982241961
 31
0.0
  0
LINE
  5
132F
  8
0
 62
     0
 10
14.47359676956148
 20
195.99313283833899
 30
0.0
 11
13.88980560834197
 21
196.33018482241971
 31
0.0
  0
LINE
  5
1330
  8
0
 62
     0
 10
7.7031367943099358
 20
198.31456010691559
 30
0.0
 11
7.1020298344284987
 21
198.66160937201491
 31
0.0
  0
LINE
  5
1331
  8
0
 62
     0
 10
9.7653597870716311
 20
197.12393510691561
 30
0.0
 11
9.0779521228177291
 21
197.5208101069156
 31
0.0
  0
LINE
  5
1332
  8
0
 62
     0
 10
11.827582779833319
 20
195.9333101069156
 30
0.0
 11
11.140175115579421
 21
196.33018510691559
 31
0.0
  0
LINE
  5
1333
  8
0
 62
     0
 10
13.88980577259502
 20
194.74268510691559
 30
0.0
 11
13.20239810834112
 21
195.13956010691561
 31
0.0
  0
LINE
  5
1334
  8
0
 62
     0
 10
4.9535063015493703
 20
198.3145603914117
 30
0.0
 11
4.8123758723503522
 21
198.3960420827006
 31
0.0
  0
LINE
  5
1335
  8
0
 62
     0
 10
7.015729294311063
 20
197.12393539141169
 30
0.0
 11
6.3283216300571663
 21
197.52081039141169
 31
0.0
  0
LINE
  5
1336
  8
0
 62
     0
 10
9.0779522870727583
 20
195.93331039141171
 30
0.0
 11
8.3905446228188598
 21
196.3301853914117
 31
0.0
  0
LINE
  5
1337
  8
0
 62
     0
 10
11.14017527983445
 20
194.7426853914117
 30
0.0
 11
10.45276761558055
 21
195.13956039141169
 31
0.0
  0
LINE
  5
1338
  8
0
 62
     0
 10
13.20239827259614
 20
193.55206039141169
 30
0.0
 11
12.51499060834224
 21
193.94893539141171
 31
0.0
  0
LINE
  5
1339
  8
0
 62
     0
 10
4.2660988015478498
 20
197.12393567590689
 30
0.0
 11
3.5786911372939518
 21
197.52081067590689
 31
0.0
  0
LINE
  5
133A
  8
0
 62
     0
 10
6.3283217943095442
 20
195.93331067590691
 30
0.0
 11
5.6409141300556458
 21
196.3301856759069
 31
0.0
  0
LINE
  5
133B
  8
0
 62
     0
 10
8.3905447870712386
 20
194.7426856759069
 30
0.0
 11
7.7031371228173402
 21
195.13956067590689
 31
0.0
  0
LINE
  5
133C
  8
0
 62
     0
 10
10.45276777983293
 20
193.552060675907
 30
0.0
 11
9.7653601155790337
 21
193.94893567590691
 31
0.0
  0
LINE
  5
133D
  8
0
 62
     0
 10
12.51499077259462
 20
192.36143567590699
 30
0.0
 11
11.82758310834072
 21
192.75831067590701
 31
0.0
  0
LINE
  5
133E
  8
0
 62
     0
 10
3.578691301547956
 20
195.93331096040319
 30
0.0
 11
2.8912836372940558
 21
196.33018596040321
 31
0.0
  0
LINE
  5
133F
  8
0
 62
     0
 10
5.6409142943096491
 20
194.74268596040321
 30
0.0
 11
4.9535066300557498
 21
195.1395609604032
 31
0.0
  0
LINE
  5
1340
  8
0
 62
     0
 10
7.7031372870713426
 20
193.5520609604032
 30
0.0
 11
7.0157296228174442
 21
193.94893596040319
 31
0.0
  0
LINE
  5
1341
  8
0
 62
     0
 10
9.7653602798330361
 20
192.36143596040321
 30
0.0
 11
9.0779526155791377
 21
192.75831096040321
 31
0.0
  0
LINE
  5
1342
  8
0
 62
     0
 10
11.559312029363349
 20
191.3256974348987
 30
0.0
 11
11.140175608340829
 21
191.5676859604032
 31
0.0
  0
LINE
  5
1343
  8
0
 62
     0
 10
0.8290608087880556
 20
195.9333112448993
 30
0.0
 11
0.568884885547208
 21
196.08352388421909
 31
0.0
  0
LINE
  5
1344
  8
0
 62
     0
 10
2.8912838015497488
 20
194.7426862448994
 30
0.0
 11
2.2038761372958491
 21
195.1395612448994
 31
0.0
  0
LINE
  5
1345
  8
0
 62
     0
 10
4.9535067943114433
 20
193.55206124489939
 30
0.0
 11
4.266099130057543
 21
193.94893624489939
 31
0.0
  0
LINE
  5
1346
  8
0
 62
     0
 10
7.0157297870731359
 20
192.36143624489941
 30
0.0
 11
6.3283221228192366
 21
192.7583112448994
 31
0.0
  0
LINE
  5
1347
  8
0
 62
     0
 10
9.0779527798348312
 20
191.1708112448994
 30
0.0
 11
8.3905451155809292
 21
191.56768624489939
 31
0.0
  0
LINE
  5
1348
  8
0
 62
     0
 10
0.1416533087882117
 20
194.74268652939381
 30
0.0
 11
0.0918516694789657
 21
194.7714395192551
 31
0.0
  0
LINE
  5
1349
  8
0
 62
     0
 10
2.2038763015499052
 20
193.5520615293938
 30
0.0
 11
1.516468637296007
 21
193.9489365293939
 31
0.0
  0
LINE
  5
134A
  8
0
 62
     0
 10
4.2660992943115987
 20
192.3614365293939
 30
0.0
 11
3.5786916300577012
 21
192.75831152939389
 31
0.0
  0
LINE
  5
134B
  8
0
 62
     0
 10
6.3283222870732931
 20
191.17081152939389
 30
0.0
 11
5.6409146228193947
 21
191.56768652939391
 31
0.0
  0
LINE
  5
134C
  8
0
 62
     0
 10
1.5164688015466301
 20
192.36143681389311
 30
0.0
 11
1.2549726619412029
 21
192.51241168048631
 31
0.0
  0
LINE
  5
134D
  8
0
 62
     0
 10
3.1010543681077252
 20
191.44657591048511
 30
0.0
 11
2.891284130054427
 21
191.56768681389309
 31
0.0
  0
LINE
  5
134E
  8
0
 62
     0
 10
0.8321450042332108
 20
195.1377134427467
 30
0.0
 11
0.1447373399793146
 21
194.74083844274671
 31
0.0
  0
LINE
  5
134F
  8
0
 62
     0
 10
2.894367996994903
 20
196.32833844274671
 30
0.0
 11
2.2069603327410059
 21
195.93146344274669
 31
0.0
  0
LINE
  5
1350
  8
0
 62
     0
 10
4.9565909897565961
 20
197.5189634427467
 30
0.0
 11
4.2691833255026994
 21
197.1220884427467
 31
0.0
  0
LINE
  5
1351
  8
0
 62
     0
 10
6.9250047492550939
 20
198.6554276566697
 30
0.0
 11
6.331406318264392
 21
198.31271344274671
 31
0.0
  0
LINE
  5
1352
  8
0
 62
     0
 10
1.5195525042327791
 20
193.94708872724291
 30
0.0
 11
0.8321448399788827
 21
193.55021372724289
 31
0.0
  0
LINE
  5
1353
  8
0
 62
     0
 10
3.5817754969944722
 20
195.13771372724281
 30
0.0
 11
2.8943678327405751
 21
194.74083872724279
 31
0.0
  0
LINE
  5
1354
  8
0
 62
     0
 10
5.6439984897561652
 20
196.32833872724279
 30
0.0
 11
4.9565908255022668
 21
195.9314637272428
 31
0.0
  0
LINE
  5
1355
  8
0
 62
     0
 10
7.706221482517857
 20
197.51896372724281
 30
0.0
 11
7.0188138182639603
 21
197.12208872724281
 31
0.0
  0
LINE
  5
1356
  8
0
 62
     0
 10
9.4482059067926798
 20
198.52469890352199
 30
0.0
 11
9.0810368110256512
 21
198.31271372724279
 31
0.0
  0
LINE
  5
1357
  8
0
 62
     0
 10
2.206960004233812
 20
192.75646401173981
 30
0.0
 11
1.5195523399799149
 21
192.35958901173981
 31
0.0
  0
LINE
  5
1358
  8
0
 62
     0
 10
4.2691829969955046
 20
193.94708901173979
 30
0.0
 11
3.5817753327416071
 21
193.5502140117398
 31
0.0
  0
LINE
  5
1359
  8
0
 62
     0
 10
6.3314059897571981
 20
195.13771401173969
 30
0.0
 11
5.6439983255032997
 21
194.74083901173981
 31
0.0
  0
LINE
  5
135A
  8
0
 62
     0
 10
8.3936289825188908
 20
196.3283390117397
 30
0.0
 11
7.7062213182649932
 21
195.93146401173979
 31
0.0
  0
LINE
  5
135B
  8
0
 62
     0
 10
10.455851975280581
 20
197.51896401173971
 30
0.0
 11
9.7684443110266859
 21
197.12208901173969
 31
0.0
  0
LINE
  5
135C
  8
0
 62
     0
 10
2.8943675042338892
 20
191.5658392962352
 30
0.0
 11
2.8607275219041011
 21
191.54641724338151
 31
0.0
  0
LINE
  5
135D
  8
0
 62
     0
 10
4.956590496995581
 20
192.75646429623521
 30
0.0
 11
4.2691828327416843
 21
192.35958929623521
 31
0.0
  0
LINE
  5
135E
  8
0
 62
     0
 10
7.0188134897572736
 20
193.94708929623511
 30
0.0
 11
6.3314058255033761
 21
193.55021429623511
 31
0.0
  0
LINE
  5
135F
  8
0
 62
     0
 10
9.0810364825189662
 20
195.13771429623509
 30
0.0
 11
8.3936288182650696
 21
194.74083929623509
 31
0.0
  0
LINE
  5
1360
  8
0
 62
     0
 10
11.14325947528066
 20
196.3283392962351
 30
0.0
 11
10.45585181102676
 21
195.93146429623511
 31
0.0
  0
LINE
  5
1361
  8
0
 62
     0
 10
12.94709640962173
 20
197.36978503585109
 30
0.0
 11
12.51807480378845
 21
197.12208929623509
 31
0.0
  0
LINE
  5
1362
  8
0
 62
     0
 10
5.643997996995175
 20
191.56583958073119
 30
0.0
 11
4.9565903327412784
 21
191.16896458073131
 31
0.0
  0
LINE
  5
1363
  8
0
 62
     0
 10
7.7062209897568676
 20
192.7564645807312
 30
0.0
 11
7.0188133255029701
 21
192.3595895807313
 31
0.0
  0
LINE
  5
1364
  8
0
 62
     0
 10
9.7684439825185603
 20
193.94708958073119
 30
0.0
 11
9.0810363182646636
 21
193.55021458073119
 31
0.0
  0
LINE
  5
1365
  8
0
 62
     0
 10
11.83066697528025
 20
195.1377145807312
 30
0.0
 11
11.14325931102635
 21
194.7408395807312
 31
0.0
  0
LINE
  5
1366
  8
0
 62
     0
 10
13.89288996804194
 20
196.32833958073121
 30
0.0
 11
13.20548230378804
 21
195.93146458073119
 31
0.0
  0
LINE
  5
1367
  8
0
 62
     0
 10
8.3936284897564697
 20
191.56583986522739
 30
0.0
 11
7.7062208255025721
 21
191.16896486522739
 31
0.0
  0
LINE
  5
1368
  8
0
 62
     0
 10
10.45585148251816
 20
192.75646486522729
 30
0.0
 11
9.7684438182642648
 21
192.35958986522741
 31
0.0
  0
LINE
  5
1369
  8
0
 62
     0
 10
12.51807447527985
 20
193.9470898652273
 30
0.0
 11
11.830666811025949
 21
193.5502148652273
 31
0.0
  0
LINE
  5
136A
  8
0
 62
     0
 10
14.58029746804154
 20
195.13771486522731
 30
0.0
 11
13.89288980378765
 21
194.74083986522729
 31
0.0
  0
LINE
  5
136B
  8
0
 62
     0
 10
11.143258982517811
 20
191.5658401497235
 30
0.0
 11
10.45585131826391
 21
191.1689651497235
 31
0.0
  0
LINE
  5
136C
  8
0
 62
     0
 10
13.205481975279501
 20
192.75646514972351
 30
0.0
 11
12.5180743110256
 21
192.35959014972349
 31
0.0
  0
LINE
  5
136D
  8
0
 62
     0
 10
14.605486581534221
 20
193.5647581860114
 30
0.0
 11
14.58029730378729
 21
193.5502151497235
 31
0.0
  0
LINE
  5
136E
  8
0
 62
     0
 10
14.580353150108751
 20
195.14130833542509
 30
0.0
 11
14.580353150108751
 21
195.8158212267663
 31
0.0
  0
LINE
  5
136F
  8
0
 62
     0
 10
14.580353150108751
 20
193.5184368972804
 30
0.0
 11
14.580353150108751
 21
193.55380833542509
 31
0.0
  0
LINE
  5
1370
  8
0
 62
     0
 10
13.205538150109531
 20
195.1413083354247
 30
0.0
 11
13.205538150109531
 21
195.93505833542471
 31
0.0
  0
LINE
  5
1371
  8
0
 62
     0
 10
13.205538150109531
 20
192.7600583354247
 30
0.0
 11
13.205538150109531
 21
193.55380833542469
 31
0.0
  0
LINE
  5
1372
  8
0
 62
     0
 10
11.830723150108501
 20
197.52255833542469
 30
0.0
 11
11.830723150108501
 21
197.90728292657869
 31
0.0
  0
LINE
  5
1373
  8
0
 62
     0
 10
11.830723150108501
 20
195.1413083354247
 30
0.0
 11
11.830723150108501
 21
195.93505833542471
 31
0.0
  0
LINE
  5
1374
  8
0
 62
     0
 10
11.830723150108501
 20
192.7600583354247
 30
0.0
 11
11.830723150108501
 21
193.55380833542469
 31
0.0
  0
LINE
  5
1375
  8
0
 62
     0
 10
10.455908150109281
 20
197.52255833542469
 30
0.0
 11
10.455908150109281
 21
198.31630833542471
 31
0.0
  0
LINE
  5
1376
  8
0
 62
     0
 10
10.455908150109281
 20
195.1413083354247
 30
0.0
 11
10.455908150109281
 21
195.93505833542471
 31
0.0
  0
LINE
  5
1377
  8
0
 62
     0
 10
10.455908150109281
 20
192.7600583354247
 30
0.0
 11
10.455908150109281
 21
193.55380833542469
 31
0.0
  0
LINE
  5
1378
  8
0
 62
     0
 10
10.455908150109281
 20
191.00216192617509
 30
0.0
 11
10.455908150109281
 21
191.1725583354247
 31
0.0
  0
LINE
  5
1379
  8
0
 62
     0
 10
9.0810931501082486
 20
197.52255833542469
 30
0.0
 11
9.0810931501082486
 21
198.31630833542471
 31
0.0
  0
LINE
  5
137A
  8
0
 62
     0
 10
9.0810931501082486
 20
195.1413083354247
 30
0.0
 11
9.0810931501082486
 21
195.93505833542471
 31
0.0
  0
LINE
  5
137B
  8
0
 62
     0
 10
9.0810931501082486
 20
192.7600583354247
 30
0.0
 11
9.0810931501082486
 21
193.55380833542469
 31
0.0
  0
LINE
  5
137C
  8
0
 62
     0
 10
9.0810931501082486
 20
190.76056261785189
 30
0.0
 11
9.0810931501082486
 21
191.1725583354247
 31
0.0
  0
LINE
  5
137D
  8
0
 62
     0
 10
7.7062781501090312
 20
197.52255833542469
 30
0.0
 11
7.7062781501090312
 21
198.31630833542471
 31
0.0
  0
LINE
  5
137E
  8
0
 62
     0
 10
7.7062781501090312
 20
195.1413083354247
 30
0.0
 11
7.7062781501090312
 21
195.93505833542471
 31
0.0
  0
LINE
  5
137F
  8
0
 62
     0
 10
7.7062781501090312
 20
192.7600583354247
 30
0.0
 11
7.7062781501090312
 21
193.55380833542469
 31
0.0
  0
LINE
  5
1380
  8
0
 62
     0
 10
7.7062781501090312
 20
190.6688258101876
 30
0.0
 11
7.7062781501090312
 21
191.1725583354247
 31
0.0
  0
LINE
  5
1381
  8
0
 62
     0
 10
6.3314631501098138
 20
197.52255833542469
 30
0.0
 11
6.3314631501098138
 21
198.31630833542471
 31
0.0
  0
LINE
  5
1382
  8
0
 62
     0
 10
6.3314631501098138
 20
195.1413083354247
 30
0.0
 11
6.3314631501098138
 21
195.93505833542471
 31
0.0
  0
LINE
  5
1383
  8
0
 62
     0
 10
6.3314631501098138
 20
192.7600583354247
 30
0.0
 11
6.3314631501098138
 21
193.55380833542469
 31
0.0
  0
LINE
  5
1384
  8
0
 62
     0
 10
6.3314631501098138
 20
190.71649789225191
 30
0.0
 11
6.3314631501098138
 21
191.1725583354247
 31
0.0
  0
LINE
  5
1385
  8
0
 62
     0
 10
4.9566481501087791
 20
197.52255833542469
 30
0.0
 11
4.9566481501087791
 21
198.31630833542471
 31
0.0
  0
LINE
  5
1386
  8
0
 62
     0
 10
4.9566481501087791
 20
195.1413083354247
 30
0.0
 11
4.9566481501087791
 21
195.93505833542471
 31
0.0
  0
LINE
  5
1387
  8
0
 62
     0
 10
4.9566481501087791
 20
192.7600583354247
 30
0.0
 11
4.9566481501087791
 21
193.55380833542469
 31
0.0
  0
LINE
  5
1388
  8
0
 62
     0
 10
4.9566481501087791
 20
190.90888018515031
 30
0.0
 11
4.9566481501087791
 21
191.1725583354247
 31
0.0
  0
LINE
  5
1389
  8
0
 62
     0
 10
3.5818331501095622
 20
197.52255833542469
 30
0.0
 11
3.5818331501095622
 21
198.0637851877581
 31
0.0
  0
LINE
  5
138A
  8
0
 62
     0
 10
3.5818331501095622
 20
195.1413083354247
 30
0.0
 11
3.5818331501095622
 21
195.93505833542471
 31
0.0
  0
LINE
  5
138B
  8
0
 62
     0
 10
3.5818331501095622
 20
192.7600583354247
 30
0.0
 11
3.5818331501095622
 21
193.55380833542469
 31
0.0
  0
LINE
  5
138C
  8
0
 62
     0
 10
2.2070181501085271
 20
195.1413083354247
 30
0.0
 11
2.2070181501085271
 21
195.93505833542471
 31
0.0
  0
LINE
  5
138D
  8
0
 62
     0
 10
2.2070181501085271
 20
192.7600583354247
 30
0.0
 11
2.2070181501085271
 21
193.55380833542469
 31
0.0
  0
LINE
  5
138E
  8
0
 62
     0
 10
0.832203150109311
 20
195.14130833542509
 30
0.0
 11
0.832203150109311
 21
195.93505833542511
 31
0.0
  0
LINE
  5
138F
  8
0
 62
     0
 10
0.8322031501093109
 20
192.92052665348641
 30
0.0
 11
0.8322031501093109
 21
193.55380833542509
 31
0.0
  0
ENDBLK
  5
1391
  8
0
  0
BLOCK
  8
0
  2
*X41
 70
     1
 10
0.0
 20
0.0
 30
0.0
  3
*X41
  1

  0
LINE
  5
1393
  8
0
 62
     0
 10
0.8029776423718431
 20
211.88263337222909
 30
0.0
 11
0.1056813119321305
 21
211.18533704178941
 31
0.0
  0
LINE
  5
1394
  8
0
 62
     0
 10
1.5705912894927669
 20
211.52771500421659
 30
0.0
 11
0.1056813119316757
 21
210.0628050266555
 31
0.0
  0
LINE
  5
1395
  8
0
 62
     0
 10
2.3752056515613731
 20
211.20979735115179
 30
0.0
 11
0.1056813119321305
 21
208.94027301152249
 31
0.0
  0
LINE
  5
1396
  8
0
 62
     0
 10
3.2197053037584729
 20
210.93176498821549
 30
0.0
 11
0.1056813119316757
 21
207.81774099638869
 31
0.0
  0
LINE
  5
1397
  8
0
 62
     0
 10
4.1078400655510441
 20
210.69736773487469
 30
0.0
 11
0.1056813119321305
 21
206.69520898125569
 31
0.0
  0
LINE
  5
1398
  8
0
 62
     0
 10
5.0445491621562724
 20
210.51154481634421
 30
0.0
 11
0.1056813119321305
 21
205.5726769661205
 31
0.0
  0
LINE
  5
1399
  8
0
 62
     0
 10
6.0364776748001532
 20
210.38094131385699
 30
0.0
 11
0.1056813119321305
 21
204.450144950989
 31
0.0
  0
LINE
  5
139A
  8
0
 62
     0
 10
7.0928436757917552
 20
210.31477529971329
 30
0.0
 11
0.1056813119321305
 21
203.32761293585369
 31
0.0
  0
LINE
  5
139B
  8
0
 62
     0
 10
8.2269982583475212
 20
210.32639786713571
 30
0.0
 11
0.1056813119321305
 21
202.20508092072029
 31
0.0
  0
LINE
  5
139C
  8
0
 62
     0
 10
9.4595063737347118
 20
210.4363739673895
 30
0.0
 11
0.1056813119321305
 21
201.08254890558689
 31
0.0
  0
LINE
  5
139D
  8
0
 62
     0
 10
10.82509202942674
 20
210.6794276079481
 30
0.0
 11
0.1056813119307662
 21
199.9600168904521
 31
0.0
  0
LINE
  5
139E
  8
0
 62
     0
 10
12.391860158866161
 20
211.12366372225421
 30
0.0
 11
0.105681311931221
 21
198.83748487531869
 31
0.0
  0
LINE
  5
139F
  8
0
 62
     0
 10
14.33911621280185
 20
211.94838776105641
 30
0.0
 11
0.1056813119307662
 21
197.71495286018529
 31
0.0
  0
LINE
  5
13A0
  8
0
 62
     0
 10
14.90568131193049
 20
211.3924208450517
 30
0.0
 11
1.6284340100924051
 21
198.11517354321359
 31
0.0
  0
LINE
  5
13A1
  8
0
 62
     0
 10
14.905681311932311
 20
210.2698888299183
 30
0.0
 11
3.3644307394674788
 21
198.72863825745341
 31
0.0
  0
LINE
  5
13A2
  8
0
 62
     0
 10
14.90568131193049
 20
209.14735681478311
 30
0.0
 11
4.8274176590452953
 21
199.0690931618978
 31
0.0
  0
LINE
  5
13A3
  8
0
 62
     0
 10
14.905681311932311
 20
208.02482479965141
 30
0.0
 11
6.1267187570088018
 21
199.2458622447275
 31
0.0
  0
LINE
  5
13A4
  8
0
 62
     0
 10
14.90568131193095
 20
206.90229278451619
 30
0.0
 11
7.3112502353369564
 21
199.30786170792271
 31
0.0
  0
LINE
  5
13A5
  8
0
 62
     0
 10
14.90568131193095
 20
205.7797607693833
 30
0.0
 11
8.4079869896918353
 21
199.28206644714419
 31
0.0
  0
LINE
  5
13A6
  8
0
 62
     0
 10
14.90568131193095
 20
204.65722875424939
 30
0.0
 11
9.4336691736821194
 21
199.18521661600099
 31
0.0
  0
LINE
  5
13A7
  8
0
 62
     0
 10
14.90568131193095
 20
203.5346967391165
 30
0.0
 11
10.39950532035027
 21
199.02852074753579
 31
0.0
  0
LINE
  5
13A8
  8
0
 62
     0
 10
14.905681311931399
 20
202.4121647239817
 30
0.0
 11
11.31340218749483
 21
198.8198855995451
 31
0.0
  0
LINE
  5
13A9
  8
0
 62
     0
 10
14.90568131192958
 20
201.28963270884651
 30
0.0
 11
12.181147189711281
 21
198.56509858662821
 31
0.0
  0
LINE
  5
13AA
  8
0
 62
     0
 10
14.905681311931399
 20
200.1671006937149
 30
0.0
 11
13.00708827926792
 21
198.26850766105139
 31
0.0
  0
LINE
  5
13AB
  8
0
 62
     0
 10
14.90568131192958
 20
199.04456867857971
 30
0.0
 11
13.794549385328541
 21
197.9334367519786
 31
0.0
  0
LINE
  5
13AC
  8
0
 62
     0
 10
14.90568131193004
 20
197.9220366634467
 30
0.0
 11
14.5460963284795
 21
197.5624516799962
 31
0.0
  0
LINE
  5
13AD
  8
0
 62
     0
 10
14.90568131192958
 20
211.79378613860169
 30
0.0
 11
14.60980562828081
 21
212.08966182225049
 31
0.0
  0
LINE
  5
13AE
  8
0
 62
     0
 10
14.905681311931399
 20
210.67125412346829
 30
0.0
 11
13.861279874392491
 21
211.7156555610072
 31
0.0
  0
LINE
  5
13AF
  8
0
 62
     0
 10
14.905681311931399
 20
209.54872210833491
 30
0.0
 11
13.07703349022813
 21
211.37736993003821
 31
0.0
  0
LINE
  5
13B0
  8
0
 62
     0
 10
14.90568131193322
 20
208.42619009319969
 30
0.0
 11
12.25455724648236
 21
211.07731415865061
 31
0.0
  0
LINE
  5
13B1
  8
0
 62
     0
 10
14.90568131192958
 20
207.30365807806811
 30
0.0
 11
11.39060207726288
 21
210.81873731273481
 31
0.0
  0
LINE
  5
13B2
  8
0
 62
     0
 10
14.905681311931399
 20
206.18112606293289
 30
0.0
 11
10.48092282064499
 21
210.6058845542193
 31
0.0
  0
LINE
  5
13B3
  8
0
 62
     0
 10
14.905681311931399
 20
205.05859404779949
 30
0.0
 11
9.5198792490882624
 21
210.4443961106426
 31
0.0
  0
LINE
  5
13B4
  8
0
 62
     0
 10
14.90568131192958
 20
203.93606203266791
 30
0.0
 11
8.4997861059109692
 21
210.34195723868649
 31
0.0
  0
LINE
  5
13B5
  8
0
 62
     0
 10
14.90568131193322
 20
202.81353001753089
 30
0.0
 11
7.4097894435490161
 21
210.3094218859151
 31
0.0
  0
LINE
  5
13B6
  8
0
 62
     0
 10
14.90568131192958
 20
201.69099800239931
 30
0.0
 11
6.2337646162104638
 21
210.3629146981184
 31
0.0
  0
LINE
  5
13B7
  8
0
 62
     0
 10
14.905681311931399
 20
200.56846598726401
 30
0.0
 11
4.9459330647932802
 21
210.52821423440221
 31
0.0
  0
LINE
  5
13B8
  8
0
 62
     0
 10
14.905681311931399
 20
199.4459339721306
 30
0.0
 11
3.5001418959000139
 21
210.85147338816199
 31
0.0
  0
LINE
  5
13B9
  8
0
 62
     0
 10
14.90568131192958
 20
198.3234019570009
 30
0.0
 11
1.795740712304905
 21
211.4333425566256
 31
0.0
  0
LINE
  5
13BA
  8
0
 62
     0
 10
14.5418612362082
 20
197.564690017587
 30
0.0
 11
0.1056813119321305
 21
212.0008699418631
 31
0.0
  0
LINE
  5
13BB
  8
0
 62
     0
 10
12.541730026659931
 20
198.4422892120019
 30
0.0
 11
0.1056813119339495
 21
210.8783379267297
 31
0.0
  0
LINE
  5
13BC
  8
0
 62
     0
 10
10.951909946956221
 20
198.90957727657221
 30
0.0
 11
0.1056813119303115
 21
209.7558059115982
 31
0.0
  0
LINE
  5
13BD
  8
0
 62
     0
 10
9.5722827768458956
 20
199.1666724315491
 30
0.0
 11
0.1056813119339495
 21
208.63327389646111
 31
0.0
  0
LINE
  5
13BE
  8
0
 62
     0
 10
8.3298725352324254
 20
199.2865506580292
 30
0.0
 11
0.1056813119321305
 21
207.51074188132949
 31
0.0
  0
LINE
  5
13BF
  8
0
 62
     0
 10
7.1881224111311894
 20
199.30576876699519
 30
0.0
 11
0.1056813119303115
 21
206.38820986619609
 31
0.0
  0
LINE
  5
13C0
  8
0
 62
     0
 10
6.125599829476414
 20
199.24575933351659
 30
0.0
 11
0.1056813119321305
 21
205.2656778510609
 31
0.0
  0
LINE
  5
13C1
  8
0
 62
     0
 10
5.128481126335827
 20
199.1203460215238
 30
0.0
 11
0.1056813119321305
 21
204.1431458359275
 31
0.0
  0
LINE
  5
13C2
  8
0
 62
     0
 10
4.1872648508015109
 20
198.93903028192469
 30
0.0
 11
0.1056813119321305
 21
203.0206138207941
 31
0.0
  0
LINE
  5
13C3
  8
0
 62
     0
 10
3.2951234801857932
 20
198.708639637407
 30
0.0
 11
0.1056813119303115
 21
201.89808180566251
 31
0.0
  0
LINE
  5
13C4
  8
0
 62
     0
 10
2.4469936175391922
 20
198.43423748491841
 30
0.0
 11
0.1056813119303115
 21
200.77554979052729
 31
0.0
  0
LINE
  5
13C5
  8
0
 62
     0
 10
1.6390369757245931
 20
198.1196621116014
 30
0.0
 11
0.1056813119321305
 21
199.65301777539389
 31
0.0
  0
LINE
  5
13C6
  8
0
 62
     0
 10
0.8683034106943524
 20
197.76786366149821
 30
0.0
 11
0.1056813119339495
 21
198.53048576025861
 31
0.0
  0
LINE
  5
13C7
  8
0
 62
     0
 10
0.1325114662213309
 20
197.3811235908378
 30
0.0
 11
0.1056813119303115
 21
197.40795374512891
 31
0.0
  0
ENDBLK
  5
13C9
  8
0
  0
BLOCK
  8
0
  2
*X42
 70
     1
 10
0.0
 20
0.0
 30
0.0
  3
*X42
  1

  0
LINE
  5
13CB
  8
0
 62
     0
 10
11.827593127829321
 20
59.895710213059459
 30
0.0
 11
10.45277779932152
 21
60.689460213059469
 31
0.0
  0
LINE
  5
13CC
  8
0
 62
     0
 10
15.005681311929941
 20
58.060840144460599
 30
0.0
 11
14.577223784844911
 21
58.308210213059468
 31
0.0
  0
LINE
  5
13CD
  8
0
 62
     0
 10
6.3283321423055483
 20
59.895710782052262
 30
0.0
 11
4.9535168137977541
 21
60.689460782052272
 31
0.0
  0
LINE
  5
13CE
  8
0
 62
     0
 10
10.45277812782893
 20
57.514460782052261
 30
0.0
 11
9.077962799321142
 21
58.308210782052271
 31
0.0
  0
LINE
  5
13CF
  8
0
 62
     0
 10
14.577224113352321
 20
55.133210782052259
 30
0.0
 11
13.202408784844531
 21
55.926960782052269
 31
0.0
  0
LINE
  5
13D0
  8
0
 62
     0
 10
0.8290711567829642
 20
59.895711351045442
 30
0.0
 11
0.0056813119317041
 21
60.371095699618309
 31
0.0
  0
LINE
  5
13D1
  8
0
 62
     0
 10
4.9535171423063522
 20
57.514461351045441
 30
0.0
 11
3.578701813798558
 21
58.308211351045429
 31
0.0
  0
LINE
  5
13D2
  8
0
 62
     0
 10
9.0779631278297401
 20
55.133211351045432
 30
0.0
 11
7.703147799321945
 21
55.926961351045428
 31
0.0
  0
LINE
  5
13D3
  8
0
 62
     0
 10
13.202409113353131
 20
52.751961351045431
 30
0.0
 11
11.82759378484533
 21
53.545711351045433
 31
0.0
  0
LINE
  5
13D4
  8
0
 62
     0
 10
3.578702142308487
 20
55.133211920035869
 30
0.0
 11
2.2038868138006911
 21
55.926961920035872
 31
0.0
  0
LINE
  5
13D5
  8
0
 62
     0
 10
7.7031481278318754
 20
52.751961920035868
 30
0.0
 11
6.3283327993240794
 21
53.54571192003587
 31
0.0
  0
LINE
  5
13D6
  8
0
 62
     0
 10
11.827594113355261
 20
50.370711920035873
 30
0.0
 11
10.45277878484746
 21
51.164461920035869
 31
0.0
  0
LINE
  5
13D7
  8
0
 62
     0
 10
15.00568131193176
 20
48.535842420429617
 30
0.0
 11
14.577224770370851
 21
48.78321192003586
 31
0.0
  0
LINE
  5
13D8
  8
0
 62
     0
 10
2.2038871423062858
 20
52.751962489028671
 30
0.0
 11
0.8290718137984907
 21
53.545712489028681
 31
0.0
  0
LINE
  5
13D9
  8
0
 62
     0
 10
6.3283331278296737
 20
50.370712489028669
 30
0.0
 11
4.9535177993218777
 21
51.164462489028672
 31
0.0
  0
LINE
  5
13DA
  8
0
 62
     0
 10
10.45277911335306
 20
47.989462489028668
 30
0.0
 11
9.0779637848452666
 21
48.783212489028671
 31
0.0
  0
LINE
  5
13DB
  8
0
 62
     0
 10
14.57722509887645
 20
45.608212489028659
 30
0.0
 11
13.20240977036865
 21
46.401962489028662
 31
0.0
  0
LINE
  5
13DC
  8
0
 62
     0
 10
0.8290721423068455
 20
50.370713058020932
 30
0.0
 11
0.0056813119298842
 21
50.846097975587341
 31
0.0
  0
LINE
  5
13DD
  8
0
 62
     0
 10
4.9535181278302334
 20
47.989463058020917
 30
0.0
 11
3.578702799322437
 21
48.78321305802092
 31
0.0
  0
LINE
  5
13DE
  8
0
 62
     0
 10
9.0779641133536213
 20
45.608213058020922
 30
0.0
 11
7.7031487848458253
 21
46.401963058020918
 31
0.0
  0
LINE
  5
13DF
  8
0
 62
     0
 10
13.20241009887701
 20
43.226963058020921
 30
0.0
 11
11.82759477036921
 21
44.020713058020917
 31
0.0
  0
LINE
  5
13E0
  8
0
 62
     0
 10
3.5787031278305759
 20
45.608213627013541
 30
0.0
 11
2.2038877993227781
 21
46.401963627013536
 31
0.0
  0
LINE
  5
13E1
  8
0
 62
     0
 10
7.7031491133539642
 20
43.226963627013532
 30
0.0
 11
6.3283337848461656
 21
44.020713627013542
 31
0.0
  0
LINE
  5
13E2
  8
0
 62
     0
 10
2.2038881278309099
 20
43.226964196004339
 30
0.0
 11
0.8290727993231135
 21
44.020714196004342
 31
0.0
  0
LINE
  5
13E3
  8
0
 62
     0
 10
2.206950148998911
 20
60.68761326439494
 30
0.0
 11
0.8321348204911165
 21
59.893863264394938
 31
0.0
  0
LINE
  5
13E4
  8
0
 62
     0
 10
3.581765148999883
 20
58.306363833387167
 30
0.0
 11
2.2069498204920879
 21
57.512613833387178
 31
0.0
  0
LINE
  5
13E5
  8
0
 62
     0
 10
7.7062111345232651
 20
60.687613833387161
 30
0.0
 11
6.33139580601547
 21
59.893863833387158
 31
0.0
  0
LINE
  5
13E6
  8
0
 62
     0
 10
0.8321341634758265
 20
53.543864402379498
 30
0.0
 11
0.0056813119311756
 21
53.066711626067658
 31
0.0
  0
LINE
  5
13E7
  8
0
 62
     0
 10
4.9565801489992083
 20
55.925114402379492
 30
0.0
 11
3.5817648204914141
 21
55.131364402379504
 31
0.0
  0
LINE
  5
13E8
  8
0
 62
     0
 10
9.0810261345225882
 20
58.306364402379479
 30
0.0
 11
7.7062108060147949
 21
57.512614402379477
 31
0.0
  0
LINE
  5
13E9
  8
0
 62
     0
 10
13.20547212004597
 20
60.687614402379459
 30
0.0
 11
11.83065679153818
 21
59.893864402379471
 31
0.0
  0
LINE
  5
13EA
  8
0
 62
     0
 10
2.2069491634768581
 20
51.16261497137176
 30
0.0
 11
0.8321338349690644
 21
50.368864971371757
 31
0.0
  0
LINE
  5
13EB
  8
0
 62
     0
 10
6.3313951490002403
 20
53.54386497137174
 30
0.0
 11
4.9565798204924461
 21
52.750114971371751
 31
0.0
  0
LINE
  5
13EC
  8
0
 62
     0
 10
10.45584113452362
 20
55.925114971371741
 30
0.0
 11
9.0810258060158286
 21
55.131364971371738
 31
0.0
  0
LINE
  5
13ED
  8
0
 62
     0
 10
14.580287120047
 20
58.306364971371721
 30
0.0
 11
13.20547179153921
 21
57.512614971371718
 31
0.0
  0
LINE
  5
13EE
  8
0
 62
     0
 10
3.5817641634760138
 20
48.781365540363979
 30
0.0
 11
2.20694883496822
 21
47.987615540363983
 31
0.0
  0
LINE
  5
13EF
  8
0
 62
     0
 10
7.7062101489993964
 20
51.162615540363973
 30
0.0
 11
6.3313948204916022
 21
50.368865540363977
 31
0.0
  0
LINE
  5
13F0
  8
0
 62
     0
 10
11.83065613452278
 20
53.54386554036396
 30
0.0
 11
10.455840806014979
 21
52.750115540363957
 31
0.0
  0
LINE
  5
13F1
  8
0
 62
     0
 10
15.005681311931029
 20
55.376967181224437
 30
0.0
 11
14.58028679153837
 21
55.131365540363952
 31
0.0
  0
LINE
  5
13F2
  8
0
 62
     0
 10
0.8321331779532653
 20
44.01886610935707
 30
0.0
 11
0.0056813119299819
 21
43.54171390203625
 31
0.0
  0
LINE
  5
13F3
  8
0
 62
     0
 10
4.9565791634766461
 20
46.40011610935705
 30
0.0
 11
3.5817638349688519
 21
45.606366109357062
 31
0.0
  0
LINE
  5
13F4
  8
0
 62
     0
 10
9.0810251490000287
 20
48.781366109357052
 30
0.0
 11
7.7062098204922336
 21
47.987616109357049
 31
0.0
  0
LINE
  5
13F5
  8
0
 62
     0
 10
13.20547113452341
 20
51.162616109357032
 30
0.0
 11
11.83065580601561
 21
50.368866109357029
 31
0.0
  0
LINE
  5
13F6
  8
0
 62
     0
 10
6.3313941634762498
 20
44.018866678348481
 30
0.0
 11
4.9565788349684556
 21
43.225116678348492
 31
0.0
  0
LINE
  5
13F7
  8
0
 62
     0
 10
10.455840148999631
 20
46.400116678348468
 30
0.0
 11
9.0810248204918391
 21
45.606366678348479
 31
0.0
  0
LINE
  5
13F8
  8
0
 62
     0
 10
14.580286134523011
 20
48.781366678348462
 30
0.0
 11
13.205470806015221
 21
47.987616678348459
 31
0.0
  0
LINE
  5
13F9
  8
0
 62
     0
 10
11.830655148998879
 20
44.018867247340751
 30
0.0
 11
10.455839820491089
 21
43.225117247340762
 31
0.0
  0
LINE
  5
13FA
  8
0
 62
     0
 10
15.005681311930569
 20
45.851969457193462
 30
0.0
 11
14.580285806014469
 21
45.606367247340749
 31
0.0
  0
LINE
  5
13FB
  8
0
 62
     0
 10
13.205538150109531
 20
60.691190518315842
 30
0.0
 11
13.205538150109531
 21
61.83855859284084
 31
0.0
  0
LINE
  5
13FC
  8
0
 62
     0
 10
13.205538150109531
 20
55.92869051831584
 30
0.0
 11
13.205538150109531
 21
57.516190518315838
 31
0.0
  0
LINE
  5
13FD
  8
0
 62
     0
 10
13.205538150109531
 20
51.166190518315837
 30
0.0
 11
13.205538150109531
 21
52.753690518315842
 31
0.0
  0
LINE
  5
13FE
  8
0
 62
     0
 10
13.205538150109531
 20
46.403690518315841
 30
0.0
 11
13.205538150109531
 21
47.99119051831584
 31
0.0
  0
LINE
  5
13FF
  8
0
 62
     0
 10
13.205538150109531
 20
41.838558592840847
 30
0.0
 11
13.205538150109531
 21
43.228690518315851
 31
0.0
  0
LINE
  5
1400
  8
0
 62
     0
 10
10.45590815010927
 20
60.691190518315842
 30
0.0
 11
10.45590815010927
 21
61.83855859284084
 31
0.0
  0
LINE
  5
1401
  8
0
 62
     0
 10
10.45590815010927
 20
55.92869051831584
 30
0.0
 11
10.45590815010927
 21
57.516190518315838
 31
0.0
  0
LINE
  5
1402
  8
0
 62
     0
 10
10.45590815010927
 20
51.166190518315837
 30
0.0
 11
10.45590815010927
 21
52.753690518315842
 31
0.0
  0
LINE
  5
1403
  8
0
 62
     0
 10
10.45590815010927
 20
46.403690518315841
 30
0.0
 11
10.45590815010927
 21
47.99119051831584
 31
0.0
  0
LINE
  5
1404
  8
0
 62
     0
 10
10.45590815010927
 20
41.838558592840847
 30
0.0
 11
10.45590815010927
 21
43.228690518315851
 31
0.0
  0
LINE
  5
1405
  8
0
 62
     0
 10
7.7062781501090241
 20
60.691190518315842
 30
0.0
 11
7.7062781501090241
 21
61.83855859284084
 31
0.0
  0
LINE
  5
1406
  8
0
 62
     0
 10
7.7062781501090241
 20
55.92869051831584
 30
0.0
 11
7.7062781501090241
 21
57.516190518315838
 31
0.0
  0
LINE
  5
1407
  8
0
 62
     0
 10
7.7062781501090241
 20
51.166190518315837
 30
0.0
 11
7.7062781501090241
 21
52.753690518315842
 31
0.0
  0
LINE
  5
1408
  8
0
 62
     0
 10
7.7062781501090241
 20
46.403690518315841
 30
0.0
 11
7.7062781501090241
 21
47.99119051831584
 31
0.0
  0
LINE
  5
1409
  8
0
 62
     0
 10
7.7062781501090241
 20
41.838558592840847
 30
0.0
 11
7.7062781501090241
 21
43.228690518315851
 31
0.0
  0
LINE
  5
140A
  8
0
 62
     0
 10
4.956648150108772
 20
60.691190518315842
 30
0.0
 11
4.956648150108772
 21
61.83855859284084
 31
0.0
  0
LINE
  5
140B
  8
0
 62
     0
 10
4.956648150108772
 20
55.92869051831584
 30
0.0
 11
4.956648150108772
 21
57.516190518315838
 31
0.0
  0
LINE
  5
140C
  8
0
 62
     0
 10
4.956648150108772
 20
51.166190518315837
 30
0.0
 11
4.956648150108772
 21
52.753690518315842
 31
0.0
  0
LINE
  5
140D
  8
0
 62
     0
 10
4.956648150108772
 20
46.403690518315841
 30
0.0
 11
4.956648150108772
 21
47.99119051831584
 31
0.0
  0
LINE
  5
140E
  8
0
 62
     0
 10
4.956648150108772
 20
41.838558592840847
 30
0.0
 11
4.956648150108772
 21
43.228690518315851
 31
0.0
  0
LINE
  5
140F
  8
0
 62
     0
 10
2.20701815010852
 20
60.691190518315842
 30
0.0
 11
2.20701815010852
 21
61.83855859284084
 31
0.0
  0
LINE
  5
1410
  8
0
 62
     0
 10
2.20701815010852
 20
55.92869051831584
 30
0.0
 11
2.20701815010852
 21
57.516190518315838
 31
0.0
  0
LINE
  5
1411
  8
0
 62
     0
 10
2.20701815010852
 20
51.166190518315837
 30
0.0
 11
2.20701815010852
 21
52.753690518315842
 31
0.0
  0
LINE
  5
1412
  8
0
 62
     0
 10
2.20701815010852
 20
46.403690518315841
 30
0.0
 11
2.20701815010852
 21
47.99119051831584
 31
0.0
  0
LINE
  5
1413
  8
0
 62
     0
 10
2.20701815010852
 20
41.838558592840847
 30
0.0
 11
2.20701815010852
 21
43.228690518315851
 31
0.0
  0
ENDBLK
  5
1415
  8
0
  0
BLOCK
  8
0
  2
*U43
 70
     1
 10
0.0
 20
0.0
 30
0.0
  3
*U43
  1

  0
SOLID
  5
150F
  8
SAPA_FOGBAND
  6
CONTINUOUS
 10
58.661058629754159
 20
27.86958987753767
 30
0.0
 11
58.480781065980963
 21
27.794916465631228
 31
0.0
 12
58.841336193527368
 22
27.794916465631228
 32
0.0
 13
58.841336193527368
 23
27.794916465631228
 33
0.0
210
0.0
220
0.0
230
1.0
  0
SOLID
  5
1510
  8
SAPA_FOGBAND
  6
CONTINUOUS
 10
58.480781065980963
 20
27.794916465631228
 30
0.0
 11
58.406107654074518
 21
27.614638901858029
 31
0.0
 12
58.916009605433807
 22
27.614638901858029
 32
0.0
 13
58.916009605433807
 23
27.614638901858029
 33
0.0
210
0.0
220
0.0
230
1.0
  0
SOLID
  5
1511
  8
SAPA_FOGBAND
  6
CONTINUOUS
 10
-58.480781065980963
 20
27.794916465631228
 30
0.0
 11
-58.841336193527368
 21
27.794916465631228
 31
0.0
 12
-58.916009605433807
 22
27.614638901858029
 32
0.0
 13
-58.916009605433807
 23
27.614638901858029
 33
0.0
210
0.0
220
0.0
230
-1.0
  0
SOLID
  5
1512
  8
SAPA_FOGBAND
  6
CONTINUOUS
 10
-58.480781065980963
 20
27.43436133808483
 30
0.0
 11
-58.841336193527368
 21
27.43436133808483
 31
0.0
 12
-58.661058629754159
 22
27.359687926178388
 32
0.0
 13
-58.661058629754159
 23
27.359687926178388
 33
0.0
210
0.0
220
0.0
230
-1.0
  0
SOLID
  5
1513
  8
SAPA_FOGBAND
  6
CONTINUOUS
 10
58.406107654074518
 20
27.614638901858029
 30
0.0
 11
58.480781065980963
 21
27.43436133808483
 31
0.0
 12
58.841336193527368
 22
27.43436133808483
 32
0.0
 13
58.841336193527368
 23
27.43436133808483
 33
0.0
210
0.0
220
0.0
230
1.0
  0
SOLID
  5
1514
  8
SAPA_FOGBAND
  6
CONTINUOUS
 10
-58.406107654074518
 20
27.614638901858029
 30
0.0
 11
-58.916009605433807
 21
27.614638901858029
 31
0.0
 12
-58.841336193527368
 22
27.43436133808483
 32
0.0
 13
-58.841336193527368
 23
27.43436133808483
 33
0.0
210
0.0
220
0.0
230
-1.0
  0
LINE
  5
1515
  8
SAPA_FOGBAND
  6
CONTINUOUS
 10
58.661058629754159
 20
27.86958987753767
 30
0.0
 11
58.480781065980963
 21
27.794916465631228
 31
0.0
  0
LINE
  5
1516
  8
SAPA_FOGBAND
  6
CONTINUOUS
 10
58.841336193527368
 20
27.794916465631228
 30
0.0
 11
58.661058629754159
 21
27.86958987753767
 31
0.0
  0
LINE
  5
1517
  8
SAPA_FOGBAND
  6
CONTINUOUS
 10
58.480781065980963
 20
27.794916465631228
 30
0.0
 11
58.406107654074518
 21
27.614638901858029
 31
0.0
  0
LINE
  5
1518
  8
SAPA_FOGBAND
  6
CONTINUOUS
 10
58.841336193527368
 20
27.794916465631228
 30
0.0
 11
58.916009605433807
 21
27.614638901858029
 31
0.0
  0
LINE
  5
1519
  8
SAPA_FOGBAND
  6
CONTINUOUS
 10
58.841336193527368
 20
27.43436133808483
 30
0.0
 11
58.661058629754159
 21
27.359687926178388
 31
0.0
  0
LINE
  5
151A
  8
SAPA_FOGBAND
  6
CONTINUOUS
 10
58.661058629754159
 20
27.359687926178388
 30
0.0
 11
58.480781065980963
 21
27.43436133808483
 31
0.0
  0
LINE
  5
151B
  8
SAPA_FOGBAND
  6
CONTINUOUS
 10
58.406107654074518
 20
27.614638901858029
 30
0.0
 11
58.480781065980963
 21
27.43436133808483
 31
0.0
  0
LINE
  5
151C
  8
SAPA_FOGBAND
  6
CONTINUOUS
 10
58.916009605433807
 20
27.614638901858029
 30
0.0
 11
58.841336193527368
 21
27.43436133808483
 31
0.0
  0
ENDBLK
  5
151E
  8
0
  0
BLOCK
  8
0
  2
*U44
 70
     1
 10
0.0
 20
0.0
 30
0.0
  3
*U44
  1

  0
SOLID
  5
158F
  8
SAPA_FOGBAND
  6
CONTINUOUS
 10
21.29354927757424
 20
27.869589878529649
 30
0.0
 11
21.113271713801041
 21
27.794916466623199
 31
0.0
 12
21.473826841347439
 22
27.794916466623199
 32
0.0
 13
21.473826841347439
 23
27.794916466623199
 33
0.0
210
0.0
220
0.0
230
1.0
  0
SOLID
  5
1590
  8
SAPA_FOGBAND
  6
CONTINUOUS
 10
21.113271713801041
 20
27.794916466623199
 30
0.0
 11
21.038598301894599
 21
27.61463890285
 31
0.0
 12
21.548500253253891
 22
27.61463890285
 32
0.0
 13
21.548500253253891
 23
27.61463890285
 33
0.0
210
0.0
220
0.0
230
1.0
  0
SOLID
  5
1591
  8
SAPA_FOGBAND
  6
CONTINUOUS
 10
-21.113271713801041
 20
27.794916466623199
 30
0.0
 11
-21.473826841347439
 21
27.794916466623199
 31
0.0
 12
-21.548500253253891
 22
27.61463890285
 32
0.0
 13
-21.548500253253891
 23
27.61463890285
 33
0.0
210
0.0
220
0.0
230
-1.0
  0
SOLID
  5
1592
  8
SAPA_FOGBAND
  6
CONTINUOUS
 10
-21.113271713801041
 20
27.434361339076801
 30
0.0
 11
-21.473826841347439
 21
27.434361339076801
 31
0.0
 12
-21.29354927757424
 22
27.35968792717037
 32
0.0
 13
-21.29354927757424
 23
27.35968792717037
 33
0.0
210
0.0
220
0.0
230
-1.0
  0
SOLID
  5
1593
  8
SAPA_FOGBAND
  6
CONTINUOUS
 10
21.038598301894599
 20
27.61463890285
 30
0.0
 11
21.113271713801041
 21
27.434361339076801
 31
0.0
 12
21.473826841347439
 22
27.434361339076801
 32
0.0
 13
21.473826841347439
 23
27.434361339076801
 33
0.0
210
0.0
220
0.0
230
1.0
  0
SOLID
  5
1594
  8
SAPA_FOGBAND
  6
CONTINUOUS
 10
-21.038598301894599
 20
27.61463890285
 30
0.0
 11
-21.548500253253891
 21
27.61463890285
 31
0.0
 12
-21.473826841347439
 22
27.434361339076801
 32
0.0
 13
-21.473826841347439
 23
27.434361339076801
 33
0.0
210
0.0
220
0.0
230
-1.0
  0
LINE
  5
1595
  8
SAPA_FOGBAND
  6
CONTINUOUS
 10
21.29354927757424
 20
27.869589878529649
 30
0.0
 11
21.113271713801041
 21
27.794916466623199
 31
0.0
  0
LINE
  5
1596
  8
SAPA_FOGBAND
  6
CONTINUOUS
 10
21.473826841347439
 20
27.794916466623199
 30
0.0
 11
21.29354927757424
 21
27.869589878529649
 31
0.0
  0
LINE
  5
1597
  8
SAPA_FOGBAND
  6
CONTINUOUS
 10
21.113271713801041
 20
27.794916466623199
 30
0.0
 11
21.038598301894599
 21
27.61463890285
 31
0.0
  0
LINE
  5
1598
  8
SAPA_FOGBAND
  6
CONTINUOUS
 10
21.473826841347439
 20
27.794916466623199
 30
0.0
 11
21.548500253253891
 21
27.61463890285
 31
0.0
  0
LINE
  5
1599
  8
SAPA_FOGBAND
  6
CONTINUOUS
 10
21.473826841347439
 20
27.434361339076801
 30
0.0
 11
21.29354927757424
 21
27.35968792717037
 31
0.0
  0
LINE
  5
159A
  8
SAPA_FOGBAND
  6
CONTINUOUS
 10
21.29354927757424
 20
27.35968792717037
 30
0.0
 11
21.113271713801041
 21
27.434361339076801
 31
0.0
  0
LINE
  5
159B
  8
SAPA_FOGBAND
  6
CONTINUOUS
 10
21.038598301894599
 20
27.61463890285
 30
0.0
 11
21.113271713801041
 21
27.434361339076801
 31
0.0
  0
LINE
  5
159C
  8
SAPA_FOGBAND
  6
CONTINUOUS
 10
21.548500253253891
 20
27.61463890285
 30
0.0
 11
21.473826841347439
 21
27.434361339076801
 31
0.0
  0
ENDBLK
  5
159E
  8
0
  0
BLOCK
  8
0
  2
*U45
 70
     1
 10
0.0
 20
0.0
 30
0.0
  3
*U45
  1

  0
SOLID
  5
15DA
  8
SAPA_FOGBAND
  6
CONTINUOUS
 10
58.661058629754159
 20
27.86958987753767
 30
0.0
 11
58.480781065980963
 21
27.794916465631228
 31
0.0
 12
58.841336193527368
 22
27.794916465631228
 32
0.0
 13
58.841336193527368
 23
27.794916465631228
 33
0.0
210
0.0
220
0.0
230
1.0
  0
SOLID
  5
15DB
  8
SAPA_FOGBAND
  6
CONTINUOUS
 10
58.480781065980963
 20
27.794916465631228
 30
0.0
 11
58.406107654074518
 21
27.614638901858029
 31
0.0
 12
58.916009605433807
 22
27.614638901858029
 32
0.0
 13
58.916009605433807
 23
27.614638901858029
 33
0.0
210
0.0
220
0.0
230
1.0
  0
SOLID
  5
15DC
  8
SAPA_FOGBAND
  6
CONTINUOUS
 10
-58.480781065980963
 20
27.794916465631228
 30
0.0
 11
-58.841336193527368
 21
27.794916465631228
 31
0.0
 12
-58.916009605433807
 22
27.614638901858029
 32
0.0
 13
-58.916009605433807
 23
27.614638901858029
 33
0.0
210
0.0
220
0.0
230
-1.0
  0
SOLID
  5
15DD
  8
SAPA_FOGBAND
  6
CONTINUOUS
 10
-58.480781065980963
 20
27.43436133808483
 30
0.0
 11
-58.841336193527368
 21
27.43436133808483
 31
0.0
 12
-58.661058629754159
 22
27.359687926178388
 32
0.0
 13
-58.661058629754159
 23
27.359687926178388
 33
0.0
210
0.0
220
0.0
230
-1.0
  0
SOLID
  5
15DE
  8
SAPA_FOGBAND
  6
CONTINUOUS
 10
58.406107654074518
 20
27.614638901858029
 30
0.0
 11
58.480781065980963
 21
27.43436133808483
 31
0.0
 12
58.841336193527368
 22
27.43436133808483
 32
0.0
 13
58.841336193527368
 23
27.43436133808483
 33
0.0
210
0.0
220
0.0
230
1.0
  0
SOLID
  5
15DF
  8
SAPA_FOGBAND
  6
CONTINUOUS
 10
-58.406107654074518
 20
27.614638901858029
 30
0.0
 11
-58.916009605433807
 21
27.614638901858029
 31
0.0
 12
-58.841336193527368
 22
27.43436133808483
 32
0.0
 13
-58.841336193527368
 23
27.43436133808483
 33
0.0
210
0.0
220
0.0
230
-1.0
  0
LINE
  5
15E0
  8
SAPA_FOGBAND
  6
CONTINUOUS
 10
58.661058629754159
 20
27.86958987753767
 30
0.0
 11
58.480781065980963
 21
27.794916465631228
 31
0.0
  0
LINE
  5
15E1
  8
SAPA_FOGBAND
  6
CONTINUOUS
 10
58.841336193527368
 20
27.794916465631228
 30
0.0
 11
58.661058629754159
 21
27.86958987753767
 31
0.0
  0
LINE
  5
15E2
  8
SAPA_FOGBAND
  6
CONTINUOUS
 10
58.480781065980963
 20
27.794916465631228
 30
0.0
 11
58.406107654074518
 21
27.614638901858029
 31
0.0
  0
LINE
  5
15E3
  8
SAPA_FOGBAND
  6
CONTINUOUS
 10
58.841336193527368
 20
27.794916465631228
 30
0.0
 11
58.916009605433807
 21
27.614638901858029
 31
0.0
  0
LINE
  5
15E4
  8
SAPA_FOGBAND
  6
CONTINUOUS
 10
58.841336193527368
 20
27.43436133808483
 30
0.0
 11
58.661058629754159
 21
27.359687926178388
 31
0.0
  0
LINE
  5
15E5
  8
SAPA_FOGBAND
  6
CONTINUOUS
 10
58.661058629754159
 20
27.359687926178388
 30
0.0
 11
58.480781065980963
 21
27.43436133808483
 31
0.0
  0
LINE
  5
15E6
  8
SAPA_FOGBAND
  6
CONTINUOUS
 10
58.406107654074518
 20
27.614638901858029
 30
0.0
 11
58.480781065980963
 21
27.43436133808483
 31
0.0
  0
LINE
  5
15E7
  8
SAPA_FOGBAND
  6
CONTINUOUS
 10
58.916009605433807
 20
27.614638901858029
 30
0.0
 11
58.841336193527368
 21
27.43436133808483
 31
0.0
  0
ENDBLK
  5
15E9
  8
0
  0
BLOCK
  8
0
  2
*U46
 70
     1
 10
0.0
 20
0.0
 30
0.0
  3
*U46
  1

  0
SOLID
  5
165A
  8
SAPA_FOGBAND
  6
CONTINUOUS
 10
21.29354927757424
 20
27.869589878529649
 30
0.0
 11
21.113271713801041
 21
27.794916466623199
 31
0.0
 12
21.473826841347439
 22
27.794916466623199
 32
0.0
 13
21.473826841347439
 23
27.794916466623199
 33
0.0
210
0.0
220
0.0
230
1.0
  0
SOLID
  5
165B
  8
SAPA_FOGBAND
  6
CONTINUOUS
 10
21.113271713801041
 20
27.794916466623199
 30
0.0
 11
21.038598301894599
 21
27.61463890285
 31
0.0
 12
21.548500253253891
 22
27.61463890285
 32
0.0
 13
21.548500253253891
 23
27.61463890285
 33
0.0
210
0.0
220
0.0
230
1.0
  0
SOLID
  5
165C
  8
SAPA_FOGBAND
  6
CONTINUOUS
 10
-21.113271713801041
 20
27.794916466623199
 30
0.0
 11
-21.473826841347439
 21
27.794916466623199
 31
0.0
 12
-21.548500253253891
 22
27.61463890285
 32
0.0
 13
-21.548500253253891
 23
27.61463890285
 33
0.0
210
0.0
220
0.0
230
-1.0
  0
SOLID
  5
165D
  8
SAPA_FOGBAND
  6
CONTINUOUS
 10
-21.113271713801041
 20
27.434361339076801
 30
0.0
 11
-21.473826841347439
 21
27.434361339076801
 31
0.0
 12
-21.29354927757424
 22
27.35968792717037
 32
0.0
 13
-21.29354927757424
 23
27.35968792717037
 33
0.0
210
0.0
220
0.0
230
-1.0
  0
SOLID
  5
165E
  8
SAPA_FOGBAND
  6
CONTINUOUS
 10
21.038598301894599
 20
27.61463890285
 30
0.0
 11
21.113271713801041
 21
27.434361339076801
 31
0.0
 12
21.473826841347439
 22
27.434361339076801
 32
0.0
 13
21.473826841347439
 23
27.434361339076801
 33
0.0
210
0.0
220
0.0
230
1.0
  0
SOLID
  5
165F
  8
SAPA_FOGBAND
  6
CONTINUOUS
 10
-21.038598301894599
 20
27.61463890285
 30
0.0
 11
-21.548500253253891
 21
27.61463890285
 31
0.0
 12
-21.473826841347439
 22
27.434361339076801
 32
0.0
 13
-21.473826841347439
 23
27.434361339076801
 33
0.0
210
0.0
220
0.0
230
-1.0
  0
LINE
  5
1660
  8
SAPA_FOGBAND
  6
CONTINUOUS
 10
21.29354927757424
 20
27.869589878529649
 30
0.0
 11
21.113271713801041
 21
27.794916466623199
 31
0.0
  0
LINE
  5
1661
  8
SAPA_FOGBAND
  6
CONTINUOUS
 10
21.473826841347439
 20
27.794916466623199
 30
0.0
 11
21.29354927757424
 21
27.869589878529649
 31
0.0
  0
LINE
  5
1662
  8
SAPA_FOGBAND
  6
CONTINUOUS
 10
21.113271713801041
 20
27.794916466623199
 30
0.0
 11
21.038598301894599
 21
27.61463890285
 31
0.0
  0
LINE
  5
1663
  8
SAPA_FOGBAND
  6
CONTINUOUS
 10
21.473826841347439
 20
27.794916466623199
 30
0.0
 11
21.548500253253891
 21
27.61463890285
 31
0.0
  0
LINE
  5
1664
  8
SAPA_FOGBAND
  6
CONTINUOUS
 10
21.473826841347439
 20
27.434361339076801
 30
0.0
 11
21.29354927757424
 21
27.35968792717037
 31
0.0
  0
LINE
  5
1665
  8
SAPA_FOGBAND
  6
CONTINUOUS
 10
21.29354927757424
 20
27.35968792717037
 30
0.0
 11
21.113271713801041
 21
27.434361339076801
 31
0.0
  0
LINE
  5
1666
  8
SAPA_FOGBAND
  6
CONTINUOUS
 10
21.038598301894599
 20
27.61463890285
 30
0.0
 11
21.113271713801041
 21
27.434361339076801
 31
0.0
  0
LINE
  5
1667
  8
SAPA_FOGBAND
  6
CONTINUOUS
 10
21.548500253253891
 20
27.61463890285
 30
0.0
 11
21.473826841347439
 21
27.434361339076801
 31
0.0
  0
ENDBLK
  5
1669
  8
0
  0
ENDSEC
  0
SECTION
  2
ENTITIES
  0
POLYLINE
  5
86E
  8
SAPA_ANSLUTNING
 66
     1
 10
0.0
 20
0.0
 30
0.0
1001
ACAD
1000
ASC_BOUNDS
1002
{
1070
    19
1005
D29
1002
}
  0
VERTEX
  5
DBF
  8
SAPA_ANSLUTNING
 10
15.00568131193188
 20
41.838558592840847
 30
0.0
  0
VERTEX
  5
DC0
  8
SAPA_ANSLUTNING
 10
15.00568131193188
 20
61.838558592840847
 30
0.0
  0
VERTEX
  5
DC1
  8
SAPA_ANSLUTNING
 10
0.0056813119317667
 20
61.838558592840847
 30
0.0
  0
VERTEX
  5
DC2
  8
SAPA_ANSLUTNING
 10
0.0056813119317667
 20
41.838558592840847
 30
0.0
  0
VERTEX
  5
DC3
  8
SAPA_ANSLUTNING
 10
15.00568131193188
 20
41.838558592840847
 30
0.0
  0
SEQEND
  5
DC4
  8
SAPA_ANSLUTNING
  0
POLYLINE
  5
872
  8
SAPA_ANSLUTNING
 66
     1
 10
0.0
 20
0.0
 30
0.0
 70
     1
1001
ACAD
1000
ASC_BOUNDS
1002
{
1070
    19
1005
D28
1002
}
  0
VERTEX
  5
DC5
  8
SAPA_ANSLUTNING
 10
0.1056813119321305
 20
197.366026169973
 30
0.0
  0
VERTEX
  5
DC6
  8
SAPA_ANSLUTNING
 10
0.1056813119321305
 20
212.2522071226137
 30
0.0
 42
0.2625797940973267
  0
VERTEX
  5
DC7
  8
SAPA_ANSLUTNING
 10
14.905681311931399
 20
212.2522071226137
 30
0.0
  0
VERTEX
  5
DC8
  8
SAPA_ANSLUTNING
 10
14.905681311931399
 20
197.36602616997121
 30
0.0
 42
0.2625797940972474
  0
SEQEND
  5
DC9
  8
SAPA_ANSLUTNING
  0
POLYLINE
  5
874
  8
SAPA_ANSLUTNING
 10
14.892109044940296
 20
194.66712906202301
 30
0.0
 66
     1
 70
     8
  0
VERTEX
  8
SAPA_ANSLUTNING
  5
16A4
 10
14.8921
 20
194.667
 30
0.000000
  70
    32
  0
VERTEX
  8
SAPA_ANSLUTNING
  5
16A5
 10
14.8832
 20
194.471
 30
0.000000
  70
    32
  0
VERTEX
  8
SAPA_ANSLUTNING
  5
16A6
 10
14.8565
 20
194.275
 30
0.000000
  70
    32
  0
VERTEX
  8
SAPA_ANSLUTNING
  5
16A7
 10
14.8120
 20
194.080
 30
0.000000
  70
    32
  0
VERTEX
  8
SAPA_ANSLUTNING
  5
16A8
 10
14.7499
 20
193.887
 30
0.000000
  70
    32
  0
VERTEX
  8
SAPA_ANSLUTNING
  5
16A9
 10
14.6703
 20
193.695
 30
0.000000
  70
    32
  0
VERTEX
  8
SAPA_ANSLUTNING
  5
16AA
 10
14.5734
 20
193.506
 30
0.000000
  70
    32
  0
VERTEX
  8
SAPA_ANSLUTNING
  5
16AB
 10
14.4595
 20
193.320
 30
0.000000
  70
    32
  0
VERTEX
  8
SAPA_ANSLUTNING
  5
16AC
 10
14.3287
 20
193.136
 30
0.000000
  70
    32
  0
VERTEX
  8
SAPA_ANSLUTNING
  5
16AD
 10
14.1815
 20
192.957
 30
0.000000
  70
    32
  0
VERTEX
  8
SAPA_ANSLUTNING
  5
16AE
 10
14.0182
 20
192.782
 30
0.000000
  70
    32
  0
VERTEX
  8
SAPA_ANSLUTNING
  5
16AF
 10
13.8391
 20
192.611
 30
0.000000
  70
    32
  0
VERTEX
  8
SAPA_ANSLUTNING
  5
16B0
 10
13.6448
 20
192.445
 30
0.000000
  70
    32
  0
VERTEX
  8
SAPA_ANSLUTNING
  5
16B1
 10
13.4356
 20
192.284
 30
0.000000
  70
    32
  0
VERTEX
  8
SAPA_ANSLUTNING
  5
16B2
 10
13.2121
 20
192.130
 30
0.000000
  70
    32
  0
VERTEX
  8
SAPA_ANSLUTNING
  5
16B3
 10
12.9748
 20
191.981
 30
0.000000
  70
    32
  0
VERTEX
  8
SAPA_ANSLUTNING
  5
16B4
 10
12.7243
 20
191.839
 30
0.000000
  70
    32
  0
VERTEX
  8
SAPA_ANSLUTNING
  5
16B5
 10
12.4612
 20
191.703
 30
0.000000
  70
    32
  0
VERTEX
  8
SAPA_ANSLUTNING
  5
16B6
 10
12.1861
 20
191.575
 30
0.000000
  70
    32
  0
VERTEX
  8
SAPA_ANSLUTNING
  5
16B7
 10
11.8997
 20
191.454
 30
0.000000
  70
    32
  0
VERTEX
  8
SAPA_ANSLUTNING
  5
16B8
 10
11.6027
 20
191.341
 30
0.000000
  70
    32
  0
VERTEX
  8
SAPA_ANSLUTNING
  5
16B9
 10
11.2958
 20
191.236
 30
0.000000
  70
    32
  0
VERTEX
  8
SAPA_ANSLUTNING
  5
16BA
 10
10.9797
 20
191.139
 30
0.000000
  70
    32
  0
VERTEX
  8
SAPA_ANSLUTNING
  5
16BB
 10
10.6552
 20
191.051
 30
0.000000
  70
    32
  0
VERTEX
  8
SAPA_ANSLUTNING
  5
16BC
 10
10.3231
 20
190.972
 30
0.000000
  70
    32
  0
VERTEX
  8
SAPA_ANSLUTNING
  5
16BD
 10
9.98417
 20
190.901
 30
0.000000
  70
    32
  0
VERTEX
  8
SAPA_ANSLUTNING
  5
16BE
 10
9.63923
 20
190.839
 30
0.000000
  70
    32
  0
VERTEX
  8
SAPA_ANSLUTNING
  5
16BF
 10
9.28911
 20
190.787
 30
0.000000
  70
    32
  0
VERTEX
  8
SAPA_ANSLUTNING
  5
16C0
 10
8.93466
 20
190.744
 30
0.000000
  70
    32
  0
VERTEX
  8
SAPA_ANSLUTNING
  5
16C1
 10
8.57673
 20
190.710
 30
0.000000
  70
    32
  0
VERTEX
  8
SAPA_ANSLUTNING
  5
16C2
 10
8.21618
 20
190.686
 30
0.000000
  70
    32
  0
VERTEX
  8
SAPA_ANSLUTNING
  5
16C3
 10
7.85389
 20
190.672
 30
0.000000
  70
    32
  0
VERTEX
  8
SAPA_ANSLUTNING
  5
16C4
 10
7.49072
 20
190.667
 30
0.000000
  70
    32
  0
VERTEX
  8
SAPA_ANSLUTNING
  5
16C5
 10
7.12755
 20
190.672
 30
0.000000
  70
    32
  0
VERTEX
  8
SAPA_ANSLUTNING
  5
16C6
 10
6.76526
 20
190.686
 30
0.000000
  70
    32
  0
VERTEX
  8
SAPA_ANSLUTNING
  5
16C7
 10
6.40471
 20
190.710
 30
0.000000
  70
    32
  0
VERTEX
  8
SAPA_ANSLUTNING
  5
16C8
 10
6.04678
 20
190.744
 30
0.000000
  70
    32
  0
VERTEX
  8
SAPA_ANSLUTNING
  5
16C9
 10
5.69233
 20
190.787
 30
0.000000
  70
    32
  0
VERTEX
  8
SAPA_ANSLUTNING
  5
16CA
 10
5.34221
 20
190.839
 30
0.000000
  70
    32
  0
VERTEX
  8
SAPA_ANSLUTNING
  5
16CB
 10
4.99727
 20
190.901
 30
0.000000
  70
    32
  0
VERTEX
  8
SAPA_ANSLUTNING
  5
16CC
 10
4.65833
 20
190.972
 30
0.000000
  70
    32
  0
VERTEX
  8
SAPA_ANSLUTNING
  5
16CD
 10
4.32622
 20
191.051
 30
0.000000
  70
    32
  0
VERTEX
  8
SAPA_ANSLUTNING
  5
16CE
 10
4.00173
 20
191.139
 30
0.000000
  70
    32
  0
VERTEX
  8
SAPA_ANSLUTNING
  5
16CF
 10
3.68565
 20
191.236
 30
0.000000
  70
    32
  0
VERTEX
  8
SAPA_ANSLUTNING
  5
16D0
 10
3.37873
 20
191.341
 30
0.000000
  70
    32
  0
VERTEX
  8
SAPA_ANSLUTNING
  5
16D1
 10
3.08172
 20
191.454
 30
0.000000
  70
    32
  0
VERTEX
  8
SAPA_ANSLUTNING
  5
16D2
 10
2.79533
 20
191.575
 30
0.000000
  70
    32
  0
VERTEX
  8
SAPA_ANSLUTNING
  5
16D3
 10
2.52025
 20
191.703
 30
0.000000
  70
    32
  0
VERTEX
  8
SAPA_ANSLUTNING
  5
16D4
 10
2.25715
 20
191.839
 30
0.000000
  70
    32
  0
VERTEX
  8
SAPA_ANSLUTNING
  5
16D5
 10
2.00666
 20
191.981
 30
0.000000
  70
    32
  0
VERTEX
  8
SAPA_ANSLUTNING
  5
16D6
 10
1.76937
 20
192.130
 30
0.000000
  70
    32
  0
VERTEX
  8
SAPA_ANSLUTNING
  5
16D7
 10
1.54587
 20
192.284
 30
0.000000
  70
    32
  0
VERTEX
  8
SAPA_ANSLUTNING
  5
16D8
 10
1.33669
 20
192.445
 30
0.000000
  70
    32
  0
VERTEX
  8
SAPA_ANSLUTNING
  5
16D9
 10
1.14234
 20
192.611
 30
0.000000
  70
    32
  0
VERTEX
  8
SAPA_ANSLUTNING
  5
16DA
 10
0.963281
 20
192.782
 30
0.000000
  70
    32
  0
VERTEX
  8
SAPA_ANSLUTNING
  5
16DB
 10
0.799947
 20
192.957
 30
0.000000
  70
    32
  0
VERTEX
  8
SAPA_ANSLUTNING
  5
16DC
 10
0.652732
 20
193.136
 30
0.000000
  70
    32
  0
VERTEX
  8
SAPA_ANSLUTNING
  5
16DD
 10
0.521990
 20
193.320
 30
0.000000
  70
    32
  0
VERTEX
  8
SAPA_ANSLUTNING
  5
16DE
 10
0.408036
 20
193.506
 30
0.000000
  70
    32
  0
VERTEX
  8
SAPA_ANSLUTNING
  5
16DF
 10
0.311145
 20
193.695
 30
0.000000
  70
    32
  0
VERTEX
  8
SAPA_ANSLUTNING
  5
16E0
 10
0.231550
 20
193.887
 30
0.000000
  70
    32
  0
VERTEX
  8
SAPA_ANSLUTNING
  5
16E1
 10
0.169443
 20
194.080
 30
0.000000
  70
    32
  0
VERTEX
  8
SAPA_ANSLUTNING
  5
16E2
 10
0.124974
 20
194.275
 30
0.000000
  70
    32
  0
VERTEX
  8
SAPA_ANSLUTNING
  5
16E3
 10
0.0982499
 20
194.471
 30
0.000000
  70
    32
  0
VERTEX
  8
SAPA_ANSLUTNING
  5
16E4
 10
0.0893346
 20
194.667
 30
0.000000
  70
    32
  0
VERTEX
  8
SAPA_ANSLUTNING
  5
16E5
 10
0.0982499
 20
194.863
 30
0.000000
  70
    32
  0
VERTEX
  8
SAPA_ANSLUTNING
  5
16E6
 10
0.124974
 20
195.059
 30
0.000000
  70
    32
  0
VERTEX
  8
SAPA_ANSLUTNING
  5
16E7
 10
0.169443
 20
195.254
 30
0.000000
  70
    32
  0
VERTEX
  8
SAPA_ANSLUTNING
  5
16E8
 10
0.231550
 20
195.447
 30
0.000000
  70
    32
  0
VERTEX
  8
SAPA_ANSLUTNING
  5
16E9
 10
0.311145
 20
195.639
 30
0.000000
  70
    32
  0
VERTEX
  8
SAPA_ANSLUTNING
  5
16EA
 10
0.408036
 20
195.828
 30
0.000000
  70
    32
  0
VERTEX
  8
SAPA_ANSLUTNING
  5
16EB
 10
0.521990
 20
196.015
 30
0.000000
  70
    32
  0
VERTEX
  8
SAPA_ANSLUTNING
  5
16EC
 10
0.652732
 20
196.198
 30
0.000000
  70
    32
  0
VERTEX
  8
SAPA_ANSLUTNING
  5
16ED
 10
0.799947
 20
196.377
 30
0.000000
  70
    32
  0
VERTEX
  8
SAPA_ANSLUTNING
  5
16EE
 10
0.963281
 20
196.553
 30
0.000000
  70
    32
  0
VERTEX
  8
SAPA_ANSLUTNING
  5
16EF
 10
1.14234
 20
196.724
 30
0.000000
  70
    32
  0
VERTEX
  8
SAPA_ANSLUTNING
  5
16F0
 10
1.33669
 20
196.889
 30
0.000000
  70
    32
  0
VERTEX
  8
SAPA_ANSLUTNING
  5
16F1
 10
1.54587
 20
197.050
 30
0.000000
  70
    32
  0
VERTEX
  8
SAPA_ANSLUTNING
  5
16F2
 10
1.76937
 20
197.205
 30
0.000000
  70
    32
  0
VERTEX
  8
SAPA_ANSLUTNING
  5
16F3
 10
2.00666
 20
197.353
 30
0.000000
  70
    32
  0
VERTEX
  8
SAPA_ANSLUTNING
  5
16F4
 10
2.25715
 20
197.496
 30
0.000000
  70
    32
  0
VERTEX
  8
SAPA_ANSLUTNING
  5
16F5
 10
2.52025
 20
197.631
 30
0.000000
  70
    32
  0
VERTEX
  8
SAPA_ANSLUTNING
  5
16F6
 10
2.79533
 20
197.759
 30
0.000000
  70
    32
  0
VERTEX
  8
SAPA_ANSLUTNING
  5
16F7
 10
3.08172
 20
197.880
 30
0.000000
  70
    32
  0
VERTEX
  8
SAPA_ANSLUTNING
  5
16F8
 10
3.37873
 20
197.993
 30
0.000000
  70
    32
  0
VERTEX
  8
SAPA_ANSLUTNING
  5
16F9
 10
3.68565
 20
198.098
 30
0.000000
  70
    32
  0
VERTEX
  8
SAPA_ANSLUTNING
  5
16FA
 10
4.00173
 20
198.195
 30
0.000000
  70
    32
  0
VERTEX
  8
SAPA_ANSLUTNING
  5
16FB
 10
4.32622
 20
198.283
 30
0.000000
  70
    32
  0
VERTEX
  8
SAPA_ANSLUTNING
  5
16FC
 10
4.65833
 20
198.363
 30
0.000000
  70
    32
  0
VERTEX
  8
SAPA_ANSLUTNING
  5
16FD
 10
4.99727
 20
198.433
 30
0.000000
  70
    32
  0
VERTEX
  8
SAPA_ANSLUTNING
  5
16FE
 10
5.34221
 20
198.495
 30
0.000000
  70
    32
  0
VERTEX
  8
SAPA_ANSLUTNING
  5
16FF
 10
5.69233
 20
198.547
 30
0.000000
  70
    32
  0
VERTEX
  8
SAPA_ANSLUTNING
  5
1700
 10
6.04678
 20
198.590
 30
0.000000
  70
    32
  0
VERTEX
  8
SAPA_ANSLUTNING
  5
1701
 10
6.40471
 20
198.624
 30
0.000000
  70
    32
  0
VERTEX
  8
SAPA_ANSLUTNING
  5
1702
 10
6.76526
 20
198.648
 30
0.000000
  70
    32
  0
VERTEX
  8
SAPA_ANSLUTNING
  5
1703
 10
7.12755
 20
198.662
 30
0.000000
  70
    32
  0
VERTEX
  8
SAPA_ANSLUTNING
  5
1704
 10
7.49072
 20
198.667
 30
0.000000
  70
    32
  0
VERTEX
  8
SAPA_ANSLUTNING
  5
1705
 10
7.85389
 20
198.662
 30
0.000000
  70
    32
  0
VERTEX
  8
SAPA_ANSLUTNING
  5
1706
 10
8.21618
 20
198.648
 30
0.000000
  70
    32
  0
VERTEX
  8
SAPA_ANSLUTNING
  5
1707
 10
8.57673
 20
198.624
 30
0.000000
  70
    32
  0
VERTEX
  8
SAPA_ANSLUTNING
  5
1708
 10
8.93466
 20
198.590
 30
0.000000
  70
    32
  0
VERTEX
  8
SAPA_ANSLUTNING
  5
1709
 10
9.28911
 20
198.547
 30
0.000000
  70
    32
  0
VERTEX
  8
SAPA_ANSLUTNING
  5
170A
 10
9.63923
 20
198.495
 30
0.000000
  70
    32
  0
VERTEX
  8
SAPA_ANSLUTNING
  5
170B
 10
9.98417
 20
198.433
 30
0.000000
  70
    32
  0
VERTEX
  8
SAPA_ANSLUTNING
  5
170C
 10
10.3231
 20
198.363
 30
0.000000
  70
    32
  0
VERTEX
  8
SAPA_ANSLUTNING
  5
170D
 10
10.6552
 20
198.283
 30
0.000000
  70
    32
  0
VERTEX
  8
SAPA_ANSLUTNING
  5
170E
 10
10.9797
 20
198.195
 30
0.000000
  70
    32
  0
VERTEX
  8
SAPA_ANSLUTNING
  5
170F
 10
11.2958
 20
198.098
 30
0.000000
  70
    32
  0
VERTEX
  8
SAPA_ANSLUTNING
  5
1710
 10
11.6027
 20
197.993
 30
0.000000
  70
    32
  0
VERTEX
  8
SAPA_ANSLUTNING
  5
1711
 10
11.8997
 20
197.880
 30
0.000000
  70
    32
  0
VERTEX
  8
SAPA_ANSLUTNING
  5
1712
 10
12.1861
 20
197.759
 30
0.000000
  70
    32
  0
VERTEX
  8
SAPA_ANSLUTNING
  5
1713
 10
12.4612
 20
197.631
 30
0.000000
  70
    32
  0
VERTEX
  8
SAPA_ANSLUTNING
  5
1714
 10
12.7243
 20
197.496
 30
0.000000
  70
    32
  0
VERTEX
  8
SAPA_ANSLUTNING
  5
1715
 10
12.9748
 20
197.353
 30
0.000000
  70
    32
  0
VERTEX
  8
SAPA_ANSLUTNING
  5
1716
 10
13.2121
 20
197.205
 30
0.000000
  70
    32
  0
VERTEX
  8
SAPA_ANSLUTNING
  5
1717
 10
13.4356
 20
197.050
 30
0.000000
  70
    32
  0
VERTEX
  8
SAPA_ANSLUTNING
  5
1718
 10
13.6448
 20
196.889
 30
0.000000
  70
    32
  0
VERTEX
  8
SAPA_ANSLUTNING
  5
1719
 10
13.8391
 20
196.724
 30
0.000000
  70
    32
  0
VERTEX
  8
SAPA_ANSLUTNING
  5
171A
 10
14.0182
 20
196.553
 30
0.000000
  70
    32
  0
VERTEX
  8
SAPA_ANSLUTNING
  5
171B
 10
14.1815
 20
196.377
 30
0.000000
  70
    32
  0
VERTEX
  8
SAPA_ANSLUTNING
  5
171C
 10
14.3287
 20
196.198
 30
0.000000
  70
    32
  0
VERTEX
  8
SAPA_ANSLUTNING
  5
171D
 10
14.4595
 20
196.015
 30
0.000000
  70
    32
  0
VERTEX
  8
SAPA_ANSLUTNING
  5
171E
 10
14.5734
 20
195.828
 30
0.000000
  70
    32
  0
VERTEX
  8
SAPA_ANSLUTNING
  5
171F
 10
14.6703
 20
195.639
 30
0.000000
  70
    32
  0
VERTEX
  8
SAPA_ANSLUTNING
  5
1720
 10
14.7499
 20
195.447
 30
0.000000
  70
    32
  0
VERTEX
  8
SAPA_ANSLUTNING
  5
1721
 10
14.8120
 20
195.254
 30
0.000000
  70
    32
  0
VERTEX
  8
SAPA_ANSLUTNING
  5
1722
 10
14.8565
 20
195.059
 30
0.000000
  70
    32
  0
VERTEX
  8
SAPA_ANSLUTNING
  5
1723
 10
14.8832
 20
194.863
 30
0.000000
  70
    32
  0
VERTEX
  8
SAPA_ANSLUTNING
  5
1724
 10
14.8921
 20
194.667
 30
0.000000
  70
    32
  0
SEQEND
  8
SAPA_ANSLUTNING
  5
1725
  0
POLYLINE
  5
875
  8
SAPA_ANSLUTNING
 66
     1
 10
0.0
 20
0.0
 30
0.0
  0
VERTEX
  5
DCA
  8
SAPA_ANSLUTNING
 10
1.988622637640219
 20
190.36516484319139
 30
0.0
  0
VERTEX
  5
DCB
  8
SAPA_ANSLUTNING
 10
12.9886244799527
 20
190.36516484319139
 30
0.0
 42
-0.9999999999999998
  0
VERTEX
  5
DCC
  8
SAPA_ANSLUTNING
 10
12.9886244799527
 20
186.36516484319139
 30
0.0
  0
VERTEX
  5
DCD
  8
SAPA_ANSLUTNING
 10
1.994307634195138
 20
186.36516484319139
 30
0.0
 42
0.9999999999999998
  0
VERTEX
  5
DCE
  8
SAPA_ANSLUTNING
 10
1.994307634195138
 20
182.3651648431987
 30
0.0
  0
VERTEX
  5
DCF
  8
SAPA_ANSLUTNING
 10
12.988626322265191
 20
182.36516484319691
 30
0.0
 42
-0.9999999999999998
  0
VERTEX
  5
DD0
  8
SAPA_ANSLUTNING
 10
12.988626322265191
 20
178.36516484319691
 30
0.0
  0
VERTEX
  5
DD1
  8
SAPA_ANSLUTNING
 10
1.994309476507623
 20
178.36516484319691
 30
0.0
 42
0.9999999999999998
  0
VERTEX
  5
DD2
  8
SAPA_ANSLUTNING
 10
1.994309476507623
 20
174.3651648431987
 30
0.0
  0
VERTEX
  5
DD3
  8
SAPA_ANSLUTNING
 10
12.99431131882011
 20
174.3651648431987
 30
0.0
 42
-0.9999999999999998
  0
VERTEX
  5
DD4
  8
SAPA_ANSLUTNING
 10
12.99431131882011
 20
170.3651648431987
 30
0.0
  0
VERTEX
  5
DD5
  8
SAPA_ANSLUTNING
 10
1.9999944730625421
 20
170.3651648431987
 30
0.0
 42
0.9999999999999998
  0
VERTEX
  5
DD6
  8
SAPA_ANSLUTNING
 10
1.9999944730625421
 20
166.365164843206
 30
0.0
  0
VERTEX
  5
DD7
  8
SAPA_ANSLUTNING
 10
12.99431316113259
 20
166.36516484320421
 30
0.0
 42
-0.9999999999999998
  0
VERTEX
  5
DD8
  8
SAPA_ANSLUTNING
 10
12.99431316113259
 20
162.36516484320421
 30
0.0
  0
VERTEX
  5
DD9
  8
SAPA_ANSLUTNING
 10
1.999996315375028
 20
162.36516484320421
 30
0.0
 42
0.9999999999999998
  0
VERTEX
  5
DDA
  8
SAPA_ANSLUTNING
 10
1.999996315375028
 20
158.365164843206
 30
0.0
  0
VERTEX
  5
DDB
  8
SAPA_ANSLUTNING
 10
12.999998157687511
 20
158.365164843206
 30
0.0
 42
-0.9999999999999998
  0
VERTEX
  5
DDC
  8
SAPA_ANSLUTNING
 10
12.999998157687511
 20
154.365164843206
 30
0.0
  0
VERTEX
  5
DDD
  8
SAPA_ANSLUTNING
 10
2.0056813119299468
 20
154.365164843206
 30
0.0
 42
0.9999999999999998
  0
VERTEX
  5
DDE
  8
SAPA_ANSLUTNING
 10
2.0056813119299468
 20
150.36516484321319
 30
0.0
  0
VERTEX
  5
DDF
  8
SAPA_ANSLUTNING
 10
13.0
 20
150.3651648432114
 30
0.0
 42
-0.9999999999999998
  0
VERTEX
  5
DE0
  8
SAPA_ANSLUTNING
 10
13.0
 20
146.3651648432114
 30
0.0
  0
VERTEX
  5
DE1
  8
SAPA_ANSLUTNING
 10
2.0056831542424329
 20
146.3651648432114
 30
0.0
 42
0.9999999999999998
  0
VERTEX
  5
DE2
  8
SAPA_ANSLUTNING
 10
2.0056831542424329
 20
142.36516484321331
 30
0.0
  0
VERTEX
  5
DE3
  8
SAPA_ANSLUTNING
 10
13.0
 20
142.3651648432151
 30
0.0
 42
-0.9999999999999998
  0
VERTEX
  5
DE4
  8
SAPA_ANSLUTNING
 10
13.0
 20
138.3651648432151
 30
0.0
  0
VERTEX
  5
DE5
  8
SAPA_ANSLUTNING
 10
2.0056831542424329
 20
138.3651648432151
 30
0.0
 42
0.9999999999999998
  0
VERTEX
  5
DE6
  8
SAPA_ANSLUTNING
 10
2.0056831542424329
 20
134.3651648432205
 30
0.0
  0
VERTEX
  5
DE7
  8
SAPA_ANSLUTNING
 10
13.0
 20
134.3651648432205
 30
0.0
 42
-0.9999999999999998
  0
VERTEX
  5
DE8
  8
SAPA_ANSLUTNING
 10
13.0
 20
130.3651648432205
 30
0.0
  0
VERTEX
  5
DE9
  8
SAPA_ANSLUTNING
 10
2.0056831542424329
 20
130.3651648432205
 30
0.0
 42
0.9999999999999998
  0
VERTEX
  5
DEA
  8
SAPA_ANSLUTNING
 10
2.0056831542424329
 20
126.36516484322421
 30
0.0
  0
VERTEX
  5
DEB
  8
SAPA_ANSLUTNING
 10
13.0
 20
126.36516484322421
 30
0.0
 42
-0.9999999999999998
  0
VERTEX
  5
DEC
  8
SAPA_ANSLUTNING
 10
13.0
 20
122.36516484322421
 30
0.0
  0
VERTEX
  5
DED
  8
SAPA_ANSLUTNING
 10
2.0056831542424329
 20
122.36516484322421
 30
0.0
 42
0.9999999999999998
  0
VERTEX
  5
DEE
  8
SAPA_ANSLUTNING
 10
2.0056831542424329
 20
118.3651648432278
 30
0.0
  0
VERTEX
  5
DEF
  8
SAPA_ANSLUTNING
 10
13.0
 20
118.36516484322961
 30
0.0
 42
-0.9999999999999998
  0
VERTEX
  5
DF0
  8
SAPA_ANSLUTNING
 10
13.0
 20
114.36516484322961
 30
0.0
  0
VERTEX
  5
DF1
  8
SAPA_ANSLUTNING
 10
2.0056831542424329
 20
114.3651648432333
 30
0.0
 42
0.9999999999999998
  0
VERTEX
  5
DF2
  8
SAPA_ANSLUTNING
 10
2.0056831542424329
 20
110.3651648432333
 30
0.0
  0
VERTEX
  5
DF3
  8
SAPA_ANSLUTNING
 10
13.0
 20
110.3651648432333
 30
0.0
 42
-0.9999999999999998
  0
VERTEX
  5
DF4
  8
SAPA_ANSLUTNING
 10
13.0
 20
106.3651648432333
 30
0.0
  0
VERTEX
  5
DF5
  8
SAPA_ANSLUTNING
 10
2.0056831542424329
 20
106.3651648432314
 30
0.0
 42
0.9999999999999998
  0
VERTEX
  5
DF6
  8
SAPA_ANSLUTNING
 10
2.0056831542424329
 20
102.3651648432387
 30
0.0
  0
VERTEX
  5
DF7
  8
SAPA_ANSLUTNING
 10
13.00000184231248
 20
102.3651648432387
 30
0.0
 42
-0.9999999999999998
  0
VERTEX
  5
DF8
  8
SAPA_ANSLUTNING
 10
13.00000184231248
 20
98.365164843238745
 30
0.0
  0
VERTEX
  5
DF9
  8
SAPA_ANSLUTNING
 10
2.0056849965549191
 20
98.365164843238745
 30
0.0
 42
0.9999999999999998
  0
VERTEX
  5
DFA
  8
SAPA_ANSLUTNING
 10
2.0056849965549191
 20
94.365164843242383
 30
0.0
  0
VERTEX
  5
DFB
  8
SAPA_ANSLUTNING
 10
13.00000184231248
 20
94.365164843242383
 30
0.0
 42
-0.9999999999999998
  0
VERTEX
  5
DFC
  8
SAPA_ANSLUTNING
 10
13.00000184231248
 20
90.365164843242383
 30
0.0
  0
VERTEX
  5
DFD
  8
SAPA_ANSLUTNING
 10
2.0056849965549191
 20
90.365164843242383
 30
0.0
 42
0.9999999999999998
  0
VERTEX
  5
DFE
  8
SAPA_ANSLUTNING
 10
2.0056849965549191
 20
86.365164843246021
 30
0.0
  0
VERTEX
  5
DFF
  8
SAPA_ANSLUTNING
 10
13.00568131193188
 20
86.365164843246021
 30
0.0
 42
-0.9999999999999998
  0
VERTEX
  5
E00
  8
SAPA_ANSLUTNING
 10
13.00568131193188
 20
82.365164843246006
 30
0.0
  0
VERTEX
  5
E01
  8
SAPA_ANSLUTNING
 10
2.0056849965549191
 20
82.365164843246006
 30
0.0
 42
0.9999999999999998
  0
VERTEX
  5
E02
  8
SAPA_ANSLUTNING
 10
2.0056849965549191
 20
78.365164843249659
 30
0.0
  0
VERTEX
  5
E03
  8
SAPA_ANSLUTNING
 10
13.00568131193188
 20
78.365164843249659
 30
0.0
 42
-0.9999999999999998
  0
VERTEX
  5
E04
  8
SAPA_ANSLUTNING
 10
13.00568131193188
 20
74.365164843249659
 30
0.0
  0
VERTEX
  5
E05
  8
SAPA_ANSLUTNING
 10
2.0056849965549191
 20
74.365164843249659
 30
0.0
 42
0.9999999999999998
  0
VERTEX
  5
E06
  8
SAPA_ANSLUTNING
 10
2.0056849965549191
 20
70.365164843253297
 30
0.0
  0
VERTEX
  5
E07
  8
SAPA_ANSLUTNING
 10
13.00568131193188
 20
70.365164843253297
 30
0.0
 42
-0.9999999999999998
  0
VERTEX
  5
E08
  8
SAPA_ANSLUTNING
 10
13.00568131193188
 20
66.365164843253297
 30
0.0
  0
VERTEX
  5
E09
  8
SAPA_ANSLUTNING
 10
2.0056849965549191
 20
66.365164843253297
 30
0.0
 42
0.9999999999999998
  0
VERTEX
  5
E0A
  8
SAPA_ANSLUTNING
 10
2.0056849965549191
 20
62.365164843256942
 30
0.0
  0
VERTEX
  5
E0B
  8
SAPA_ANSLUTNING
 10
8.0000018423124857
 20
62.365164843256942
 30
0.0
  0
SEQEND
  5
E0C
  8
SAPA_ANSLUTNING
  0
LINE
  5
929
  8
SAPA_ANSLUTNING
 10
0.0056813119317667
 20
255.37598493116889
 30
0.0
 11
0.0056813119317667
 21
-14.18047314799184
 31
0.0
  0
LINE
  5
C06
  8
SAPA_FYLLNING
 10
66.886250523694798
 20
98.752207122612845
 30
0.0
 11
66.886250523694912
 21
188.93442915143871
 31
0.0
  0
ARC
  5
C07
  8
SAPA_FYLLNING
 10
72.874972317406929
 20
189.55780264091501
 30
0.0
 40
6.0210782447883089
 50
356.73056047312667
 51
185.94258789355419
  0
LINE
  5
C08
  8
SAPA_FYLLNING
 10
78.886250523695821
 20
189.2144113823494
 30
0.0
 11
78.886250523696603
 21
98.752207122612845
 31
0.0
  0
ARC
  5
C09
  8
SAPA_FYLLNING
 10
84.886250523695679
 20
98.752207122612845
 30
0.0
 40
5.9999999999990621
 50
180.0
 51
0.0
  0
LINE
  5
C0A
  8
SAPA_FYLLNING
 10
90.886250523694741
 20
98.752207122612845
 30
0.0
 11
90.894180232023871
 21
192.23913921705551
 31
0.0
  0
ARC
  5
C0B
  8
SAPA_FYLLNING
 10
96.855454473906235
 20
193.21909052735239
 30
0.0
 40
6.041282575536659
 50
356.6236169596126
 51
189.3351464994943
  0
LINE
  5
C0C
  8
SAPA_FYLLNING
 10
102.8862505236949
 20
192.8632897919185
 30
0.0
 11
102.8862505236947
 21
98.752207122612845
 31
0.0
  0
ARC
  5
C0D
  8
SAPA_FYLLNING
 10
108.8862505236938
 20
98.752207122612845
 30
0.0
 40
5.9999999999990896
 50
180.0
 51
0.0
  0
LINE
  5
C0E
  8
SAPA_FYLLNING
 10
114.88625052369289
 20
98.752207122612845
 30
0.0
 11
114.89418023202199
 21
192.23913921705551
 31
0.0
  0
LINE
  5
CDB
  8
SAPA_PROFIL
 10
28.905681311931289
 20
75.752207122613683
 30
0.0
 11
28.905681311931289
 21
30.252207122613761
 31
0.0
  0
LINE
  5
CDC
  8
SAPA_PROFIL
 10
34.905681311931289
 20
75.752207122613683
 30
0.0
 11
28.905681311931289
 21
75.752207122613683
 31
0.0
  0
LINE
  5
CDD
  8
SAPA_PROFIL
 10
34.905681311931289
 20
92.752207122613697
 30
0.0
 11
34.905681311931289
 21
75.752207122613683
 31
0.0
  0
LINE
  5
CDE
  8
SAPA_PROFIL
 10
14.905681311931289
 20
92.752207122613697
 30
0.0
 11
34.905681311931289
 21
92.752207122613697
 31
0.0
  0
LINE
  5
CDF
  8
SAPA_PROFIL
 10
14.905681311931289
 20
30.252207122613761
 30
0.0
 11
14.905681311931289
 21
92.752207122613697
 31
0.0
  0
LINE
  5
CE0
  8
SAPA_PROFIL
 10
28.905681311931289
 20
30.252207122613761
 30
0.0
 11
14.905681311931289
 21
30.252207122613761
 31
0.0
  0
POLYLINE
  5
CE1
  8
SAPA_PROFIL
 62
     4
 66
     1
 10
0.0
 20
0.0
 30
0.0
 70
     1
  0
VERTEX
  5
100E
  8
SAPA_PROFIL
 62
     4
 10
46.905681677184802
 20
78.690589837075962
 30
0.0
 42
0.414213562373114
  0
VERTEX
  5
100F
  8
SAPA_PROFIL
 62
     4
 10
44.905681677184809
 20
76.690589837075834
 30
0.0
  0
VERTEX
  5
1010
  8
SAPA_PROFIL
 62
     4
 10
44.905681677185079
 20
72.190589837075919
 30
0.0
 42
0.4142135623730807
  0
VERTEX
  5
1011
  8
SAPA_PROFIL
 62
     4
 10
45.405681677185079
 20
71.690589837075962
 30
0.0
  0
VERTEX
  5
1012
  8
SAPA_PROFIL
 62
     4
 10
45.905681677185711
 20
71.690589837075962
 30
0.0
 42
0.4142135623730951
  0
VERTEX
  5
1013
  8
SAPA_PROFIL
 62
     4
 10
46.405681677185719
 20
72.190589837075962
 30
0.0
  0
VERTEX
  5
1014
  8
SAPA_PROFIL
 62
     4
 10
46.405681677185719
 20
76.690589837076018
 30
0.0
 42
-0.4142135623730847
  0
VERTEX
  5
1015
  8
SAPA_PROFIL
 62
     4
 10
46.905681677185719
 20
77.190589837076018
 30
0.0
  0
VERTEX
  5
1016
  8
SAPA_PROFIL
 62
     4
 10
48.605681677182801
 20
77.190589837076075
 30
0.0
 42
-0.4142135623731284
  0
VERTEX
  5
1017
  8
SAPA_PROFIL
 62
     4
 10
49.105681677182808
 20
76.690589837076075
 30
0.0
  0
VERTEX
  5
1018
  8
SAPA_PROFIL
 62
     4
 10
49.105681677180989
 20
48.690589837076061
 30
0.0
 42
-0.4142135623730959
  0
VERTEX
  5
1019
  8
SAPA_PROFIL
 62
     4
 10
48.605681677180989
 20
48.190589837076061
 30
0.0
  0
VERTEX
  5
101A
  8
SAPA_PROFIL
 62
     4
 10
46.905681677185719
 20
48.190589837075947
 30
0.0
 42
-0.4142135623730951
  0
VERTEX
  5
101B
  8
SAPA_PROFIL
 62
     4
 10
46.405681677185719
 20
48.690589837075947
 30
0.0
  0
VERTEX
  5
101C
  8
SAPA_PROFIL
 62
     4
 10
46.405681677185719
 20
53.190589837075102
 30
0.0
 42
0.4142135623730951
  0
VERTEX
  5
101D
  8
SAPA_PROFIL
 62
     4
 10
45.905681677185711
 20
53.690589837075102
 30
0.0
  0
VERTEX
  5
101E
  8
SAPA_PROFIL
 62
     4
 10
45.405681677186259
 20
53.690589837075102
 30
0.0
 42
0.4142135623731129
  0
VERTEX
  5
101F
  8
SAPA_PROFIL
 62
     4
 10
44.905681677186259
 20
53.190589837075059
 30
0.0
  0
VERTEX
  5
1020
  8
SAPA_PROFIL
 62
     4
 10
44.905681677186621
 20
47.190589837075088
 30
0.0
 42
0.4142135623730951
  0
VERTEX
  5
1021
  8
SAPA_PROFIL
 62
     4
 10
45.405681677186628
 20
46.690589837075088
 30
0.0
  0
VERTEX
  5
1022
  8
SAPA_PROFIL
 62
     4
 10
57.705681677183172
 20
46.690589837075777
 30
0.0
  0
VERTEX
  5
1023
  8
SAPA_PROFIL
 62
     4
 10
58.292065692943993
 20
47.155513256641598
 30
0.0
 42
0.7105995015669819
  0
VERTEX
  5
1024
  8
SAPA_PROFIL
 62
     4
 10
58.105681677182801
 20
47.690589837076679
 30
0.0
  0
VERTEX
  5
1025
  8
SAPA_PROFIL
 62
     4
 10
57.105681677182808
 20
47.69058983707577
 30
0.0
 42
-0.4142135623731117
  0
VERTEX
  5
1026
  8
SAPA_PROFIL
 62
     4
 10
56.605681677182808
 20
48.19058983707577
 30
0.0
  0
VERTEX
  5
1027
  8
SAPA_PROFIL
 62
     4
 10
56.605681677182808
 20
52.190589837075777
 30
0.0
 42
-0.4142135623730951
  0
VERTEX
  5
1028
  8
SAPA_PROFIL
 62
     4
 10
57.105681677182808
 20
52.69058983707577
 30
0.0
  0
VERTEX
  5
1029
  8
SAPA_PROFIL
 62
     4
 10
62.705681677183172
 20
52.69058983707577
 30
0.0
 42
-0.4142135623730951
  0
VERTEX
  5
102A
  8
SAPA_PROFIL
 62
     4
 10
63.205681677183172
 20
52.190589837075777
 30
0.0
  0
VERTEX
  5
102B
  8
SAPA_PROFIL
 62
     4
 10
63.205681677183172
 20
48.190589837076693
 30
0.0
 42
-0.4142135623730784
  0
VERTEX
  5
102C
  8
SAPA_PROFIL
 62
     4
 10
62.705681677183172
 20
47.690589837076679
 30
0.0
  0
VERTEX
  5
102D
  8
SAPA_PROFIL
 62
     4
 10
61.705681677183172
 20
47.69058983707577
 30
0.0
 42
0.7105995015654651
  0
VERTEX
  5
102E
  8
SAPA_PROFIL
 62
     4
 10
61.519297661422897
 20
47.155513256641598
 30
0.0
  0
VERTEX
  5
102F
  8
SAPA_PROFIL
 62
     4
 10
62.105681677182808
 20
46.690589837075777
 30
0.0
  0
VERTEX
  5
1030
  8
SAPA_PROFIL
 62
     4
 10
64.205681677183179
 20
46.690589837075777
 30
0.0
 42
0.4142135623730951
  0
VERTEX
  5
1031
  8
SAPA_PROFIL
 62
     4
 10
64.705681677183179
 20
47.190589837075777
 30
0.0
  0
VERTEX
  5
1032
  8
SAPA_PROFIL
 62
     4
 10
64.705681677183179
 20
54.190589837075777
 30
0.0
 42
0.4142135623730951
  0
VERTEX
  5
1033
  8
SAPA_PROFIL
 62
     4
 10
64.205681677183179
 20
54.690589837075777
 30
0.0
  0
VERTEX
  5
1034
  8
SAPA_PROFIL
 62
     4
 10
62.605681677182808
 20
54.690589837076679
 30
0.0
  0
VERTEX
  5
1035
  8
SAPA_PROFIL
 62
     4
 10
62.605681677182808
 20
54.690589837076679
 30
0.0
 42
-0.4142135623730951
  0
VERTEX
  5
1036
  8
SAPA_PROFIL
 62
     4
 10
62.105681677182808
 20
54.190589837076679
 30
0.0
  0
VERTEX
  5
1037
  8
SAPA_PROFIL
 62
     4
 10
55.605681677183718
 20
54.190589837076679
 30
0.0
 42
0.4142135623730951
  0
VERTEX
  5
1038
  8
SAPA_PROFIL
 62
     4
 10
55.105681677183711
 20
53.690589837076679
 30
0.0
  0
VERTEX
  5
1039
  8
SAPA_PROFIL
 62
     4
 10
55.105681677183711
 20
48.690589837075777
 30
0.0
 42
-0.4142135623730951
  0
VERTEX
  5
103A
  8
SAPA_PROFIL
 62
     4
 10
54.605681677183711
 20
48.19058983707577
 30
0.0
  0
VERTEX
  5
103B
  8
SAPA_PROFIL
 62
     4
 10
51.105681677182801
 20
48.190589837075891
 30
0.0
 42
-0.4142135623731117
  0
VERTEX
  5
103C
  8
SAPA_PROFIL
 62
     4
 10
50.605681677182801
 20
48.690589837075891
 30
0.0
  0
VERTEX
  5
103D
  8
SAPA_PROFIL
 62
     4
 10
50.605681677184627
 20
94.190589837076502
 30
0.0
 42
-0.4142135623724291
  0
VERTEX
  5
103E
  8
SAPA_PROFIL
 62
     4
 10
50.9056816771839
 20
94.490589837076683
 30
0.0
  0
VERTEX
  5
103F
  8
SAPA_PROFIL
 62
     4
 10
52.205681677184678
 20
94.490589837076683
 30
0.0
 42
0.6681786379194817
  0
VERTEX
  5
1040
  8
SAPA_PROFIL
 62
     4
 10
52.417813711540497
 20
95.002721871432684
 30
0.0
  0
VERTEX
  5
1041
  8
SAPA_PROFIL
 62
     4
 10
50.217813711541297
 20
97.2027218714328
 30
0.0
 42
0.1989123673797118
  0
VERTEX
  5
1042
  8
SAPA_PROFIL
 62
     4
 10
50.005681677185301
 20
97.290589837076865
 30
0.0
  0
VERTEX
  5
1043
  8
SAPA_PROFIL
 62
     4
 10
49.4056816771839
 20
97.290589837076865
 30
0.0
 42
0.4142135623724291
  0
VERTEX
  5
1044
  8
SAPA_PROFIL
 62
     4
 10
49.10568167718462
 20
96.990589837076683
 30
0.0
  0
VERTEX
  5
1045
  8
SAPA_PROFIL
 62
     4
 10
49.10568167718462
 20
79.190589837075962
 30
0.0
 42
-0.4142135623730951
  0
VERTEX
  5
1046
  8
SAPA_PROFIL
 62
     4
 10
48.60568167718462
 20
78.690589837075962
 30
0.0
  0
SEQEND
  5
1047
  8
SAPA_PROFIL
 62
     4
  0
LINE
  5
CE2
  8
SAPA_PROFIL
 62
     4
 10
52.905681311931403
 20
54.75220712261364
 30
0.0
 11
114.9056813119323
 21
54.75220712261364
 31
0.0
  0
LINE
  5
CE3
  8
SAPA_PROFIL
 62
     4
 10
52.905681311931403
 20
62.75220712261364
 30
0.0
 11
52.905681311931403
 21
54.75220712261364
 31
0.0
  0
LINE
  5
CE4
  8
SAPA_PROFIL
 62
     4
 10
114.9056813119323
 20
62.75220712261364
 30
0.0
 11
52.905681311931403
 21
62.75220712261364
 31
0.0
  0
LINE
  5
CE5
  8
SAPA_PROFIL
 62
     4
 10
50.905681311932419
 20
29.752207122613701
 30
0.0
 11
114.9056813119323
 21
29.752207122613701
 31
0.0
  0
LINE
  5
CE6
  8
SAPA_PROFIL
 62
     4
 10
50.905681311932419
 20
35.752207122613697
 30
0.0
 11
50.905681311932419
 21
29.752207122613701
 31
0.0
  0
LINE
  5
CE7
  8
SAPA_PROFIL
 62
     4
 10
114.9056813119323
 20
35.752207122613697
 30
0.0
 11
50.905681311932419
 21
35.752207122613697
 31
0.0
  0
POLYLINE
  5
CE8
  8
SAPA_PROFIL
 66
     1
 10
0.0
 20
0.0
 30
0.0
 70
     1
  0
VERTEX
  5
1048
  8
SAPA_PROFIL
 10
51.844056586936901
 20
27.752207122612081
 30
0.0
 42
-0.2216946626428728
  0
VERTEX
  5
1049
  8
SAPA_PROFIL
 10
52.610101030055532
 20
27.39499473229856
 30
0.0
  0
VERTEX
  5
104A
  8
SAPA_PROFIL
 10
53.688826722480407
 20
26.10941951292742
 30
0.0
 42
0.2216946626428911
  0
VERTEX
  5
104B
  8
SAPA_PROFIL
 10
54.454871165599158
 20
25.75220712261395
 30
0.0
  0
VERTEX
  5
104C
  8
SAPA_PROFIL
 10
56.231417243220719
 20
25.752207122613441
 30
0.0
 42
-0.1989123673796749
  0
VERTEX
  5
104D
  8
SAPA_PROFIL
 10
56.443549277576992
 20
25.664339156969529
 30
0.0
  0
VERTEX
  5
104E
  8
SAPA_PROFIL
 10
57.014259955695287
 20
25.093628478850778
 30
0.0
 42
-0.6681786379193591
  0
VERTEX
  5
104F
  8
SAPA_PROFIL
 10
56.872838599457779
 20
24.752207122613441
 30
0.0
  0
VERTEX
  5
1050
  8
SAPA_PROFIL
 10
55.905681311932582
 20
24.752207122613669
 30
0.0
 42
0.4142135623730951
  0
VERTEX
  5
1051
  8
SAPA_PROFIL
 10
55.405681311932582
 20
24.2522071226139
 30
0.0
  0
VERTEX
  5
1052
  8
SAPA_PROFIL
 10
55.405681311932582
 20
23.86139819289329
 30
0.0
 42
0.1763269807084316
  0
VERTEX
  5
1053
  8
SAPA_PROFIL
 10
55.475867978996838
 20
23.66856190998752
 30
0.0
  0
VERTEX
  5
1054
  8
SAPA_PROFIL
 10
56.934012181804789
 20
21.93081331777071
 30
0.0
 42
0.2216946626429586
  0
VERTEX
  5
1055
  8
SAPA_PROFIL
 10
57.317034403364282
 20
21.75220712261396
 30
0.0
  0
VERTEX
  5
1056
  8
SAPA_PROFIL
 10
59.887589752131632
 20
21.7522071226139
 30
0.0
 42
0.2216946626429592
  0
VERTEX
  5
1057
  8
SAPA_PROFIL
 10
60.117403085067551
 20
21.85937083970785
 30
0.0
  0
VERTEX
  5
1058
  8
SAPA_PROFIL
 10
61.635494644868267
 20
23.66856190998752
 30
0.0
 42
0.1763269807084563
  0
VERTEX
  5
1059
  8
SAPA_PROFIL
 10
61.70568131193253
 20
23.86139819289329
 30
0.0
  0
VERTEX
  5
105A
  8
SAPA_PROFIL
 10
61.70568131193253
 20
24.2522071226139
 30
0.0
 42
0.4142135623730951
  0
VERTEX
  5
105B
  8
SAPA_PROFIL
 10
61.205681311932537
 20
24.752207122613441
 30
0.0
  0
VERTEX
  5
105C
  8
SAPA_PROFIL
 10
60.238524024407113
 20
24.752207122613441
 30
0.0
 42
-0.6681786379193841
  0
VERTEX
  5
105D
  8
SAPA_PROFIL
 10
60.097102668170052
 20
25.093628478850778
 30
0.0
  0
VERTEX
  5
105E
  8
SAPA_PROFIL
 10
60.66781334628881
 20
25.664339156969529
 30
0.0
 42
-0.1989123673796471
  0
VERTEX
  5
105F
  8
SAPA_PROFIL
 10
60.879945380644628
 20
25.7522071226139
 30
0.0
  0
VERTEX
  5
1060
  8
SAPA_PROFIL
 10
63.205681311932537
 20
25.752207122613441
 30
0.0
 42
-0.4142135623730951
  0
VERTEX
  5
1061
  8
SAPA_PROFIL
 10
63.705681311932537
 20
25.252207122613441
 30
0.0
  0
VERTEX
  5
1062
  8
SAPA_PROFIL
 10
63.705681311933098
 20
21.55220712261357
 30
0.0
 42
-0.4142135623729843
  0
VERTEX
  5
1063
  8
SAPA_PROFIL
 10
63.405681311933037
 20
21.252207122613381
 30
0.0
  0
VERTEX
  5
1064
  8
SAPA_PROFIL
 10
62.378886392690717
 20
21.252207122613498
 30
0.0
 42
0.26794919243117
  0
VERTEX
  5
1065
  8
SAPA_PROFIL
 10
62.119078771555031
 20
21.102207122613411
 30
0.0
  0
VERTEX
  5
1066
  8
SAPA_PROFIL
 10
61.248390030783789
 20
19.594129986019109
 30
0.0
 42
0.4142135623734465
  0
VERTEX
  5
1067
  8
SAPA_PROFIL
 10
61.358197651919042
 20
19.184322364883851
 30
0.0
  0
VERTEX
  5
1068
  8
SAPA_PROFIL
 10
61.905681311932923
 20
18.868232526397861
 30
0.0
 42
-0.4663076581550835
  0
VERTEX
  5
1069
  8
SAPA_PROFIL
 10
62.171725755051888
 20
17.359419512927019
 30
0.0
  0
VERTEX
  5
106A
  8
SAPA_PROFIL
 10
59.234836204249667
 20
13.859370839707619
 30
0.0
 42
-0.2216946626429129
  0
VERTEX
  5
106B
  8
SAPA_PROFIL
 10
59.00502287131399
 20
13.75220712261361
 30
0.0
  0
VERTEX
  5
106C
  8
SAPA_PROFIL
 10
57.8556813119324
 20
13.75220712261361
 30
0.0
 42
-0.4142135623732061
  0
VERTEX
  5
106D
  8
SAPA_PROFIL
 10
57.555681311932439
 20
14.05220712261368
 30
0.0
  0
VERTEX
  5
106E
  8
SAPA_PROFIL
 10
57.555681311933007
 20
17.55894662786207
 30
0.0
 42
0.1763269807085094
  0
VERTEX
  5
106F
  8
SAPA_PROFIL
 10
57.321725755051993
 20
18.201734237548781
 30
0.0
  0
VERTEX
  5
1070
  8
SAPA_PROFIL
 10
55.019816044002177
 20
20.94504340551984
 30
0.0
 42
0.2216946626429509
  0
VERTEX
  5
1071
  8
SAPA_PROFIL
 10
54.790002711066492
 20
21.052207122613911
 30
0.0
  0
VERTEX
  5
1072
  8
SAPA_PROFIL
 10
53.929895008513007
 20
21.052207122613911
 30
0.0
 42
-0.4142135623731506
  0
VERTEX
  5
1073
  8
SAPA_PROFIL
 10
53.629895008513053
 20
21.352207122613919
 30
0.0
  0
VERTEX
  5
1074
  8
SAPA_PROFIL
 10
53.629895008513053
 20
22.492295722706871
 30
0.0
 42
0.1763269807084654
  0
VERTEX
  5
1075
  8
SAPA_PROFIL
 10
53.559708341448797
 20
22.685132005612811
 30
0.0
  0
VERTEX
  5
1076
  8
SAPA_PROFIL
 10
51.873233268768139
 20
24.694994732300561
 30
0.0
 42
0.2216946626429509
  0
VERTEX
  5
1077
  8
SAPA_PROFIL
 10
51.107188825649168
 20
25.052207122614021
 30
0.0
  0
VERTEX
  5
1078
  8
SAPA_PROFIL
 10
28.704173798215528
 20
25.052207122613911
 30
0.0
 42
0.2216946626429508
  0
VERTEX
  5
1079
  8
SAPA_PROFIL
 10
27.93812935509656
 20
24.69499473230044
 30
0.0
  0
VERTEX
  5
107A
  8
SAPA_PROFIL
 10
26.25165428241591
 20
22.685132005612701
 30
0.0
 42
0.1763269807084657
  0
VERTEX
  5
107B
  8
SAPA_PROFIL
 10
26.18146761535165
 20
22.492295722706761
 30
0.0
  0
VERTEX
  5
107C
  8
SAPA_PROFIL
 10
26.18146761535165
 20
21.352207122613919
 30
0.0
 42
-0.4142135623730951
  0
VERTEX
  5
107D
  8
SAPA_PROFIL
 10
25.881467615351688
 20
21.052207122613972
 30
0.0
  0
VERTEX
  5
107E
  8
SAPA_PROFIL
 10
25.021359912798221
 20
21.052207122613972
 30
0.0
 42
0.2216946626429889
  0
VERTEX
  5
107F
  8
SAPA_PROFIL
 10
24.791546579862519
 20
20.9450434055199
 30
0.0
  0
VERTEX
  5
1080
  8
SAPA_PROFIL
 10
22.48963686881272
 20
18.20173423754866
 30
0.0
 42
0.1763269807085052
  0
VERTEX
  5
1081
  8
SAPA_PROFIL
 10
22.255681311931689
 20
17.5589466278619
 30
0.0
  0
VERTEX
  5
1082
  8
SAPA_PROFIL
 10
22.255681311932381
 20
14.05220712261368
 30
0.0
 42
-0.4142135623732062
  0
VERTEX
  5
1083
  8
SAPA_PROFIL
 10
21.95568131193242
 20
13.75220712261361
 30
0.0
  0
VERTEX
  5
1084
  8
SAPA_PROFIL
 10
20.806339752550841
 20
13.75220712261361
 30
0.0
 42
-0.2216946626429129
  0
VERTEX
  5
1085
  8
SAPA_PROFIL
 10
20.576526419615149
 20
13.859370839707619
 30
0.0
  0
VERTEX
  5
1086
  8
SAPA_PROFIL
 10
17.639636868812811
 20
17.359419512926959
 30
0.0
 42
-0.4663076581550919
  0
VERTEX
  5
1087
  8
SAPA_PROFIL
 10
17.905681311931779
 20
18.868232526397861
 30
0.0
  0
VERTEX
  5
1088
  8
SAPA_PROFIL
 10
18.453164971945661
 20
19.184322364883801
 30
0.0
 42
0.4142135623731708
  0
VERTEX
  5
1089
  8
SAPA_PROFIL
 10
18.562972593080911
 20
19.594129986019109
 30
0.0
  0
VERTEX
  5
108A
  8
SAPA_PROFIL
 10
17.692283852309671
 20
21.102207122613411
 30
0.0
 42
0.26794919243117
  0
VERTEX
  5
108B
  8
SAPA_PROFIL
 10
17.43247623117399
 20
21.252207122613498
 30
0.0
  0
VERTEX
  5
108C
  8
SAPA_PROFIL
 10
16.405681311931669
 20
21.252207122613498
 30
0.0
 42
-0.4142135623729287
  0
VERTEX
  5
108D
  8
SAPA_PROFIL
 10
16.105681311931601
 20
21.55220712261357
 30
0.0
  0
VERTEX
  5
108E
  8
SAPA_PROFIL
 10
16.10568131193217
 20
25.252207122613441
 30
0.0
 42
-0.4142135623730951
  0
VERTEX
  5
108F
  8
SAPA_PROFIL
 10
16.60568131193217
 20
25.752207122613441
 30
0.0
  0
VERTEX
  5
1090
  8
SAPA_PROFIL
 10
18.931417243220078
 20
25.7522071226139
 30
0.0
 42
-0.1989123673796819
  0
VERTEX
  5
1091
  8
SAPA_PROFIL
 10
19.1435492775759
 20
25.664339156969529
 30
0.0
  0
VERTEX
  5
1092
  8
SAPA_PROFIL
 10
19.714259955694651
 20
25.093628478850778
 30
0.0
 42
-0.6681786379193841
  0
VERTEX
  5
1093
  8
SAPA_PROFIL
 10
19.57283859945759
 20
24.752207122613441
 30
0.0
  0
VERTEX
  5
1094
  8
SAPA_PROFIL
 10
18.60568131193217
 20
24.752207122613441
 30
0.0
 42
0.4142135623730951
  0
VERTEX
  5
1095
  8
SAPA_PROFIL
 10
18.10568131193217
 20
24.2522071226139
 30
0.0
  0
VERTEX
  5
1096
  8
SAPA_PROFIL
 10
18.10568131193217
 20
23.86139819289329
 30
0.0
 42
0.1763269807084561
  0
VERTEX
  5
1097
  8
SAPA_PROFIL
 10
18.175867978996429
 20
23.66856190998752
 30
0.0
  0
VERTEX
  5
1098
  8
SAPA_PROFIL
 10
19.693959538797149
 20
21.85937083970785
 30
0.0
 42
0.2216946626429592
  0
VERTEX
  5
1099
  8
SAPA_PROFIL
 10
19.923772871733071
 20
21.7522071226139
 30
0.0
  0
VERTEX
  5
109A
  8
SAPA_PROFIL
 10
22.494328220500432
 20
21.75220712261396
 30
0.0
 42
0.2216946626429736
  0
VERTEX
  5
109B
  8
SAPA_PROFIL
 10
22.877350442059921
 20
21.93081331777071
 30
0.0
  0
VERTEX
  5
109C
  8
SAPA_PROFIL
 10
24.335494644867861
 20
23.66856190998752
 30
0.0
 42
0.1763269807084407
  0
VERTEX
  5
109D
  8
SAPA_PROFIL
 10
24.405681311932131
 20
23.86139819289329
 30
0.0
  0
VERTEX
  5
109E
  8
SAPA_PROFIL
 10
24.405681311932131
 20
24.2522071226139
 30
0.0
 42
0.4142135623730951
  0
VERTEX
  5
109F
  8
SAPA_PROFIL
 10
23.905681311932121
 20
24.752207122613441
 30
0.0
  0
VERTEX
  5
10A0
  8
SAPA_PROFIL
 10
22.938524024406931
 20
24.752207122613441
 30
0.0
 42
-0.6681786379193591
  0
VERTEX
  5
10A1
  8
SAPA_PROFIL
 10
22.797102668169408
 20
25.093628478850778
 30
0.0
  0
VERTEX
  5
10A2
  8
SAPA_PROFIL
 10
23.367813346287718
 20
25.664339156969529
 30
0.0
 42
-0.1989123673796749
  0
VERTEX
  5
10A3
  8
SAPA_PROFIL
 10
23.579945380643991
 20
25.752207122613441
 30
0.0
  0
VERTEX
  5
10A4
  8
SAPA_PROFIL
 10
25.356491458265431
 20
25.75220712261395
 30
0.0
 42
0.2216946626428804
  0
VERTEX
  5
10A5
  8
SAPA_PROFIL
 10
26.122535901384179
 20
26.109419512927481
 30
0.0
  0
VERTEX
  5
10A6
  8
SAPA_PROFIL
 10
27.201261593809178
 20
27.39499473229861
 30
0.0
 42
-0.2216946626428499
  0
VERTEX
  5
10A7
  8
SAPA_PROFIL
 10
27.967306036927809
 20
27.752207122612081
 30
0.0
  0
VERTEX
  5
10A8
  8
SAPA_PROFIL
 10
33.255681311932271
 20
27.7522071226139
 30
0.0
 42
0.4142135623730951
  0
VERTEX
  5
10A9
  8
SAPA_PROFIL
 10
33.555681311932453
 20
28.05220712261363
 30
0.0
  0
VERTEX
  5
10AA
  8
SAPA_PROFIL
 10
33.555681311932453
 20
28.452207122613711
 30
0.0
 42
-0.4142135623730951
  0
VERTEX
  5
10AB
  8
SAPA_PROFIL
 10
33.855681311932173
 20
28.7522071226139
 30
0.0
  0
VERTEX
  5
10AC
  8
SAPA_PROFIL
 10
34.255681311932271
 20
28.7522071226139
 30
0.0
 42
-0.4142135623730951
  0
VERTEX
  5
10AD
  8
SAPA_PROFIL
 10
34.555681311932453
 20
28.452207122613711
 30
0.0
  0
VERTEX
  5
10AE
  8
SAPA_PROFIL
 10
34.555681311932453
 20
28.05220712261363
 30
0.0
 42
0.4142135623730951
  0
VERTEX
  5
10AF
  8
SAPA_PROFIL
 10
34.855681311932173
 20
27.7522071226139
 30
0.0
  0
VERTEX
  5
10B0
  8
SAPA_PROFIL
 10
39.281417243220453
 20
27.7522071226139
 30
0.0
 42
-0.1989123673795535
  0
VERTEX
  5
10B1
  8
SAPA_PROFIL
 10
39.493549277576271
 20
27.664339156969991
 30
0.0
  0
VERTEX
  5
10B2
  8
SAPA_PROFIL
 10
39.905681311932348
 20
27.2522071226139
 30
0.0
  0
VERTEX
  5
10B3
  8
SAPA_PROFIL
 10
40.317813346288453
 20
27.664339156969991
 30
0.0
 42
-0.1989123673795536
  0
VERTEX
  5
10B4
  8
SAPA_PROFIL
 10
40.529945380644257
 20
27.7522071226139
 30
0.0
  0
VERTEX
  5
10B5
  8
SAPA_PROFIL
 10
44.955681311932082
 20
27.7522071226139
 30
0.0
 42
0.4142135623730951
  0
VERTEX
  5
10B6
  8
SAPA_PROFIL
 10
45.255681311932257
 20
28.05220712261363
 30
0.0
  0
VERTEX
  5
10B7
  8
SAPA_PROFIL
 10
45.255681311932257
 20
28.452207122613711
 30
0.0
 42
-0.4142135623730951
  0
VERTEX
  5
10B8
  8
SAPA_PROFIL
 10
45.555681311932439
 20
28.7522071226139
 30
0.0
  0
VERTEX
  5
10B9
  8
SAPA_PROFIL
 10
45.95568131193253
 20
28.7522071226139
 30
0.0
 42
-0.4142135623730951
  0
VERTEX
  5
10BA
  8
SAPA_PROFIL
 10
46.255681311932257
 20
28.452207122613711
 30
0.0
  0
VERTEX
  5
10BB
  8
SAPA_PROFIL
 10
46.255681311932257
 20
28.05220712261363
 30
0.0
 42
0.414213562373095
  0
VERTEX
  5
10BC
  8
SAPA_PROFIL
 10
46.555681311932439
 20
27.7522071226139
 30
0.0
  0
SEQEND
  5
10BD
  8
SAPA_PROFIL
  0
POLYLINE
  5
CE9
  8
SAPA_PROFIL
 66
     1
 10
0.0
 20
0.0
 30
0.0
 70
     1
  0
VERTEX
  5
10BE
  8
SAPA_PROFIL
 10
84.905681311931744
 20
197.05220712261391
 30
0.0
  0
VERTEX
  5
10BF
  8
SAPA_PROFIL
 10
84.905681311931744
 20
199.05220712261391
 30
0.0
  0
VERTEX
  5
10C0
  8
SAPA_PROFIL
 10
70.56253556142417
 20
199.05220712261391
 30
0.0
  0
VERTEX
  5
10C1
  8
SAPA_PROFIL
 10
64.905681311931744
 20
193.39535287312151
 30
0.0
  0
VERTEX
  5
10C2
  8
SAPA_PROFIL
 10
64.905681311931744
 20
174.05220712261391
 30
0.0
  0
VERTEX
  5
10C3
  8
SAPA_PROFIL
 10
66.905681311931744
 20
174.05220712261391
 30
0.0
  0
VERTEX
  5
10C4
  8
SAPA_PROFIL
 10
66.905681311931744
 20
179.35938679958639
 30
0.0
  0
VERTEX
  5
10C5
  8
SAPA_PROFIL
 10
66.50568131193188
 20
180.05220712261391
 30
0.0
  0
VERTEX
  5
10C6
  8
SAPA_PROFIL
 10
66.905681311931744
 20
180.7450274456416
 30
0.0
  0
VERTEX
  5
10C7
  8
SAPA_PROFIL
 10
66.905681311931744
 20
191.73849862362931
 30
0.0
 42
-0.1989123673796584
  0
VERTEX
  5
10C8
  8
SAPA_PROFIL
 10
67.491467749558637
 20
193.15271218600239
 30
0.0
  0
VERTEX
  5
10C9
  8
SAPA_PROFIL
 10
70.805176248543489
 20
196.46642068498701
 30
0.0
 42
-0.1989123673796572
  0
VERTEX
  5
10CA
  8
SAPA_PROFIL
 10
72.219389810916596
 20
197.05220712261391
 30
0.0
  0
VERTEX
  5
10CB
  8
SAPA_PROFIL
 10
78.212860988904254
 20
197.05220712261391
 30
0.0
  0
VERTEX
  5
10CC
  8
SAPA_PROFIL
 10
78.905681311931744
 20
197.452207122614
 30
0.0
  0
VERTEX
  5
10CD
  8
SAPA_PROFIL
 10
79.598501634959462
 20
197.05220712261391
 30
0.0
  0
SEQEND
  5
10CE
  8
SAPA_PROFIL
  0
POLYLINE
  5
CEA
  8
SAPA_PROFIL
 66
     1
 10
0.0
 20
0.0
 30
0.0
 70
     1
  0
VERTEX
  5
10CF
  8
SAPA_PROFIL
 10
58.178629887112493
 20
92.968618521164672
 30
0.0
 42
-0.1691807452125083
  0
VERTEX
  5
10D0
  8
SAPA_PROFIL
 10
57.557349834576598
 20
92.752207122613754
 30
0.0
  0
VERTEX
  5
10D1
  8
SAPA_PROFIL
 10
51.20568131193135
 20
92.752207122613754
 30
0.0
 42
-0.4142135623730951
  0
VERTEX
  5
10D2
  8
SAPA_PROFIL
 10
50.905681311931403
 20
93.052207122613709
 30
0.0
  0
VERTEX
  5
10D3
  8
SAPA_PROFIL
 10
50.905681311931403
 20
93.752207122613754
 30
0.0
 42
-0.4142135623730951
  0
VERTEX
  5
10D4
  8
SAPA_PROFIL
 10
51.20568131193135
 20
94.052207122613709
 30
0.0
  0
VERTEX
  5
10D5
  8
SAPA_PROFIL
 10
54.105681311931221
 20
94.052207122613709
 30
0.0
 42
0.4142135623730951
  0
VERTEX
  5
10D6
  8
SAPA_PROFIL
 10
54.605681311931221
 20
94.552207122613694
 30
0.0
  0
VERTEX
  5
10D7
  8
SAPA_PROFIL
 10
54.605681311931221
 20
97.752207122613754
 30
0.0
 42
0.4142135623730951
  0
VERTEX
  5
10D8
  8
SAPA_PROFIL
 10
54.105681311931221
 20
98.252207122613754
 30
0.0
  0
VERTEX
  5
10D9
  8
SAPA_PROFIL
 10
45.905681311931403
 20
98.252207122613825
 30
0.0
 42
0.4142135623730951
  0
VERTEX
  5
10DA
  8
SAPA_PROFIL
 10
44.905681311931403
 20
97.252207122613825
 30
0.0
  0
VERTEX
  5
10DB
  8
SAPA_PROFIL
 10
44.905681311931403
 20
76.052207122613765
 30
0.0
 42
-0.4142135623730948
  0
VERTEX
  5
10DC
  8
SAPA_PROFIL
 10
44.605681311931221
 20
75.752207122613811
 30
0.0
  0
VERTEX
  5
10DD
  8
SAPA_PROFIL
 10
43.115686652800832
 20
75.752207122613811
 30
0.0
 42
-0.2135746067194863
  0
VERTEX
  5
10DE
  8
SAPA_PROFIL
 10
42.891962950555353
 20
75.852337902738611
 30
0.0
  0
VERTEX
  5
10DF
  8
SAPA_PROFIL
 10
42.143549277575403
 20
76.690075088257856
 30
0.0
 42
-0.6681786379193474
  0
VERTEX
  5
10E0
  8
SAPA_PROFIL
 10
42.355681311931207
 20
77.202207122613629
 30
0.0
  0
VERTEX
  5
10E1
  8
SAPA_PROFIL
 10
42.605681311931221
 20
77.202207122613629
 30
0.0
  0
VERTEX
  5
10E2
  8
SAPA_PROFIL
 10
42.082401008629397
 20
78.578441716190184
 30
0.0
 42
-0.5450207798986705
  0
VERTEX
  5
10E3
  8
SAPA_PROFIL
 10
42.355681311931207
 20
79.002207122613811
 30
0.0
  0
VERTEX
  5
10E4
  8
SAPA_PROFIL
 10
42.605681311931221
 20
79.002207122613811
 30
0.0
  0
VERTEX
  5
10E5
  8
SAPA_PROFIL
 10
42.082401008629397
 20
80.378441716190366
 30
0.0
 42
-0.5450207798987319
  0
VERTEX
  5
10E6
  8
SAPA_PROFIL
 10
42.355681311931207
 20
80.802207122613765
 30
0.0
  0
VERTEX
  5
10E7
  8
SAPA_PROFIL
 10
42.605681311931221
 20
80.802207122613765
 30
0.0
  0
VERTEX
  5
10E8
  8
SAPA_PROFIL
 10
42.082401008629397
 20
82.178441716190093
 30
0.0
 42
-0.5450207798986705
  0
VERTEX
  5
10E9
  8
SAPA_PROFIL
 10
42.355681311931207
 20
82.60220712261372
 30
0.0
  0
VERTEX
  5
10EA
  8
SAPA_PROFIL
 10
42.605681311931221
 20
82.60220712261372
 30
0.0
  0
VERTEX
  5
10EB
  8
SAPA_PROFIL
 10
42.082401008629397
 20
83.978441716190275
 30
0.0
 42
-0.5450207798986705
  0
VERTEX
  5
10EC
  8
SAPA_PROFIL
 10
42.355681311931207
 20
84.402207122613916
 30
0.0
  0
VERTEX
  5
10ED
  8
SAPA_PROFIL
 10
42.605681311931221
 20
84.402207122613916
 30
0.0
  0
VERTEX
  5
10EE
  8
SAPA_PROFIL
 10
42.377918594547282
 20
85.125924417419867
 30
0.0
 42
0.2945484962562833
  0
VERTEX
  5
10EF
  8
SAPA_PROFIL
 10
42.10456378086883
 20
85.302159082368064
 30
0.0
  0
VERTEX
  5
10F0
  8
SAPA_PROFIL
 10
41.169981249679488
 20
85.301951900401775
 30
0.0
 42
-0.3475954753796645
  0
VERTEX
  5
10F1
  8
SAPA_PROFIL
 10
40.878007822609327
 20
85.532705944570637
 30
0.0
 42
0.7905229096113513
  0
VERTEX
  5
10F2
  8
SAPA_PROFIL
 10
38.932017222065731
 20
85.532716149011151
 30
0.0
 42
-0.3476065658631767
  0
VERTEX
  5
10F3
  8
SAPA_PROFIL
 10
38.640029501044182
 20
85.301965170279175
 30
0.0
  0
VERTEX
  5
10F4
  8
SAPA_PROFIL
 10
38.055688649837968
 20
85.302111890988101
 30
0.0
 42
0.4102317530970184
  0
VERTEX
  5
10F5
  8
SAPA_PROFIL
 10
37.755653013345643
 20
85.006260242834571
 30
0.0
 42
-0.0712587206050455
  0
VERTEX
  5
10F6
  8
SAPA_PROFIL
 10
37.742425699475923
 20
84.922216317906134
 30
0.0
  0
VERTEX
  5
10F7
  8
SAPA_PROFIL
 10
37.205681311931357
 20
83.502207122613797
 30
0.0
  0
VERTEX
  5
10F8
  8
SAPA_PROFIL
 10
37.455681311931357
 20
83.502207122613797
 30
0.0
 42
-0.5450200690651181
  0
VERTEX
  5
10F9
  8
SAPA_PROFIL
 10
37.728962311931348
 20
83.078442122613808
 30
0.0
  0
VERTEX
  5
10FA
  8
SAPA_PROFIL
 10
37.205681311931357
 20
81.702207122613629
 30
0.0
  0
VERTEX
  5
10FB
  8
SAPA_PROFIL
 10
37.455681311931357
 20
81.702207122613856
 30
0.0
 42
-0.5450200690652297
  0
VERTEX
  5
10FC
  8
SAPA_PROFIL
 10
37.728962311931348
 20
81.278442122613626
 30
0.0
  0
VERTEX
  5
10FD
  8
SAPA_PROFIL
 10
37.205681311931357
 20
79.902207122613902
 30
0.0
  0
VERTEX
  5
10FE
  8
SAPA_PROFIL
 10
37.455681311931357
 20
79.902207122613902
 30
0.0
 42
-0.5450200690651181
  0
VERTEX
  5
10FF
  8
SAPA_PROFIL
 10
37.728962311931348
 20
79.478442122613899
 30
0.0
  0
VERTEX
  5
1100
  8
SAPA_PROFIL
 10
37.205681311931357
 20
78.10220712261372
 30
0.0
  0
VERTEX
  5
1101
  8
SAPA_PROFIL
 10
37.755681311931312
 20
78.10220712261372
 30
0.0
  0
VERTEX
  5
1102
  8
SAPA_PROFIL
 10
37.755681311931312
 20
76.902207122613902
 30
0.0
 42
-0.1989123673797028
  0
VERTEX
  5
1103
  8
SAPA_PROFIL
 10
37.667813311931241
 20
76.690075122613791
 30
0.0
  0
VERTEX
  5
1104
  8
SAPA_PROFIL
 10
36.91939967407189
 20
75.852337911368124
 30
0.0
 42
-0.2135746168025217
  0
VERTEX
  5
1105
  8
SAPA_PROFIL
 10
36.695675964116852
 20
75.752207122613811
 30
0.0
  0
VERTEX
  5
1106
  8
SAPA_PROFIL
 10
35.205681311931357
 20
75.752207122613811
 30
0.0
 42
-0.4142135623730951
  0
VERTEX
  5
1107
  8
SAPA_PROFIL
 10
34.905681311931403
 20
76.052207122613765
 30
0.0
  0
VERTEX
  5
1108
  8
SAPA_PROFIL
 10
34.905681311931403
 20
97.252207122613825
 30
0.0
 42
0.4142135623730951
  0
VERTEX
  5
1109
  8
SAPA_PROFIL
 10
33.905681311931403
 20
98.252207122613825
 30
0.0
  0
VERTEX
  5
110A
  8
SAPA_PROFIL
 10
25.705681311931361
 20
98.252207122613825
 30
0.0
 42
0.4142135623730951
  0
VERTEX
  5
110B
  8
SAPA_PROFIL
 10
25.205681311931361
 20
97.752207122613811
 30
0.0
  0
VERTEX
  5
110C
  8
SAPA_PROFIL
 10
25.205681311931361
 20
94.552207122613765
 30
0.0
 42
0.4142135623730951
  0
VERTEX
  5
110D
  8
SAPA_PROFIL
 10
25.705681311931361
 20
94.052207122613765
 30
0.0
  0
VERTEX
  5
110E
  8
SAPA_PROFIL
 10
28.605681311931221
 20
94.052207122613765
 30
0.0
 42
-0.4142135623730951
  0
VERTEX
  5
110F
  8
SAPA_PROFIL
 10
28.905681311931399
 20
93.752207122613811
 30
0.0
  0
VERTEX
  5
1110
  8
SAPA_PROFIL
 10
28.905681311931399
 20
93.052207122613765
 30
0.0
 42
-0.4142135623730948
  0
VERTEX
  5
1111
  8
SAPA_PROFIL
 10
28.605681311931221
 20
92.752207122613811
 30
0.0
  0
VERTEX
  5
1112
  8
SAPA_PROFIL
 10
22.254012789286211
 20
92.752207122613811
 30
0.0
 42
-0.1691807452125083
  0
VERTEX
  5
1113
  8
SAPA_PROFIL
 10
21.632732736750309
 20
92.968618521164728
 30
0.0
  0
VERTEX
  5
1114
  8
SAPA_PROFIL
 10
21.319297296430701
 20
93.217130541972736
 30
0.0
 42
-0.7105995019815232
  0
VERTEX
  5
1115
  8
SAPA_PROFIL
 10
21.505681311931308
 20
93.752207122613811
 30
0.0
  0
VERTEX
  5
1116
  8
SAPA_PROFIL
 10
23.405681311931399
 20
93.752207122613811
 30
0.0
 42
0.4142135623730951
  0
VERTEX
  5
1117
  8
SAPA_PROFIL
 10
23.705681311931361
 20
94.052207122613765
 30
0.0
  0
VERTEX
  5
1118
  8
SAPA_PROFIL
 10
23.705681311931361
 20
97.952207122613856
 30
0.0
 42
0.4142135623730951
  0
VERTEX
  5
1119
  8
SAPA_PROFIL
 10
23.405681311931399
 20
98.252207122613825
 30
0.0
  0
VERTEX
  5
111A
  8
SAPA_PROFIL
 10
16.70568131193135
 20
98.252207122613825
 30
0.0
 42
0.4142135623730951
  0
VERTEX
  5
111B
  8
SAPA_PROFIL
 10
16.405681311931399
 20
97.952207122613629
 30
0.0
  0
VERTEX
  5
111C
  8
SAPA_PROFIL
 10
16.405681311931399
 20
94.052207122613765
 30
0.0
 42
0.4142135623730951
  0
VERTEX
  5
111D
  8
SAPA_PROFIL
 10
16.70568131193135
 20
93.752207122613811
 30
0.0
  0
VERTEX
  5
111E
  8
SAPA_PROFIL
 10
17.905681311931399
 20
93.752207122613811
 30
0.0
 42
-0.7105990647992588
  0
VERTEX
  5
111F
  8
SAPA_PROFIL
 10
18.092065311931261
 20
93.217131122613694
 30
0.0
  0
VERTEX
  5
1120
  8
SAPA_PROFIL
 10
17.77863002551657
 20
92.968618906896438
 30
0.0
 42
-0.1691809048716788
  0
VERTEX
  5
1121
  8
SAPA_PROFIL
 10
17.15734948647696
 20
92.752207122613811
 30
0.0
  0
VERTEX
  5
1122
  8
SAPA_PROFIL
 10
15.205681311931359
 20
92.752207122613811
 30
0.0
 42
-0.4142135623730951
  0
VERTEX
  5
1123
  8
SAPA_PROFIL
 10
14.905681311931399
 20
93.052207122613765
 30
0.0
  0
VERTEX
  5
1124
  8
SAPA_PROFIL
 10
14.905681311931399
 20
212.2522071226137
 30
0.0
 42
-0.4142135623730951
  0
VERTEX
  5
1125
  8
SAPA_PROFIL
 10
15.405681311931399
 20
212.75220712261361
 30
0.0
  0
VERTEX
  5
1126
  8
SAPA_PROFIL
 10
64.405681311931403
 20
212.75220712261361
 30
0.0
 42
-0.4142135623730951
  0
VERTEX
  5
1127
  8
SAPA_PROFIL
 10
64.905681311931403
 20
212.2522071226137
 30
0.0
  0
VERTEX
  5
1128
  8
SAPA_PROFIL
 10
64.905681311931403
 20
93.052207122613709
 30
0.0
 42
-0.4142135623730948
  0
VERTEX
  5
1129
  8
SAPA_PROFIL
 10
64.605681311931221
 20
92.752207122613754
 30
0.0
  0
VERTEX
  5
112A
  8
SAPA_PROFIL
 10
62.654012789286071
 20
92.752207122613754
 30
0.0
 42
-0.1691807452125083
  0
VERTEX
  5
112B
  8
SAPA_PROFIL
 10
62.032732736750177
 20
92.968618521164672
 30
0.0
  0
VERTEX
  5
112C
  8
SAPA_PROFIL
 10
61.719297296430788
 20
93.217130541972665
 30
0.0
 42
-0.7105995019815232
  0
VERTEX
  5
112D
  8
SAPA_PROFIL
 10
61.905681311931403
 20
93.752207122613811
 30
0.0
  0
VERTEX
  5
112E
  8
SAPA_PROFIL
 10
63.105681311931221
 20
93.752207122613754
 30
0.0
 42
0.4142135623730948
  0
VERTEX
  5
112F
  8
SAPA_PROFIL
 10
63.405681311931403
 20
94.052207122613709
 30
0.0
  0
VERTEX
  5
1130
  8
SAPA_PROFIL
 10
63.405681311931403
 20
97.952207122613572
 30
0.0
 42
0.4142135623730951
  0
VERTEX
  5
1131
  8
SAPA_PROFIL
 10
63.105681311931221
 20
98.252207122613754
 30
0.0
  0
VERTEX
  5
1132
  8
SAPA_PROFIL
 10
56.405681311931403
 20
98.252207122613754
 30
0.0
 42
0.4142135623730951
  0
VERTEX
  5
1133
  8
SAPA_PROFIL
 10
56.105681311931221
 20
97.952207122613814
 30
0.0
  0
VERTEX
  5
1134
  8
SAPA_PROFIL
 10
56.105681311931221
 20
94.052207122613709
 30
0.0
 42
0.414213562373095
  0
VERTEX
  5
1135
  8
SAPA_PROFIL
 10
56.405681311931403
 20
93.752207122613754
 30
0.0
  0
VERTEX
  5
1136
  8
SAPA_PROFIL
 10
58.305681311931266
 20
93.752207122613754
 30
0.0
 42
-0.7105995019815232
  0
VERTEX
  5
1137
  8
SAPA_PROFIL
 10
58.492065327431867
 20
93.217130541972736
 30
0.0
  0
SEQEND
  5
1138
  8
SAPA_PROFIL
  0
POLYLINE
  5
CEB
  8
SAPA_PROFIL
 66
     1
 10
0.0
 20
0.0
 30
0.0
 70
     1
  0
VERTEX
  5
1139
  8
SAPA_PROFIL
 10
42.605681311931221
 20
95.202207122613615
 30
0.0
  0
VERTEX
  5
113A
  8
SAPA_PROFIL
 10
42.255681311931312
 20
95.202207122613615
 30
0.0
 42
0.545020779898761
  0
VERTEX
  5
113B
  8
SAPA_PROFIL
 10
41.982401008629267
 20
94.778441716190244
 30
0.0
  0
VERTEX
  5
113C
  8
SAPA_PROFIL
 10
42.605681311931221
 20
93.402207122613888
 30
0.0
  0
VERTEX
  5
113D
  8
SAPA_PROFIL
 10
42.255681311931312
 20
93.402207122613888
 30
0.0
 42
0.54502077989874
  0
VERTEX
  5
113E
  8
SAPA_PROFIL
 10
41.982401008629267
 20
92.978441716190275
 30
0.0
  0
VERTEX
  5
113F
  8
SAPA_PROFIL
 10
42.605681311931221
 20
91.60220712261372
 30
0.0
  0
VERTEX
  5
1140
  8
SAPA_PROFIL
 10
42.255681311931312
 20
91.60220712261372
 30
0.0
 42
0.545020779898768
  0
VERTEX
  5
1141
  8
SAPA_PROFIL
 10
41.982401008629267
 20
91.178441716190093
 30
0.0
  0
VERTEX
  5
1142
  8
SAPA_PROFIL
 10
42.605681311931221
 20
89.802207122613765
 30
0.0
  0
VERTEX
  5
1143
  8
SAPA_PROFIL
 10
42.255681311931312
 20
89.802207122613765
 30
0.0
 42
0.5450205149791638
  0
VERTEX
  5
1144
  8
SAPA_PROFIL
 10
41.982401311931419
 20
89.378442122613762
 30
0.0
  0
VERTEX
  5
1145
  8
SAPA_PROFIL
 10
42.605681311931221
 20
88.002207122613811
 30
0.0
  0
VERTEX
  5
1146
  8
SAPA_PROFIL
 10
42.255681311931312
 20
88.002207122613811
 30
0.0
 42
0.5450207798987328
  0
VERTEX
  5
1147
  8
SAPA_PROFIL
 10
41.982401008629267
 20
87.578441716190184
 30
0.0
  0
VERTEX
  5
1148
  8
SAPA_PROFIL
 10
42.333948945441989
 20
86.802207122613765
 30
0.0
  0
VERTEX
  5
1149
  8
SAPA_PROFIL
 10
37.205681311931357
 20
86.802207122613765
 30
0.0
  0
VERTEX
  5
114A
  8
SAPA_PROFIL
 10
37.205681311931357
 20
87.102207122613734
 30
0.0
  0
VERTEX
  5
114B
  8
SAPA_PROFIL
 10
37.828962311931257
 20
88.478442122613899
 30
0.0
 42
0.5450200690651692
  0
VERTEX
  5
114C
  8
SAPA_PROFIL
 10
37.555681311931266
 20
88.902207122613902
 30
0.0
  0
VERTEX
  5
114D
  8
SAPA_PROFIL
 10
37.205681311931357
 20
88.902207122613902
 30
0.0
  0
VERTEX
  5
114E
  8
SAPA_PROFIL
 10
37.828962311931257
 20
90.278442122613626
 30
0.0
 42
0.5450200690651619
  0
VERTEX
  5
114F
  8
SAPA_PROFIL
 10
37.555681311931266
 20
90.702207122613856
 30
0.0
  0
VERTEX
  5
1150
  8
SAPA_PROFIL
 10
37.205681311931357
 20
90.702207122613629
 30
0.0
  0
VERTEX
  5
1151
  8
SAPA_PROFIL
 10
37.828962311931257
 20
92.078442122613808
 30
0.0
 42
0.5450200690651619
  0
VERTEX
  5
1152
  8
SAPA_PROFIL
 10
37.555681311931266
 20
92.502207122613811
 30
0.0
  0
VERTEX
  5
1153
  8
SAPA_PROFIL
 10
37.205681311931357
 20
92.502207122613811
 30
0.0
  0
VERTEX
  5
1154
  8
SAPA_PROFIL
 10
37.828962311931257
 20
93.878442122613748
 30
0.0
 42
0.5450200690651692
  0
VERTEX
  5
1155
  8
SAPA_PROFIL
 10
37.555681311931266
 20
94.302207122613765
 30
0.0
  0
VERTEX
  5
1156
  8
SAPA_PROFIL
 10
37.205681311931357
 20
94.302207122613765
 30
0.0
  0
VERTEX
  5
1157
  8
SAPA_PROFIL
 10
37.828962311931257
 20
95.678442122613717
 30
0.0
 42
0.5450200690651551
  0
VERTEX
  5
1158
  8
SAPA_PROFIL
 10
37.555681311931266
 20
96.102207122613734
 30
0.0
  0
VERTEX
  5
1159
  8
SAPA_PROFIL
 10
37.205681311931357
 20
96.102207122613734
 30
0.0
  0
VERTEX
  5
115A
  8
SAPA_PROFIL
 10
37.205681311931357
 20
97.252207122613825
 30
0.0
 42
-0.4142135623730951
  0
VERTEX
  5
115B
  8
SAPA_PROFIL
 10
38.205681311931357
 20
98.252207122613825
 30
0.0
  0
VERTEX
  5
115C
  8
SAPA_PROFIL
 10
41.605681311931221
 20
98.252207122613825
 30
0.0
 42
-0.4142135623730951
  0
VERTEX
  5
115D
  8
SAPA_PROFIL
 10
42.605681311931221
 20
97.252207122613825
 30
0.0
  0
VERTEX
  5
115E
  8
SAPA_PROFIL
 10
42.605681311931221
 20
97.002207122613825
 30
0.0
  0
VERTEX
  5
115F
  8
SAPA_PROFIL
 10
42.255681311931312
 20
97.002207122613825
 30
0.0
 42
0.5450207798987328
  0
VERTEX
  5
1160
  8
SAPA_PROFIL
 10
41.982401008629267
 20
96.578441716190184
 30
0.0
  0
SEQEND
  5
1161
  8
SAPA_PROFIL
  0
POLYLINE
  5
CEC
  8
SAPA_PROFIL
 66
     1
 10
0.0
 20
0.0
 30
0.0
 70
     1
  0
VERTEX
  5
1162
  8
SAPA_PROFIL
 10
62.705681311931357
 20
208.25220712261361
 30
0.0
  0
VERTEX
  5
1163
  8
SAPA_PROFIL
 10
62.705681311931357
 20
206.0764711913256
 30
0.0
 42
-0.1989123673796407
  0
VERTEX
  5
1164
  8
SAPA_PROFIL
 10
62.617813346287221
 20
205.86433915696949
 30
0.0
  0
VERTEX
  5
1165
  8
SAPA_PROFIL
 10
61.093549277575221
 20
204.34007508825781
 30
0.0
 42
0.1989123673796753
  0
VERTEX
  5
1166
  8
SAPA_PROFIL
 10
61.005681311931312
 20
204.1279430539017
 30
0.0
  0
VERTEX
  5
1167
  8
SAPA_PROFIL
 10
61.005681311931312
 20
203.55220712261359
 30
0.0
 42
0.4142135623730951
  0
VERTEX
  5
1168
  8
SAPA_PROFIL
 10
61.305681311931259
 20
203.25220712261361
 30
0.0
  0
VERTEX
  5
1169
  8
SAPA_PROFIL
 10
62.405681311931403
 20
203.25220712261361
 30
0.0
 42
-0.4142135623730951
  0
VERTEX
  5
116A
  8
SAPA_PROFIL
 10
62.705681311931357
 20
202.95220712261349
 30
0.0
  0
VERTEX
  5
116B
  8
SAPA_PROFIL
 10
62.70568131193113
 20
200.55220712261359
 30
0.0
 42
-0.4142135623730951
  0
VERTEX
  5
116C
  8
SAPA_PROFIL
 10
62.405681311931403
 20
200.25220712261361
 30
0.0
  0
VERTEX
  5
116D
  8
SAPA_PROFIL
 10
61.305681311931259
 20
200.25220712261361
 30
0.0
 42
0.4142135623730951
  0
VERTEX
  5
116E
  8
SAPA_PROFIL
 10
61.005681311931312
 20
199.9522071226134
 30
0.0
  0
VERTEX
  5
116F
  8
SAPA_PROFIL
 10
61.005681311931312
 20
199.37647119132549
 30
0.0
 42
0.198912367379658
  0
VERTEX
  5
1170
  8
SAPA_PROFIL
 10
61.093549277575221
 20
199.1643391569695
 30
0.0
  0
VERTEX
  5
1171
  8
SAPA_PROFIL
 10
62.617813346287221
 20
197.6400750882575
 30
0.0
 42
-0.198912367379658
  0
VERTEX
  5
1172
  8
SAPA_PROFIL
 10
62.705681311931357
 20
197.4279430539014
 30
0.0
  0
VERTEX
  5
1173
  8
SAPA_PROFIL
 10
62.705681311931357
 20
158.2522071226137
 30
0.0
 42
-0.4142135623730951
  0
VERTEX
  5
1174
  8
SAPA_PROFIL
 10
61.70568131193135
 20
157.2522071226137
 30
0.0
  0
VERTEX
  5
1175
  8
SAPA_PROFIL
 10
57.505681311931312
 20
157.2522071226137
 30
0.0
 42
0.4142135623730951
  0
VERTEX
  5
1176
  8
SAPA_PROFIL
 10
57.205681311931357
 20
156.9522071226136
 30
0.0
  0
VERTEX
  5
1177
  8
SAPA_PROFIL
 10
57.205681311931357
 20
154.65220712261379
 30
0.0
 42
0.4142135623730951
  0
VERTEX
  5
1178
  8
SAPA_PROFIL
 10
57.505681311931312
 20
154.35220712261361
 30
0.0
  0
VERTEX
  5
1179
  8
SAPA_PROFIL
 10
58.005681311931312
 20
154.35220712261361
 30
0.0
 42
0.4142135623730951
  0
VERTEX
  5
117A
  8
SAPA_PROFIL
 10
58.305681311931266
 20
154.65220712261379
 30
0.0
  0
VERTEX
  5
117B
  8
SAPA_PROFIL
 10
58.305681311931266
 20
154.98883404724819
 30
0.0
 42
-0.5535245743249297
  0
VERTEX
  5
117C
  8
SAPA_PROFIL
 10
62.616235523462592
 20
153.21631472473831
 30
0.0
  0
VERTEX
  5
117D
  8
SAPA_PROFIL
 10
62.328904616634652
 20
152.92898381791039
 30
0.0
 42
0.4142135623729421
  0
VERTEX
  5
117E
  8
SAPA_PROFIL
 10
62.328904616634652
 20
152.57543042731709
 30
0.0
  0
VERTEX
  5
117F
  8
SAPA_PROFIL
 10
62.616235523462592
 20
152.28809952048911
 30
0.0
 42
-0.5535245743249292
  0
VERTEX
  5
1180
  8
SAPA_PROFIL
 10
58.305681311931266
 20
150.5155801979792
 30
0.0
  0
VERTEX
  5
1181
  8
SAPA_PROFIL
 10
58.305681311931266
 20
150.85220712261361
 30
0.0
 42
0.4142135623730951
  0
VERTEX
  5
1182
  8
SAPA_PROFIL
 10
58.005681311931312
 20
151.15220712261379
 30
0.0
  0
VERTEX
  5
1183
  8
SAPA_PROFIL
 10
57.505681311931312
 20
151.15220712261379
 30
0.0
 42
0.4142135623730951
  0
VERTEX
  5
1184
  8
SAPA_PROFIL
 10
57.205681311931357
 20
150.85220712261361
 30
0.0
  0
VERTEX
  5
1185
  8
SAPA_PROFIL
 10
57.205681311931357
 20
149.7522071226137
 30
0.0
 42
0.4142135623730951
  0
VERTEX
  5
1186
  8
SAPA_PROFIL
 10
58.70568131193135
 20
148.2522071226137
 30
0.0
  0
VERTEX
  5
1187
  8
SAPA_PROFIL
 10
61.339655908146817
 20
148.2522071226137
 30
0.0
 42
0.267949192431143
  0
VERTEX
  5
1188
  8
SAPA_PROFIL
 10
61.772668610039091
 20
148.5022071226137
 30
0.0
 42
-0.767326987978956
  0
VERTEX
  5
1189
  8
SAPA_PROFIL
 10
62.705681311931357
 20
148.2522071226137
 30
0.0
  0
VERTEX
  5
118A
  8
SAPA_PROFIL
 10
62.705681311931357
 20
113.2522071226137
 30
0.0
 42
-0.4142135623730951
  0
VERTEX
  5
118B
  8
SAPA_PROFIL
 10
61.70568131193135
 20
112.2522071226137
 30
0.0
  0
VERTEX
  5
118C
  8
SAPA_PROFIL
 10
57.505681311931312
 20
112.2522071226137
 30
0.0
 42
0.4142135623730951
  0
VERTEX
  5
118D
  8
SAPA_PROFIL
 10
57.205681311931357
 20
111.9522071226138
 30
0.0
  0
VERTEX
  5
118E
  8
SAPA_PROFIL
 10
57.205681311931357
 20
109.6522071226138
 30
0.0
 42
0.4142135623730951
  0
VERTEX
  5
118F
  8
SAPA_PROFIL
 10
57.505681311931312
 20
109.35220712261361
 30
0.0
  0
VERTEX
  5
1190
  8
SAPA_PROFIL
 10
58.005681311931312
 20
109.35220712261361
 30
0.0
 42
0.4142135623730951
  0
VERTEX
  5
1191
  8
SAPA_PROFIL
 10
58.305681311931266
 20
109.6522071226138
 30
0.0
  0
VERTEX
  5
1192
  8
SAPA_PROFIL
 10
58.305681311931266
 20
109.9888340472482
 30
0.0
 42
-0.5535245743249297
  0
VERTEX
  5
1193
  8
SAPA_PROFIL
 10
62.616235523462592
 20
108.2163147247383
 30
0.0
  0
VERTEX
  5
1194
  8
SAPA_PROFIL
 10
62.328904616634652
 20
107.92898381791041
 30
0.0
 42
0.4142135623730243
  0
VERTEX
  5
1195
  8
SAPA_PROFIL
 10
62.328904616634652
 20
107.5754304273171
 30
0.0
  0
VERTEX
  5
1196
  8
SAPA_PROFIL
 10
62.616235523462592
 20
107.2880995204891
 30
0.0
 42
-0.5535245743249292
  0
VERTEX
  5
1197
  8
SAPA_PROFIL
 10
58.305681311931266
 20
105.5155801979792
 30
0.0
  0
VERTEX
  5
1198
  8
SAPA_PROFIL
 10
58.305681311931266
 20
105.85220712261361
 30
0.0
 42
0.4142135623730951
  0
VERTEX
  5
1199
  8
SAPA_PROFIL
 10
58.005681311931312
 20
106.1522071226138
 30
0.0
  0
VERTEX
  5
119A
  8
SAPA_PROFIL
 10
57.505681311931312
 20
106.1522071226138
 30
0.0
 42
0.4142135623730951
  0
VERTEX
  5
119B
  8
SAPA_PROFIL
 10
57.205681311931357
 20
105.85220712261361
 30
0.0
  0
VERTEX
  5
119C
  8
SAPA_PROFIL
 10
57.205681311931357
 20
104.7522071226137
 30
0.0
 42
0.4142135623730951
  0
VERTEX
  5
119D
  8
SAPA_PROFIL
 10
58.70568131193135
 20
103.2522071226137
 30
0.0
  0
VERTEX
  5
119E
  8
SAPA_PROFIL
 10
61.686066069660683
 20
103.2522071226137
 30
0.0
 42
0.2679491924311188
  0
VERTEX
  5
119F
  8
SAPA_PROFIL
 10
61.945873690795914
 20
103.4022071226138
 30
0.0
 42
-0.7673269879789557
  0
VERTEX
  5
11A0
  8
SAPA_PROFIL
 10
62.505681311931312
 20
103.2522071226137
 30
0.0
  0
VERTEX
  5
11A1
  8
SAPA_PROFIL
 10
62.505681311930857
 20
101.2522071226137
 30
0.0
 42
-0.4142137811865366
  0
VERTEX
  5
11A2
  8
SAPA_PROFIL
 10
61.505682059006631
 20
100.2522071226137
 30
0.0
  0
VERTEX
  5
11A3
  8
SAPA_PROFIL
 10
18.30568131193127
 20
100.2522071226138
 30
0.0
 42
-0.4142140000000124
  0
VERTEX
  5
11A4
  8
SAPA_PROFIL
 10
17.305681311931259
 20
101.2522071226138
 30
0.0
  0
VERTEX
  5
11A5
  8
SAPA_PROFIL
 10
17.305681311931259
 20
103.2522071226138
 30
0.0
 42
-0.7673269879789457
  0
VERTEX
  5
11A6
  8
SAPA_PROFIL
 10
17.865488933066441
 20
103.4022071226139
 30
0.0
 42
0.2679491924311191
  0
VERTEX
  5
11A7
  8
SAPA_PROFIL
 10
18.125296554201888
 20
103.2522071226138
 30
0.0
  0
VERTEX
  5
11A8
  8
SAPA_PROFIL
 10
21.105681311931221
 20
103.2522071226138
 30
0.0
 42
0.4142135623730951
  0
VERTEX
  5
11A9
  8
SAPA_PROFIL
 10
22.605681311931221
 20
104.7522071226138
 30
0.0
  0
VERTEX
  5
11AA
  8
SAPA_PROFIL
 10
22.605681311931221
 20
105.85220712261371
 30
0.0
 42
0.4142135623730951
  0
VERTEX
  5
11AB
  8
SAPA_PROFIL
 10
22.30568131193127
 20
106.1522071226139
 30
0.0
  0
VERTEX
  5
11AC
  8
SAPA_PROFIL
 10
21.80568131193127
 20
106.1522071226139
 30
0.0
 42
0.4142135623730951
  0
VERTEX
  5
11AD
  8
SAPA_PROFIL
 10
21.505681311931308
 20
105.85220712261371
 30
0.0
  0
VERTEX
  5
11AE
  8
SAPA_PROFIL
 10
21.505681311931308
 20
105.5155801979793
 30
0.0
 42
-0.5535245743249307
  0
VERTEX
  5
11AF
  8
SAPA_PROFIL
 10
17.195127100399979
 20
107.2880995204892
 30
0.0
  0
VERTEX
  5
11B0
  8
SAPA_PROFIL
 10
17.48245800722793
 20
107.5754304273171
 30
0.0
 42
0.4142135623730951
  0
VERTEX
  5
11B1
  8
SAPA_PROFIL
 10
17.48245800722793
 20
107.92898381791041
 30
0.0
  0
VERTEX
  5
11B2
  8
SAPA_PROFIL
 10
17.195127100399979
 20
108.2163147247384
 30
0.0
 42
-0.553524574324932
  0
VERTEX
  5
11B3
  8
SAPA_PROFIL
 10
21.505681311931308
 20
109.9888340472483
 30
0.0
  0
VERTEX
  5
11B4
  8
SAPA_PROFIL
 10
21.505681311931308
 20
109.6522071226139
 30
0.0
 42
0.4142135623730951
  0
VERTEX
  5
11B5
  8
SAPA_PROFIL
 10
21.80568131193127
 20
109.35220712261371
 30
0.0
  0
VERTEX
  5
11B6
  8
SAPA_PROFIL
 10
22.30568131193127
 20
109.35220712261371
 30
0.0
 42
0.4142135623730951
  0
VERTEX
  5
11B7
  8
SAPA_PROFIL
 10
22.605681311931221
 20
109.6522071226139
 30
0.0
  0
VERTEX
  5
11B8
  8
SAPA_PROFIL
 10
22.605681311931221
 20
111.9522071226138
 30
0.0
 42
0.4142135623730951
  0
VERTEX
  5
11B9
  8
SAPA_PROFIL
 10
22.30568131193127
 20
112.2522071226138
 30
0.0
  0
VERTEX
  5
11BA
  8
SAPA_PROFIL
 10
18.105681311931221
 20
112.2522071226138
 30
0.0
 42
-0.4142135623730951
  0
VERTEX
  5
11BB
  8
SAPA_PROFIL
 10
17.105681311931221
 20
113.2522071226138
 30
0.0
  0
VERTEX
  5
11BC
  8
SAPA_PROFIL
 10
17.105681311931221
 20
148.2522071226137
 30
0.0
 42
-0.7673269879789505
  0
VERTEX
  5
11BD
  8
SAPA_PROFIL
 10
18.038694013823712
 20
148.5022071226137
 30
0.0
 42
0.2679491924311202
  0
VERTEX
  5
11BE
  8
SAPA_PROFIL
 10
18.471706715715751
 20
148.2522071226137
 30
0.0
  0
VERTEX
  5
11BF
  8
SAPA_PROFIL
 10
21.105681311931221
 20
148.2522071226137
 30
0.0
 42
0.4142135623730951
  0
VERTEX
  5
11C0
  8
SAPA_PROFIL
 10
22.605681311931221
 20
149.7522071226137
 30
0.0
  0
VERTEX
  5
11C1
  8
SAPA_PROFIL
 10
22.605681311931221
 20
150.85220712261361
 30
0.0
 42
0.4142135623730951
  0
VERTEX
  5
11C2
  8
SAPA_PROFIL
 10
22.30568131193127
 20
151.15220712261379
 30
0.0
  0
VERTEX
  5
11C3
  8
SAPA_PROFIL
 10
21.80568131193127
 20
151.15220712261379
 30
0.0
 42
0.4142135623730951
  0
VERTEX
  5
11C4
  8
SAPA_PROFIL
 10
21.505681311931308
 20
150.85220712261361
 30
0.0
  0
VERTEX
  5
11C5
  8
SAPA_PROFIL
 10
21.505681311931308
 20
150.5155801979792
 30
0.0
 42
-0.5535245743249307
  0
VERTEX
  5
11C6
  8
SAPA_PROFIL
 10
17.195127100399979
 20
152.28809952048911
 30
0.0
  0
VERTEX
  5
11C7
  8
SAPA_PROFIL
 10
17.48245800722793
 20
152.57543042731709
 30
0.0
 42
0.4142135623731068
  0
VERTEX
  5
11C8
  8
SAPA_PROFIL
 10
17.48245800722793
 20
152.92898381791039
 30
0.0
  0
VERTEX
  5
11C9
  8
SAPA_PROFIL
 10
17.195127100399979
 20
153.21631472473831
 30
0.0
 42
-0.553524574324932
  0
VERTEX
  5
11CA
  8
SAPA_PROFIL
 10
21.505681311931308
 20
154.98883404724819
 30
0.0
  0
VERTEX
  5
11CB
  8
SAPA_PROFIL
 10
21.505681311931308
 20
154.65220712261379
 30
0.0
 42
0.4142135623730951
  0
VERTEX
  5
11CC
  8
SAPA_PROFIL
 10
21.80568131193127
 20
154.35220712261361
 30
0.0
  0
VERTEX
  5
11CD
  8
SAPA_PROFIL
 10
22.30568131193127
 20
154.35220712261361
 30
0.0
 42
0.4142135623730951
  0
VERTEX
  5
11CE
  8
SAPA_PROFIL
 10
22.605681311931221
 20
154.65220712261379
 30
0.0
  0
VERTEX
  5
11CF
  8
SAPA_PROFIL
 10
22.605681311931221
 20
156.9522071226136
 30
0.0
 42
0.4142135623730951
  0
VERTEX
  5
11D0
  8
SAPA_PROFIL
 10
22.30568131193127
 20
157.2522071226137
 30
0.0
  0
VERTEX
  5
11D1
  8
SAPA_PROFIL
 10
18.105681311931221
 20
157.2522071226137
 30
0.0
 42
-0.4142135623730951
  0
VERTEX
  5
11D2
  8
SAPA_PROFIL
 10
17.105681311931221
 20
158.2522071226137
 30
0.0
  0
VERTEX
  5
11D3
  8
SAPA_PROFIL
 10
17.105681311931221
 20
197.4279430539014
 30
0.0
 42
-0.198912367379658
  0
VERTEX
  5
11D4
  8
SAPA_PROFIL
 10
17.19354927757535
 20
197.6400750882575
 30
0.0
  0
VERTEX
  5
11D5
  8
SAPA_PROFIL
 10
18.71781334628735
 20
199.16433915696919
 30
0.0
 42
0.1989123673797102
  0
VERTEX
  5
11D6
  8
SAPA_PROFIL
 10
18.80568131193149
 20
199.37647119132549
 30
0.0
  0
VERTEX
  5
11D7
  8
SAPA_PROFIL
 10
18.80568131193127
 20
199.9522071226134
 30
0.0
 42
0.4142135623730951
  0
VERTEX
  5
11D8
  8
SAPA_PROFIL
 10
18.505681311931308
 20
200.25220712261361
 30
0.0
  0
VERTEX
  5
11D9
  8
SAPA_PROFIL
 10
17.405681311931399
 20
200.25220712261361
 30
0.0
 42
-0.4142135623730951
  0
VERTEX
  5
11DA
  8
SAPA_PROFIL
 10
17.105681311931221
 20
200.55220712261359
 30
0.0
  0
VERTEX
  5
11DB
  8
SAPA_PROFIL
 10
17.105681311931221
 20
202.95220712261349
 30
0.0
 42
-0.4142135623730951
  0
VERTEX
  5
11DC
  8
SAPA_PROFIL
 10
17.405681311931399
 20
203.25220712261361
 30
0.0
  0
VERTEX
  5
11DD
  8
SAPA_PROFIL
 10
18.505681311931308
 20
203.25220712261361
 30
0.0
 42
0.4142135623730951
  0
VERTEX
  5
11DE
  8
SAPA_PROFIL
 10
18.80568131193127
 20
203.55220712261359
 30
0.0
  0
VERTEX
  5
11DF
  8
SAPA_PROFIL
 10
18.80568131193127
 20
204.1279430539017
 30
0.0
 42
0.1989123673796752
  0
VERTEX
  5
11E0
  8
SAPA_PROFIL
 10
18.71781334628713
 20
204.34007508825749
 30
0.0
  0
VERTEX
  5
11E1
  8
SAPA_PROFIL
 10
17.19354927757535
 20
205.86433915696949
 30
0.0
 42
-0.1989123673797102
  0
VERTEX
  5
11E2
  8
SAPA_PROFIL
 10
17.105681311931221
 20
206.0764711913256
 30
0.0
  0
VERTEX
  5
11E3
  8
SAPA_PROFIL
 10
17.105681311931221
 20
208.25220712261361
 30
0.0
 42
-0.4142135623730951
  0
VERTEX
  5
11E4
  8
SAPA_PROFIL
 10
18.105681311931221
 20
209.25220712261361
 30
0.0
  0
VERTEX
  5
11E5
  8
SAPA_PROFIL
 10
61.70568131193135
 20
209.25220712261361
 30
0.0
 42
-0.4142135623730951
  0
SEQEND
  5
11E6
  8
SAPA_PROFIL
  0
POLYLINE
  5
CED
  8
SAPA_PROFIL
 66
     1
 10
0.0
 20
0.0
 30
0.0
 70
     1
  0
VERTEX
  5
11E7
  8
SAPA_PROFIL
 10
62.705681311930903
 20
21.153732051407591
 30
0.0
  0
VERTEX
  5
11E8
  8
SAPA_PROFIL
 10
63.705681311930903
 20
21.153732051407591
 30
0.0
  0
VERTEX
  5
11E9
  8
SAPA_PROFIL
 10
63.705681311930903
 20
23.753732051407749
 30
0.0
 42
-0.4142135623730951
  0
VERTEX
  5
11EA
  8
SAPA_PROFIL
 10
64.205681311930903
 20
24.253732051407749
 30
0.0
  0
VERTEX
  5
11EB
  8
SAPA_PROFIL
 10
64.605681311930994
 20
24.253732051407749
 30
0.0
 42
-0.4142135623730951
  0
VERTEX
  5
11EC
  8
SAPA_PROFIL
 10
64.905681311930948
 20
23.953732051407801
 30
0.0
  0
VERTEX
  5
11ED
  8
SAPA_PROFIL
 10
64.905681311930948
 20
6.2522071236051033
 30
0.0
 42
-0.4142135623730951
  0
VERTEX
  5
11EE
  8
SAPA_PROFIL
 10
64.405681311930948
 20
5.7522071236051033
 30
0.0
  0
VERTEX
  5
11EF
  8
SAPA_PROFIL
 10
15.40568131193095
 20
5.7522071236051033
 30
0.0
 42
-0.4142135623730951
  0
VERTEX
  5
11F0
  8
SAPA_PROFIL
 10
14.90568131193095
 20
6.2522071236051033
 30
0.0
  0
VERTEX
  5
11F1
  8
SAPA_PROFIL
 10
14.90568131193095
 20
23.953732051407801
 30
0.0
 42
-0.4142135623730951
  0
VERTEX
  5
11F2
  8
SAPA_PROFIL
 10
15.205681311930899
 20
24.253732051407749
 30
0.0
  0
VERTEX
  5
11F3
  8
SAPA_PROFIL
 10
15.60568131193099
 20
24.253732051407749
 30
0.0
 42
-0.4142135623730951
  0
VERTEX
  5
11F4
  8
SAPA_PROFIL
 10
16.10568131193099
 20
23.753732051407749
 30
0.0
  0
VERTEX
  5
11F5
  8
SAPA_PROFIL
 10
16.10568131193099
 20
21.153732051407591
 30
0.0
  0
VERTEX
  5
11F6
  8
SAPA_PROFIL
 10
17.10568131193099
 20
21.153732051407591
 30
0.0
  0
VERTEX
  5
11F7
  8
SAPA_PROFIL
 10
17.685342090352151
 20
20.149699291774599
 30
0.0
 42
-0.4155392929676362
  0
VERTEX
  5
11F8
  8
SAPA_PROFIL
 10
17.38936866404628
 20
19.055080319982611
 30
0.0
  0
VERTEX
  5
11F9
  8
SAPA_PROFIL
 10
16.10568131193099
 20
18.31394308168365
 30
0.0
  0
VERTEX
  5
11FA
  8
SAPA_PROFIL
 10
16.10568131193099
 20
8.1522071236049651
 30
0.0
 42
0.4142135623730951
  0
VERTEX
  5
11FB
  8
SAPA_PROFIL
 10
17.10568131193099
 20
7.152207123604966
 30
0.0
  0
VERTEX
  5
11FC
  8
SAPA_PROFIL
 10
62.705681311930903
 20
7.152207123604966
 30
0.0
 42
0.4142135623730951
  0
VERTEX
  5
11FD
  8
SAPA_PROFIL
 10
63.705681311930903
 20
8.1522071236049651
 30
0.0
  0
VERTEX
  5
11FE
  8
SAPA_PROFIL
 10
63.705681311930903
 20
18.31394308168365
 30
0.0
  0
VERTEX
  5
11FF
  8
SAPA_PROFIL
 10
62.421993959815609
 20
19.055080319982611
 30
0.0
 42
-0.4155392929676362
  0
VERTEX
  5
1200
  8
SAPA_PROFIL
 10
62.126020533509738
 20
20.149699291774599
 30
0.0
  0
SEQEND
  5
1201
  8
SAPA_PROFIL
  0
LINE
  5
CEE
  8
SAPA_PROFIL
 10
2.649312521127285
 20
15.819252105773559
 30
0.0
 11
0.7127880931183139
 21
13.88272767776459
 31
0.0
  0
LINE
  5
CEF
  8
SAPA_PROFIL
 10
3.7506984617884882
 20
29.752207123605331
 30
0.0
 11
2.649312521127285
 21
15.819252105773559
 31
0.0
  0
LINE
  5
CF0
  8
SAPA_PROFIL
 10
25.041946069414848
 20
29.752207123605331
 30
0.0
 11
3.7506984617884882
 21
29.752207123605331
 31
0.0
  0
LINE
  5
CF1
  8
SAPA_PROFIL
 10
1.6814788964650831
 20
16.265632043484452
 30
0.0
 11
0.0056813119317665
 21
14.589834458951129
 31
0.0
  0
LINE
  5
CF2
  8
SAPA_PROFIL
 10
2.8266279406669801
 20
30.752207123605331
 30
0.0
 11
1.6814788964650831
 21
16.265632043484452
 31
0.0
  0
LINE
  5
CF3
  8
SAPA_PROFIL
 10
25.041946069414848
 20
30.752207123605331
 30
0.0
 11
2.8266279406669801
 21
30.752207123605331
 31
0.0
  0
LINE
  5
CF4
  8
SAPA_PROFIL
 10
0.7127880931183139
 20
13.88272767776459
 30
0.0
 11
0.0056813119317669
 21
14.589834458951129
 31
0.0
  0
LINE
  5
CF5
  8
SAPA_PROFIL
 10
25.041946069414848
 20
30.752207123605331
 30
0.0
 11
25.041946069414848
 21
29.752207123605331
 31
0.0
  0
LINE
  5
D21
  8
SAPA_FYLLNING
 10
65.905681311931403
 20
200.75220712261361
 30
0.0
 11
114.9056813119314
 21
200.75220712261361
 31
0.0
  0
POLYLINE
  5
D22
  8
SAPA_FYLLNING
 66
     1
 10
0.0
 20
0.0
 30
0.0
  0
VERTEX
  5
1222
  8
SAPA_FYLLNING
 10
114.9056813119314
 20
199.25220712261361
 30
0.0
  0
VERTEX
  5
1223
  8
SAPA_FYLLNING
 10
65.905681311931403
 20
199.25220712261361
 30
0.0
  0
VERTEX
  5
1224
  8
SAPA_FYLLNING
 10
65.905681311931403
 20
210.75220712261361
 30
0.0
  0
VERTEX
  5
1225
  8
SAPA_FYLLNING
 10
114.9056813119314
 20
210.75220712261361
 30
0.0
  0
SEQEND
  5
1226
  8
SAPA_FYLLNING
  0
POLYLINE
  5
D23
  8
SAPA_FYLLNING
 66
     1
 10
0.0
 20
0.0
 30
0.0
  0
VERTEX
  5
1227
  8
SAPA_FYLLNING
 10
50.605681677184521
 20
90.269448452690554
 30
0.0
 42
-0.9999999999999998
  0
VERTEX
  5
1228
  8
SAPA_FYLLNING
 10
55.571199003042473
 20
90.269448466679023
 30
0.0
  0
VERTEX
  5
1229
  8
SAPA_FYLLNING
 10
55.571199157612902
 20
65.193586590479754
 30
0.0
 42
0.9999999999999998
  0
VERTEX
  5
122A
  8
SAPA_FYLLNING
 10
60.536716381614717
 20
65.193586590479754
 30
0.0
  0
VERTEX
  5
122B
  8
SAPA_FYLLNING
 10
60.53671622704428
 20
90.269448466679023
 30
0.0
 42
-1.0
  0
VERTEX
  5
122C
  8
SAPA_FYLLNING
 10
65.502233451042457
 20
90.269448487661066
 30
0.0
  0
VERTEX
  5
122D
  8
SAPA_FYLLNING
 10
65.502233605612901
 20
65.19358661845672
 30
0.0
 42
0.9999999999999998
  0
VERTEX
  5
122E
  8
SAPA_FYLLNING
 10
70.467750829614715
 20
65.19358661845672
 30
0.0
  0
VERTEX
  5
122F
  8
SAPA_FYLLNING
 10
70.467750573188141
 20
90.26944849465508
 30
0.0
 42
-0.9999999999999998
  0
VERTEX
  5
1230
  8
SAPA_FYLLNING
 10
75.433267899046086
 20
90.269448508643094
 30
0.0
  0
VERTEX
  5
1231
  8
SAPA_FYLLNING
 10
75.43326805361653
 20
65.193586632444735
 30
0.0
 42
0.9999999999999998
  0
VERTEX
  5
1232
  8
SAPA_FYLLNING
 10
80.398785277618344
 20
65.193586632444735
 30
0.0
  0
VERTEX
  5
1233
  8
SAPA_FYLLNING
 10
80.398785123047901
 20
90.269448508643094
 30
0.0
 42
-1.0
  0
VERTEX
  5
1234
  8
SAPA_FYLLNING
 10
85.364302347046078
 20
90.269448529625151
 30
0.0
  0
VERTEX
  5
1235
  8
SAPA_FYLLNING
 10
85.364302501616521
 20
65.193586660420806
 30
0.0
 42
0.9999999999999998
  0
VERTEX
  5
1236
  8
SAPA_FYLLNING
 10
90.329819725618336
 20
65.193586660420806
 30
0.0
  0
VERTEX
  5
1237
  8
SAPA_FYLLNING
 10
90.329819469191776
 20
90.269448536619166
 30
0.0
 42
-0.9999999999999998
  0
VERTEX
  5
1238
  8
SAPA_FYLLNING
 10
95.295336795049707
 20
90.269448550607194
 30
0.0
  0
VERTEX
  5
1239
  8
SAPA_FYLLNING
 10
95.29533694962015
 20
65.193586674408834
 30
0.0
 42
0.9999999999999998
  0
VERTEX
  5
123A
  8
SAPA_FYLLNING
 10
100.26085417362189
 20
65.193586674408834
 30
0.0
  0
VERTEX
  5
123B
  8
SAPA_FYLLNING
 10
100.26085401905149
 20
90.269448550607194
 30
0.0
 42
-1.0000000000000011
  0
VERTEX
  5
123C
  8
SAPA_FYLLNING
 10
105.2263712430497
 20
90.269448571589209
 30
0.0
  0
VERTEX
  5
123D
  8
SAPA_FYLLNING
 10
105.2263713976201
 20
65.193586702384891
 30
0.0
 42
0.9999999999999998
  0
VERTEX
  5
123E
  8
SAPA_FYLLNING
 10
110.1918886216219
 20
65.193586702384891
 30
0.0
  0
VERTEX
  5
123F
  8
SAPA_FYLLNING
 10
110.1918883651954
 20
90.269448578583251
 30
0.0
 42
-0.9999999999999998
  0
VERTEX
  5
1240
  8
SAPA_FYLLNING
 10
115.1574056910533
 20
90.269448592571266
 30
0.0
  0
SEQEND
  5
1241
  8
SAPA_FYLLNING
  0
INSERT
  5
D2B
  8
SAPA_FYLLNING
  6
CONTINUOUS
  2
*X40
 10
0.0
 20
0.0
 30
0.0
1001
ACAD
1000
HATCH
1002
{
1070
    19
1000
HEX
1040
0.25
1040
1.5707963267948959
1000
R14_HATCH_DATA
1000
D2B
1011
1.0
1021
0.0
1031
0.0
1021
0.0
1031
0.0
1011
0.0
1021
0.0
1031
0.0
1021
1.0
1031
0.0
1011
0.0
1021
0.0
1031
0.0
1021
0.0
1031
1.0
1040
0.0
1010
0.0
1020
0.0
1030
1.0
1000
HEX
1070
     0
1070
     0
1071
        1
1071
        5
1071
        1
1070
     3
1040
7.490721829728499
1040
194.66712906202301
1040
7.4013872152117974
1040
-0.0000000000000005
1040
0.5404392289838516
1040
0.0
1040
6.2831853071795862
1070
     0
1071
        0
1070
     0
1070
     1
1040
1.5707963267948959
1040
0.25
1070
     0
1070
     3
1040
1.5707963267948959
1040
8930.2556281501074
1040
-14709.102441664571
1040
-1.374814999999999
1040
0.0000000000000001
1070
     2
1040
0.79375
1040
-1.587499999999999
1040
3.6651914291880909
1040
8930.2556281501074
1040
-14709.102441664571
1040
0.6874074999999995
1040
-1.190624715503902
1070
     2
1040
0.7937499999999989
1040
-1.587499999999997
1040
2.6179938779914931
1040
8930.2556281501074
1040
-14708.30869166457
1040
-0.6874075000000002
1040
-1.190624715503902
1070
     2
1040
0.79375
1040
-1.587499999999999
1040
0.0689716451332303
1071
        1
1040
7.1244550817773407
1040
193.5385453926516
1040
0.0
1002
}
  0
INSERT
  5
D2C
  8
SAPA_FYLLNING
  6
CONTINUOUS
  2
*X41
 10
0.0
 20
0.0
 30
0.0
1001
ACAD
1000
HATCH
1002
{
1070
    19
1000
ANSI37
1040
0.25
1040
1.5707963267948959
1000
R14_HATCH_DATA
1000
D2C
1011
1.0
1021
0.0
1031
0.0
1021
0.0
1031
0.0
1011
0.0
1021
0.0
1031
0.0
1021
1.0
1031
0.0
1011
0.0
1021
0.0
1031
0.0
1021
0.0
1031
1.0
1040
0.0
1010
0.0
1020
0.0
1030
1.0
1000
ANSI37
1070
     0
1070
     0
1071
        1
1071
        7
1070
     1
1070
     1
1071
        4
1040
14.905681311931399
1040
197.36602616997121
1040
0.0
1040
14.905681311931399
1040
212.2522071226137
1040
-0.2625797940973267
1040
0.1056813119321305
1040
212.2522071226137
1040
0.0
1040
0.1056813119321305
1040
197.366026169973
1040
-0.2625797940972474
1071
        0
1070
     0
1070
     1
1040
1.5707963267948959
1040
0.25
1070
     0
1070
     2
1040
2.3561944901923439
1040
8930.2556281501074
1040
-14709.102441664571
1040
-0.5612660075668221
1040
-0.5612660075668221
1070
     0
1040
3.926990816987241
1040
8930.2556281501074
1040
-14709.102441664571
1040
0.5612660075668221
1040
-0.5612660075668221
1070
     0
1040
0.2777446059011853
1071
        1
1040
8.0040458814328304
1040
203.53291005234101
1040
0.0
1002
}
  0
INSERT
  5
D2D
  8
SAPA_FYLLNING
  6
CONTINUOUS
  2
*X42
 10
0.0
 20
0.0
 30
0.0
1001
ACAD
1000
HATCH
1002
{
1070
    19
1000
HEX
1040
0.5
1040
1.5707963267948959
1000
R14_HATCH_DATA
1000
D2D
1011
1.0
1021
0.0
1031
0.0
1021
0.0
1031
0.0
1011
0.0
1021
0.0
1031
0.0
1021
1.0
1031
0.0
1011
0.0
1021
0.0
1031
0.0
1021
0.0
1031
1.0
1040
0.0
1010
0.0
1020
0.0
1030
1.0
1000
HEX
1070
     0
1070
     0
1071
        1
1071
        7
1070
     0
1070
     1
1071
        4
1040
0.0056813119317667
1040
41.838558592840847
1040
15.00568131193188
1040
41.838558592840847
1040
15.00568131193188
1040
61.838558592840847
1040
0.0056813119317667
1040
61.838558592840847
1071
        0
1070
     0
1070
     1
1040
1.5707963267948959
1040
0.5
1070
     0
1070
     3
1040
1.5707963267948959
1040
8930.2556281501074
1040
-14745.921309481681
1040
-2.7496299999999989
1040
0.0000000000000002
1070
     2
1040
1.587499999999999
1040
-3.1749999999999989
1040
3.6651914291880909
1040
8930.2556281501074
1040
-14745.921309481681
1040
1.374814999999999
1040
-2.381249431007805
1070
     2
1040
1.5874999999999959
1040
-3.1749999999999932
1040
2.6179938779914931
1040
8930.2556281501074
1040
-14744.333809481681
1040
-1.3748149999999999
1040
-2.381249431007805
1070
     2
1040
1.587499999999999
1040
-3.1749999999999989
1040
0.2819629331102995
1071
        1
1040
5.2554966964344203
1040
53.788047539563202
1040
0.0
1002
}
  0
POLYLINE
  5
D3C
  8
SAPA_ISOLATOR
 66
     1
 10
0.0
 20
0.0
 30
0.0
 70
     1
  0
VERTEX
  5
1492
  8
SAPA_ISOLATOR
 10
48.739628698077972
 20
70.017129067942278
 30
0.0
 42
0.2133140774071598
  0
VERTEX
  5
1493
  8
SAPA_ISOLATOR
 10
49.405681311932412
 20
71.507291599680215
 30
0.0
  0
VERTEX
  5
1494
  8
SAPA_ISOLATOR
 10
49.405681311932412
 20
71.679148508339154
 30
0.0
 42
-0.9999999999999998
  0
VERTEX
  5
1495
  8
SAPA_ISOLATOR
 10
49.905681311932419
 20
71.679148508339154
 30
0.0
  0
VERTEX
  5
1496
  8
SAPA_ISOLATOR
 10
49.905681311932419
 20
70.72002396905259
 30
0.0
 42
-0.2072397715914422
  0
VERTEX
  5
1497
  8
SAPA_ISOLATOR
 10
49.116002245635173
 20
68.896619926132189
 30
0.0
 42
-0.1421101772925093
  0
VERTEX
  5
1498
  8
SAPA_ISOLATOR
 10
44.905681311932412
 20
66.752207122613754
 30
0.0
  0
VERTEX
  5
1499
  8
SAPA_ISOLATOR
 10
44.905681311932412
 20
68.56437236715874
 30
0.0
 42
0.1860725815673001
  0
SEQEND
  5
149A
  8
SAPA_ISOLATOR
  0
POLYLINE
  5
D3D
  8
SAPA_ISOLATOR
 66
     1
 10
0.0
 20
0.0
 30
0.0
 70
     1
  0
VERTEX
  5
149B
  8
SAPA_ISOLATOR
 10
31.071733925786749
 20
70.017129067942278
 30
0.0
 42
-0.2133140774071598
  0
VERTEX
  5
149C
  8
SAPA_ISOLATOR
 10
30.405681311932302
 20
71.507291599680215
 30
0.0
  0
VERTEX
  5
149D
  8
SAPA_ISOLATOR
 10
30.405681311932302
 20
71.679148508339154
 30
0.0
 42
0.9999999999999998
  0
VERTEX
  5
149E
  8
SAPA_ISOLATOR
 10
29.905681311932302
 20
71.679148508339154
 30
0.0
  0
VERTEX
  5
149F
  8
SAPA_ISOLATOR
 10
29.905681311932302
 20
70.72002396905259
 30
0.0
 42
0.2072397715914422
  0
VERTEX
  5
14A0
  8
SAPA_ISOLATOR
 10
30.695360378229559
 20
68.896619926132189
 30
0.0
 42
0.1421101772925093
  0
VERTEX
  5
14A1
  8
SAPA_ISOLATOR
 10
34.905681311932312
 20
66.752207122613754
 30
0.0
  0
VERTEX
  5
14A2
  8
SAPA_ISOLATOR
 10
34.905681311932312
 20
68.56437236715874
 30
0.0
 42
-0.1860725815673001
  0
SEQEND
  5
14A3
  8
SAPA_ISOLATOR
  0
POLYLINE
  5
D3E
  8
SAPA_ISOLATOR
 66
     1
 10
0.0
 20
0.0
 30
0.0
 70
     1
  0
VERTEX
  5
14A4
  8
SAPA_ISOLATOR
 10
31.071733925786749
 20
53.017129067942278
 30
0.0
 42
-0.2133140774071598
  0
VERTEX
  5
14A5
  8
SAPA_ISOLATOR
 10
30.405681311932302
 20
54.507291599680229
 30
0.0
  0
VERTEX
  5
14A6
  8
SAPA_ISOLATOR
 10
30.405681311932302
 20
54.679148508339154
 30
0.0
 42
0.9999999999999998
  0
VERTEX
  5
14A7
  8
SAPA_ISOLATOR
 10
29.905681311932302
 20
54.679148508339154
 30
0.0
  0
VERTEX
  5
14A8
  8
SAPA_ISOLATOR
 10
29.905681311932302
 20
53.72002396905259
 30
0.0
 42
0.2072397715914422
  0
VERTEX
  5
14A9
  8
SAPA_ISOLATOR
 10
30.695360378229559
 20
51.896619926132189
 30
0.0
 42
0.1421101772925093
  0
VERTEX
  5
14AA
  8
SAPA_ISOLATOR
 10
34.905681311932312
 20
49.752207122613747
 30
0.0
  0
VERTEX
  5
14AB
  8
SAPA_ISOLATOR
 10
34.905681311932312
 20
51.564372367158732
 30
0.0
 42
-0.1860725815673001
  0
SEQEND
  5
14AC
  8
SAPA_ISOLATOR
  0
POLYLINE
  5
D3F
  8
SAPA_ISOLATOR
 66
     1
 10
0.0
 20
0.0
 30
0.0
 70
     1
  0
VERTEX
  5
14AD
  8
SAPA_ISOLATOR
 10
31.071733925786809
 20
36.017129067942733
 30
0.0
 42
-0.2133140774071598
  0
VERTEX
  5
14AE
  8
SAPA_ISOLATOR
 10
30.405681311932359
 20
37.507291599680691
 30
0.0
  0
VERTEX
  5
14AF
  8
SAPA_ISOLATOR
 10
30.405681311932359
 20
37.679148508339608
 30
0.0
 42
0.9999999999999998
  0
VERTEX
  5
14B0
  8
SAPA_ISOLATOR
 10
29.905681311932359
 20
37.679148508339608
 30
0.0
  0
VERTEX
  5
14B1
  8
SAPA_ISOLATOR
 10
29.905681311932359
 20
36.720023969053052
 30
0.0
 42
0.2072397715914422
  0
VERTEX
  5
14B2
  8
SAPA_ISOLATOR
 10
30.695360378229609
 20
34.896619926132637
 30
0.0
 42
0.1421101772925093
  0
VERTEX
  5
14B3
  8
SAPA_ISOLATOR
 10
34.905681311932362
 20
32.752207122614209
 30
0.0
  0
VERTEX
  5
14B4
  8
SAPA_ISOLATOR
 10
34.905681311932362
 20
34.564372367159187
 30
0.0
 42
-0.1860725815673001
  0
SEQEND
  5
14B5
  8
SAPA_ISOLATOR
  0
POLYLINE
  5
D40
  8
SAPA_ISOLATOR
 66
     1
 10
0.0
 20
0.0
 30
0.0
 70
     1
  0
VERTEX
  5
14B6
  8
SAPA_ISOLATOR
 10
48.739628698077972
 20
53.017129067942278
 30
0.0
 42
0.2133140774071598
  0
VERTEX
  5
14B7
  8
SAPA_ISOLATOR
 10
49.405681311932412
 20
54.507291599680229
 30
0.0
  0
VERTEX
  5
14B8
  8
SAPA_ISOLATOR
 10
49.405681311932412
 20
54.679148508339154
 30
0.0
 42
-0.9999999999999998
  0
VERTEX
  5
14B9
  8
SAPA_ISOLATOR
 10
49.905681311932419
 20
54.679148508339154
 30
0.0
  0
VERTEX
  5
14BA
  8
SAPA_ISOLATOR
 10
49.905681311932419
 20
53.72002396905259
 30
0.0
 42
-0.2072397715914422
  0
VERTEX
  5
14BB
  8
SAPA_ISOLATOR
 10
49.116002245635173
 20
51.896619926132189
 30
0.0
 42
-0.1421101772925093
  0
VERTEX
  5
14BC
  8
SAPA_ISOLATOR
 10
44.905681311932412
 20
49.752207122613747
 30
0.0
  0
VERTEX
  5
14BD
  8
SAPA_ISOLATOR
 10
44.905681311932412
 20
51.564372367158732
 30
0.0
 42
0.1860725815673001
  0
SEQEND
  5
14BE
  8
SAPA_ISOLATOR
  0
POLYLINE
  5
D41
  8
SAPA_ISOLATOR
 66
     1
 10
0.0
 20
0.0
 30
0.0
 70
     1
  0
VERTEX
  5
14BF
  8
SAPA_ISOLATOR
 10
48.739628698077908
 20
36.017129067942733
 30
0.0
 42
0.2133140774071598
  0
VERTEX
  5
14C0
  8
SAPA_ISOLATOR
 10
49.405681311932362
 20
37.507291599680691
 30
0.0
  0
VERTEX
  5
14C1
  8
SAPA_ISOLATOR
 10
49.405681311932362
 20
37.679148508339608
 30
0.0
 42
-0.9999999999999998
  0
VERTEX
  5
14C2
  8
SAPA_ISOLATOR
 10
49.905681311932362
 20
37.679148508339608
 30
0.0
  0
VERTEX
  5
14C3
  8
SAPA_ISOLATOR
 10
49.905681311932362
 20
36.720023969053052
 30
0.0
 42
-0.2072397715914422
  0
VERTEX
  5
14C4
  8
SAPA_ISOLATOR
 10
49.116002245635102
 20
34.896619926132637
 30
0.0
 42
-0.1421101772925093
  0
VERTEX
  5
14C5
  8
SAPA_ISOLATOR
 10
44.905681311932362
 20
32.752207122614209
 30
0.0
  0
VERTEX
  5
14C6
  8
SAPA_ISOLATOR
 10
44.905681311932362
 20
34.564372367159187
 30
0.0
 42
0.1860725815673001
  0
SEQEND
  5
14C7
  8
SAPA_ISOLATOR
  0
POLYLINE
  5
D42
  8
SAPA_ISOLATOR
 66
     1
 10
0.0
 20
0.0
 30
0.0
 70
     1
  0
VERTEX
  5
14C8
  8
SAPA_ISOLATOR
 10
36.493549277538072
 20
27.84007508803461
 30
0.0
 42
-0.1989123671061558
  0
VERTEX
  5
14C9
  8
SAPA_ISOLATOR
 10
36.281417243405372
 20
27.752207122613871
 30
0.0
  0
VERTEX
  5
14CA
  8
SAPA_ISOLATOR
 10
35.205681311932281
 20
27.752207122613981
 30
0.0
 42
-0.4142135623730605
  0
VERTEX
  5
14CB
  8
SAPA_ISOLATOR
 10
34.905681311932312
 20
28.052207122613989
 30
0.0
  0
VERTEX
  5
14CC
  8
SAPA_ISOLATOR
 10
34.905681311932312
 20
75.252207122613854
 30
0.0
 42
-0.4142135623730951
  0
VERTEX
  5
14CD
  8
SAPA_ISOLATOR
 10
35.405681311932419
 20
75.752207122613754
 30
0.0
  0
VERTEX
  5
14CE
  8
SAPA_ISOLATOR
 10
36.631417243220419
 20
75.752207122613868
 30
0.0
 42
0.1989123673796248
  0
VERTEX
  5
14CF
  8
SAPA_ISOLATOR
 10
36.843549277576408
 20
75.84007508825789
 30
0.0
  0
VERTEX
  5
14D0
  8
SAPA_ISOLATOR
 10
37.517813346288271
 20
76.514339156969754
 30
0.0
 42
0.1989123673796571
  0
VERTEX
  5
14D1
  8
SAPA_ISOLATOR
 10
37.605681311932301
 20
76.7264711913258
 30
0.0
  0
VERTEX
  5
14D2
  8
SAPA_ISOLATOR
 10
37.605681311932301
 20
81.157240080829183
 30
0.0
 42
-0.0912836897734216
  0
VERTEX
  5
14D3
  8
SAPA_ISOLATOR
 10
38.824322979742192
 20
83.276797114431133
 30
0.0
 42
-0.4396415083054796
  0
VERTEX
  5
14D4
  8
SAPA_ISOLATOR
 10
40.987039644122362
 20
83.276797114431247
 30
0.0
 42
-0.0912836897734209
  0
VERTEX
  5
14D5
  8
SAPA_ISOLATOR
 10
42.20568131193231
 20
81.157240080829183
 30
0.0
  0
VERTEX
  5
14D6
  8
SAPA_ISOLATOR
 10
42.20568131193231
 20
76.7264711913258
 30
0.0
 42
0.1989123673796602
  0
VERTEX
  5
14D7
  8
SAPA_ISOLATOR
 10
42.293549277576389
 20
76.514339156969754
 30
0.0
  0
VERTEX
  5
14D8
  8
SAPA_ISOLATOR
 10
42.96781334628826
 20
75.84007508825789
 30
0.0
 42
0.1989123673796276
  0
VERTEX
  5
14D9
  8
SAPA_ISOLATOR
 10
43.179945380644241
 20
75.752207122613868
 30
0.0
  0
VERTEX
  5
14DA
  8
SAPA_ISOLATOR
 10
44.405681311932362
 20
75.752207122613868
 30
0.0
 42
-0.4142135623730951
  0
VERTEX
  5
14DB
  8
SAPA_ISOLATOR
 10
44.905681311932362
 20
75.252207122613854
 30
0.0
  0
VERTEX
  5
14DC
  8
SAPA_ISOLATOR
 10
44.905681311932369
 20
28.05220712261394
 30
0.0
 42
-0.4142135623731471
  0
VERTEX
  5
14DD
  8
SAPA_ISOLATOR
 10
44.605681311932372
 20
27.752207122613921
 30
0.0
  0
VERTEX
  5
14DE
  8
SAPA_ISOLATOR
 10
43.529945380829183
 20
27.752207122613871
 30
0.0
 42
-0.1989123676531289
  0
VERTEX
  5
14DF
  8
SAPA_ISOLATOR
 10
43.31781334624997
 20
27.840075088481171
 30
0.0
  0
VERTEX
  5
14E0
  8
SAPA_ISOLATOR
 10
40.259234709148352
 20
30.898653732020652
 30
0.0
 42
0.4142135623730478
  0
VERTEX
  5
14E1
  8
SAPA_ISOLATOR
 10
39.552127927961799
 20
30.898653732020652
 30
0.0
  0
SEQEND
  5
14E2
  8
SAPA_ISOLATOR
  0
POLYLINE
  5
D43
  8
SAPA_ISOLATOR
 66
     1
 10
0.0
 20
0.0
 30
0.0
 70
     1
  0
VERTEX
  5
14E3
  8
SAPA_ISOLATOR
 10
41.193549277576373
 20
76.058704238359383
 30
0.0
 42
-0.198912367379658
  0
VERTEX
  5
14E4
  8
SAPA_ISOLATOR
 10
41.105681311932351
 20
76.270836272715314
 30
0.0
  0
VERTEX
  5
14E5
  8
SAPA_ISOLATOR
 10
41.105681311932351
 20
80.921962010823336
 30
0.0
 42
0.0949127563617268
  0
VERTEX
  5
14E6
  8
SAPA_ISOLATOR
 10
41.091524040326007
 20
80.995870605066386
 30
0.0
 42
0.0825355669758324
  0
VERTEX
  5
14E7
  8
SAPA_ISOLATOR
 10
40.133597533296637
 20
82.582345374368572
 30
0.0
 42
0.4603672002713016
  0
VERTEX
  5
14E8
  8
SAPA_ISOLATOR
 10
39.677765090568009
 20
82.582345374368572
 30
0.0
 42
0.08253556697594
  0
VERTEX
  5
14E9
  8
SAPA_ISOLATOR
 10
38.719838583538113
 20
80.995870605064169
 30
0.0
 42
0.0949127563615792
  0
VERTEX
  5
14EA
  8
SAPA_ISOLATOR
 10
38.705681311932317
 20
80.921962010821005
 30
0.0
  0
VERTEX
  5
14EB
  8
SAPA_ISOLATOR
 10
38.705681311932317
 20
76.270836272715314
 30
0.0
 42
-0.1989123673796566
  0
VERTEX
  5
14EC
  8
SAPA_ISOLATOR
 10
38.617813346288301
 20
76.058704238359496
 30
0.0
  0
VERTEX
  5
14ED
  8
SAPA_ISOLATOR
 10
37.299184196186779
 20
74.740075088257868
 30
0.0
 42
-0.1989123673796571
  0
VERTEX
  5
14EE
  8
SAPA_ISOLATOR
 10
37.087052161830847
 20
74.652207122613845
 30
0.0
  0
VERTEX
  5
14EF
  8
SAPA_ISOLATOR
 10
36.305681311932339
 20
74.652207122613845
 30
0.0
 42
0.4142135623730395
  0
VERTEX
  5
14F0
  8
SAPA_ISOLATOR
 10
36.005681311932328
 20
74.352207122613891
 30
0.0
  0
VERTEX
  5
14F1
  8
SAPA_ISOLATOR
 10
36.005681311932321
 20
62.152207122613902
 30
0.0
 42
0.4142135623730673
  0
VERTEX
  5
14F2
  8
SAPA_ISOLATOR
 10
36.305681311932332
 20
61.85220712261394
 30
0.0
  0
VERTEX
  5
14F3
  8
SAPA_ISOLATOR
 10
43.505681311932321
 20
61.85220712261394
 30
0.0
 42
0.4142135623731228
  0
VERTEX
  5
14F4
  8
SAPA_ISOLATOR
 10
43.805681311932297
 20
62.152207122613902
 30
0.0
  0
VERTEX
  5
14F5
  8
SAPA_ISOLATOR
 10
43.805681311932339
 20
74.352207122613891
 30
0.0
 42
0.4142135623730743
  0
VERTEX
  5
14F6
  8
SAPA_ISOLATOR
 10
43.505681311932378
 20
74.652207122613845
 30
0.0
  0
VERTEX
  5
14F7
  8
SAPA_ISOLATOR
 10
42.72431046203382
 20
74.652207122613845
 30
0.0
 42
-0.1989123673796576
  0
VERTEX
  5
14F8
  8
SAPA_ISOLATOR
 10
42.512178427677888
 20
74.740075088257981
 30
0.0
  0
SEQEND
  5
14F9
  8
SAPA_ISOLATOR
  0
POLYLINE
  5
D44
  8
SAPA_ISOLATOR
 66
     1
 10
0.0
 20
0.0
 30
0.0
 70
     1
  0
VERTEX
  5
14FA
  8
SAPA_ISOLATOR
 10
36.305681311932332
 20
60.752207122613918
 30
0.0
 42
0.4142135623731076
  0
VERTEX
  5
14FB
  8
SAPA_ISOLATOR
 10
36.005681311932321
 20
60.452207122613864
 30
0.0
  0
VERTEX
  5
14FC
  8
SAPA_ISOLATOR
 10
36.005681311932349
 20
45.152207122613952
 30
0.0
 42
0.4142135623730659
  0
VERTEX
  5
14FD
  8
SAPA_ISOLATOR
 10
36.305681311932361
 20
44.852207122613997
 30
0.0
  0
VERTEX
  5
14FE
  8
SAPA_ISOLATOR
 10
43.505681311932413
 20
44.852207122613891
 30
0.0
 42
0.414213562373041
  0
VERTEX
  5
14FF
  8
SAPA_ISOLATOR
 10
43.805681311932361
 20
45.152207122613952
 30
0.0
  0
VERTEX
  5
1500
  8
SAPA_ISOLATOR
 10
43.805681311932332
 20
60.452207122613864
 30
0.0
 42
0.4142135623730784
  0
VERTEX
  5
1501
  8
SAPA_ISOLATOR
 10
43.505681311932371
 20
60.752207122613811
 30
0.0
  0
SEQEND
  5
1502
  8
SAPA_ISOLATOR
  0
POLYLINE
  5
D45
  8
SAPA_ISOLATOR
 66
     1
 10
0.0
 20
0.0
 30
0.0
 70
     1
  0
VERTEX
  5
1503
  8
SAPA_ISOLATOR
 10
36.305681311932361
 20
43.752207122613868
 30
0.0
 42
0.4142135623730659
  0
VERTEX
  5
1504
  8
SAPA_ISOLATOR
 10
36.005681311932349
 20
43.452207122613913
 30
0.0
  0
VERTEX
  5
1505
  8
SAPA_ISOLATOR
 10
36.005681311932328
 20
29.390684752185049
 30
0.0
 42
0.6681786375387276
  0
VERTEX
  5
1506
  8
SAPA_ISOLATOR
 10
36.347102668020803
 20
29.249263395798891
 30
0.0
  0
VERTEX
  5
1507
  8
SAPA_ISOLATOR
 10
38.774310469475211
 20
31.67647119214439
 30
0.0
 42
-0.4142135623730892
  0
VERTEX
  5
1508
  8
SAPA_ISOLATOR
 10
41.037052168453542
 20
31.676471191325849
 30
0.0
  0
VERTEX
  5
1509
  8
SAPA_ISOLATOR
 10
43.464259955546197
 20
29.249263399124288
 30
0.0
 42
0.6681786382998753
  0
VERTEX
  5
150A
  8
SAPA_ISOLATOR
 10
43.805681311932339
 20
29.39068475521276
 30
0.0
  0
VERTEX
  5
150B
  8
SAPA_ISOLATOR
 10
43.805681311932361
 20
43.452207122613792
 30
0.0
 42
0.4142135623730951
  0
VERTEX
  5
150C
  8
SAPA_ISOLATOR
 10
43.505681311932342
 20
43.752207122613868
 30
0.0
  0
SEQEND
  5
150D
  8
SAPA_ISOLATOR
  0
CIRCLE
  5
D57
  8
SAPA_FOGBAND
 10
58.661058629754159
 20
27.614638901858029
 30
0.0
 40
0.2549509756796394
  0
INSERT
  5
D58
  8
SAPA_FOGBAND
  6
CONTINUOUS
  2
*U45
 10
0.0
 20
0.0
 30
0.0
1001
ACAD
1002
{
1000
R14_HATCH_DATA
1000
D58
1011
1.0
1021
0.0
1031
0.0
1021
0.0
1031
0.0
1011
0.0
1021
0.0
1031
0.0
1021
1.0
1031
0.0
1011
0.0
1021
0.0
1031
0.0
1021
0.0
1031
1.0
1040
0.0
1010
0.0
1020
0.0
1030
1.0
1000
SOLID
1070
     1
1070
     1
1071
        1
1071
        1
1071
        1
1070
     2
1040
58.661058629754159
1040
27.614638901858029
1040
0.2549509756796394
1040
-3.1415926535897931
1040
3.1415926535897931
1070
     0
1071
        1
1005
D57
1070
     0
1070
     1
1071
        1
1040
58.897797531324272
1040
27.696490399186931
1040
0.0
1002
}
  0
POLYLINE
  5
D59
  8
SAPA_FOGBAND
 66
     1
 10
0.0
 20
0.0
 30
0.0
 70
     1
  0
VERTEX
  5
15EA
  8
SAPA_FOGBAND
 10
57.761058629754189
 20
24.652207122613511
 30
0.0
 42
-0.9999999999999998
  0
VERTEX
  5
15EB
  8
SAPA_FOGBAND
 10
59.561058629754143
 20
24.652207122613511
 30
0.0
  0
VERTEX
  5
15EC
  8
SAPA_FOGBAND
 10
59.561058629754143
 20
24.052207122613481
 30
0.0
 42
-0.9999999999999998
  0
VERTEX
  5
15ED
  8
SAPA_FOGBAND
 10
57.761058629754189
 20
24.052207122613481
 30
0.0
  0
SEQEND
  5
15EE
  8
SAPA_FOGBAND
  0
POLYLINE
  5
D5A
  8
SAPA_FOGBAND
 66
     1
 10
0.0
 20
0.0
 30
0.0
 70
     1
  0
VERTEX
  5
15EF
  8
SAPA_FOGBAND
 10
67.288934937927365
 20
29.75220712261353
 30
0.0
 42
-0.0775891054856093
  0
VERTEX
  5
15F0
  8
SAPA_FOGBAND
 10
63.822153207504812
 20
29.435571138552181
 30
0.0
  0
VERTEX
  5
15F1
  8
SAPA_FOGBAND
 10
63.584263714676013
 20
29.652207122613561
 30
0.0
 42
0.5773502691896298
  0
VERTEX
  5
15F2
  8
SAPA_FOGBAND
 10
63.237853553162147
 20
29.652207122613561
 30
0.0
  0
VERTEX
  5
15F3
  8
SAPA_FOGBAND
 10
62.999805936431358
 20
29.43529726839051
 30
0.0
  0
VERTEX
  5
15F4
  8
SAPA_FOGBAND
 10
62.222311326514721
 20
29.43529726839051
 30
0.0
  0
VERTEX
  5
15F5
  8
SAPA_FOGBAND
 10
61.98426371467599
 20
29.652207122613561
 30
0.0
 42
0.577350269189699
  0
VERTEX
  5
15F6
  8
SAPA_FOGBAND
 10
61.637853553162252
 20
29.652207122613561
 30
0.0
  0
VERTEX
  5
15F7
  8
SAPA_FOGBAND
 10
61.399805936431441
 20
29.43529726839051
 30
0.0
  0
VERTEX
  5
15F8
  8
SAPA_FOGBAND
 10
60.622311326514698
 20
29.43529726839051
 30
0.0
  0
VERTEX
  5
15F9
  8
SAPA_FOGBAND
 10
60.384263714675967
 20
29.652207122613561
 30
0.0
 42
0.577350269189699
  0
VERTEX
  5
15FA
  8
SAPA_FOGBAND
 10
60.037853553162222
 20
29.652207122613561
 30
0.0
  0
VERTEX
  5
15FB
  8
SAPA_FOGBAND
 10
59.799805936431419
 20
29.43529726839051
 30
0.0
  0
VERTEX
  5
15FC
  8
SAPA_FOGBAND
 10
59.022311326514682
 20
29.43529726839051
 30
0.0
  0
VERTEX
  5
15FD
  8
SAPA_FOGBAND
 10
58.784263714676058
 20
29.652207122613561
 30
0.0
 42
0.5773502691896298
  0
VERTEX
  5
15FE
  8
SAPA_FOGBAND
 10
58.437853553162199
 20
29.652207122613561
 30
0.0
  0
VERTEX
  5
15FF
  8
SAPA_FOGBAND
 10
58.19980593643141
 20
29.43529726839051
 30
0.0
  0
VERTEX
  5
1600
  8
SAPA_FOGBAND
 10
57.422311326514659
 20
29.43529726839051
 30
0.0
  0
VERTEX
  5
1601
  8
SAPA_FOGBAND
 10
57.184263714676042
 20
29.652207122613561
 30
0.0
 42
0.5773502691896298
  0
VERTEX
  5
1602
  8
SAPA_FOGBAND
 10
56.837853553162169
 20
29.652207122613561
 30
0.0
  0
VERTEX
  5
1603
  8
SAPA_FOGBAND
 10
56.59980593643138
 20
29.43529726839051
 30
0.0
  0
VERTEX
  5
1604
  8
SAPA_FOGBAND
 10
55.822311322349719
 20
29.43529726839051
 30
0.0
  0
VERTEX
  5
1605
  8
SAPA_FOGBAND
 10
55.584263710510982
 20
29.652207122613561
 30
0.0
 42
0.577350269189699
  0
VERTEX
  5
1606
  8
SAPA_FOGBAND
 10
55.237853548997229
 20
29.652207122613561
 30
0.0
  0
VERTEX
  5
1607
  8
SAPA_FOGBAND
 10
54.437853549442139
 20
28.578877054129059
 30
0.0
 42
0.1316524987190269
  0
VERTEX
  5
1608
  8
SAPA_FOGBAND
 10
54.411058629754159
 20
28.47887705335836
 30
0.0
  0
VERTEX
  5
1609
  8
SAPA_FOGBAND
 10
54.411058629754052
 20
25.952207122613569
 30
0.0
 42
0.4142135623730951
  0
VERTEX
  5
160A
  8
SAPA_FOGBAND
 10
54.611058629754098
 20
25.75220712261353
 30
0.0
  0
VERTEX
  5
160B
  8
SAPA_FOGBAND
 10
56.661058629754173
 20
25.75220712261353
 30
0.0
 42
-0.4142135623730951
  0
VERTEX
  5
160C
  8
SAPA_FOGBAND
 10
57.161058629754173
 20
25.25220712261353
 30
0.0
  0
VERTEX
  5
160D
  8
SAPA_FOGBAND
 10
57.161058629754173
 20
24.525412203370369
 30
0.0
  0
VERTEX
  5
160E
  8
SAPA_FOGBAND
 10
56.909294820733642
 20
24.457952294059972
 30
0.0
 42
0.4740571810232869
  0
VERTEX
  5
160F
  8
SAPA_FOGBAND
 10
56.782000958370077
 20
24.17566970842131
 30
0.0
  0
VERTEX
  5
1610
  8
SAPA_FOGBAND
 10
57.402101461128609
 20
22.72946357166154
 30
0.0
 42
0.2846003776495916
  0
VERTEX
  5
1611
  8
SAPA_FOGBAND
 10
57.849745639588832
 20
22.452207122613569
 30
0.0
  0
VERTEX
  5
1612
  8
SAPA_FOGBAND
 10
59.472371619919393
 20
22.452207122613569
 30
0.0
 42
0.2846003776495917
  0
VERTEX
  5
1613
  8
SAPA_FOGBAND
 10
59.920015798379602
 20
22.72946357166154
 30
0.0
  0
VERTEX
  5
1614
  8
SAPA_FOGBAND
 10
60.540116301138141
 20
24.17566970842131
 30
0.0
 42
0.4740571810232869
  0
VERTEX
  5
1615
  8
SAPA_FOGBAND
 10
60.412822438774583
 20
24.457952294059972
 30
0.0
  0
VERTEX
  5
1616
  8
SAPA_FOGBAND
 10
60.161058629754159
 20
24.525412203370369
 30
0.0
  0
VERTEX
  5
1617
  8
SAPA_FOGBAND
 10
60.161058629754159
 20
25.25220712261353
 30
0.0
 42
-0.4142135623730951
  0
VERTEX
  5
1618
  8
SAPA_FOGBAND
 10
60.661058629754159
 20
25.75220712261353
 30
0.0
  0
VERTEX
  5
1619
  8
SAPA_FOGBAND
 10
63.71105862975412
 20
25.75220712261353
 30
0.0
 42
-0.4142135623730951
  0
VERTEX
  5
161A
  8
SAPA_FOGBAND
 10
63.911058629754159
 20
25.552207122613481
 30
0.0
  0
VERTEX
  5
161B
  8
SAPA_FOGBAND
 10
63.911058629754052
 20
24.652207122613511
 30
0.0
 42
0.4142135623731784
  0
VERTEX
  5
161C
  8
SAPA_FOGBAND
 10
64.111058629754098
 20
24.452207122613569
 30
0.0
  0
VERTEX
  5
161D
  8
SAPA_FOGBAND
 10
64.811058629754143
 20
24.452207122613459
 30
0.0
 42
0.4142135623730398
  0
VERTEX
  5
161E
  8
SAPA_FOGBAND
 10
65.111058629754083
 20
24.75220712261353
 30
0.0
  0
VERTEX
  5
161F
  8
SAPA_FOGBAND
 10
65.111058629754083
 20
25.562718899265061
 30
0.0
 42
-0.1316524975873973
  0
VERTEX
  5
1620
  8
SAPA_FOGBAND
 10
65.379007822185244
 20
26.562718899265061
 30
0.0
  0
VERTEX
  5
1621
  8
SAPA_FOGBAND
 10
70.541852972225684
 20
29.152286891357001
 30
0.0
 42
0.7057658529986604
  0
VERTEX
  5
1622
  8
SAPA_FOGBAND
 10
70.274259796867341
 20
29.75220712261353
 30
0.0
  0
SEQEND
  5
1623
  8
SAPA_FOGBAND
  0
POLYLINE
  5
D5B
  8
SAPA_FOGBAND
 66
     1
 10
0.0
 20
0.0
 30
0.0
 70
     1
  0
VERTEX
  5
1624
  8
SAPA_FOGBAND
 10
59.00305191149392
 20
48.005220334714409
 30
0.0
 42
0.9999999999999998
  0
VERTEX
  5
1625
  8
SAPA_FOGBAND
 10
60.803051911493938
 20
48.005220334714409
 30
0.0
  0
VERTEX
  5
1626
  8
SAPA_FOGBAND
 10
60.803051911493938
 20
48.605220334714431
 30
0.0
 42
0.9999999999999998
  0
VERTEX
  5
1627
  8
SAPA_FOGBAND
 10
59.00305191149392
 20
48.605220334714431
 30
0.0
  0
SEQEND
  5
1628
  8
SAPA_FOGBAND
  0
POLYLINE
  5
D5C
  8
SAPA_FOGBAND
 66
     1
 10
0.0
 20
0.0
 30
0.0
  0
VERTEX
  5
1629
  8
SAPA_FOGBAND
 10
63.50305191149392
 20
46.390589837075588
 30
0.0
  0
VERTEX
  5
162A
  8
SAPA_FOGBAND
 10
63.50305191149392
 20
46.690589837075663
 30
0.0
  0
VERTEX
  5
162B
  8
SAPA_FOGBAND
 10
63.50305191149392
 20
46.390589837075588
 30
0.0
 42
-0.4142135623730951
  0
VERTEX
  5
162C
  8
SAPA_FOGBAND
 10
63.003051911493927
 20
45.890589837075588
 30
0.0
  0
VERTEX
  5
162D
  8
SAPA_FOGBAND
 10
55.703051911493972
 20
45.890589837075588
 30
0.0
 42
-0.4142135623730951
  0
VERTEX
  5
162E
  8
SAPA_FOGBAND
 10
55.203051911493972
 20
46.390589837075588
 30
0.0
  0
VERTEX
  5
162F
  8
SAPA_FOGBAND
 10
55.203051911493972
 20
46.690589837075663
 30
0.0
  0
SEQEND
  5
1630
  8
SAPA_FOGBAND
  0
POLYLINE
  5
D5D
  8
SAPA_FOGBAND
 66
     1
 10
0.0
 20
0.0
 30
0.0
 70
     1
  0
VERTEX
  5
1631
  8
SAPA_FOGBAND
 10
56.853983411998641
 20
42.190589837075663
 30
0.0
  0
VERTEX
  5
1632
  8
SAPA_FOGBAND
 10
59.939916948774687
 20
42.190589837075663
 30
0.0
 42
-0.9695372397405709
  0
VERTEX
  5
1633
  8
SAPA_FOGBAND
 10
59.939916948774687
 20
38.609058044290158
 30
0.0
  0
VERTEX
  5
1634
  8
SAPA_FOGBAND
 10
56.853983411998641
 20
38.609058044290158
 30
0.0
 42
-0.9063837695480113
  0
SEQEND
  5
1635
  8
SAPA_FOGBAND
  0
POLYLINE
  5
D5E
  8
SAPA_FOGBAND
 66
     1
 10
0.0
 20
0.0
 30
0.0
 70
     1
  0
VERTEX
  5
1636
  8
SAPA_FOGBAND
 10
47.571962710562289
 20
39.6789923031915
 30
0.0
  0
VERTEX
  5
1637
  8
SAPA_FOGBAND
 10
47.571962710562289
 20
39.6789923031915
 30
0.0
 42
0.611149385816862
  0
VERTEX
  5
1638
  8
SAPA_FOGBAND
 10
47.603713877627023
 20
37.79875017382642
 30
0.0
  0
VERTEX
  5
1639
  8
SAPA_FOGBAND
 10
51.594376654543183
 20
37.232908261571957
 30
0.0
 42
0.4464785874932439
  0
VERTEX
  5
163A
  8
SAPA_FOGBAND
 10
52.703051911493972
 20
38.226985566677882
 30
0.0
  0
VERTEX
  5
163B
  8
SAPA_FOGBAND
 10
52.703051911493972
 20
41.25029689154259
 30
0.0
 42
0.622676997742357
  0
VERTEX
  5
163C
  8
SAPA_FOGBAND
 10
51.092377424880347
 20
42.042178619706043
 30
0.0
  0
VERTEX
  5
163D
  8
SAPA_FOGBAND
 10
47.571962710562289
 20
39.678992303191492
 30
0.0
 42
0.232531183213058
  0
SEQEND
  5
163E
  8
SAPA_FOGBAND
  0
POLYLINE
  5
D5F
  8
SAPA_FOGBAND
 66
     1
 10
0.0
 20
0.0
 30
0.0
 70
     1
  0
VERTEX
  5
163F
  8
SAPA_FOGBAND
 10
58.403051911493961
 20
48.13201525395754
 30
0.0
  0
VERTEX
  5
1640
  8
SAPA_FOGBAND
 10
58.15128810247348
 20
48.199475163267948
 30
0.0
 42
-0.4740571810232144
  0
VERTEX
  5
1641
  8
SAPA_FOGBAND
 10
58.023994240109872
 20
48.481757748906603
 30
0.0
  0
VERTEX
  5
1642
  8
SAPA_FOGBAND
 10
58.644094742868461
 20
49.927963885666493
 30
0.0
 42
-0.2846003776496053
  0
VERTEX
  5
1643
  8
SAPA_FOGBAND
 10
59.09173892132862
 20
50.205220334714447
 30
0.0
  0
VERTEX
  5
1644
  8
SAPA_FOGBAND
 10
60.714364901659238
 20
50.205220334714447
 30
0.0
 42
-0.2846003776496027
  0
VERTEX
  5
1645
  8
SAPA_FOGBAND
 10
61.162009080119397
 20
49.927963885666493
 30
0.0
  0
VERTEX
  5
1646
  8
SAPA_FOGBAND
 10
61.782109582877993
 20
48.481757748906553
 30
0.0
 42
-0.4740571810232332
  0
VERTEX
  5
1647
  8
SAPA_FOGBAND
 10
61.654815720514442
 20
48.199475163267948
 30
0.0
  0
VERTEX
  5
1648
  8
SAPA_FOGBAND
 10
61.403051911493961
 20
48.13201525395754
 30
0.0
  0
VERTEX
  5
1649
  8
SAPA_FOGBAND
 10
61.403051911493961
 20
47.190589837075663
 30
0.0
 42
0.4142135623730951
  0
VERTEX
  5
164A
  8
SAPA_FOGBAND
 10
61.903051911493961
 20
46.690589837075663
 30
0.0
  0
VERTEX
  5
164B
  8
SAPA_FOGBAND
 10
64.415212074875413
 20
46.690589837075599
 30
0.0
 42
-0.4027293761437467
  0
VERTEX
  5
164C
  8
SAPA_FOGBAND
 10
64.714979628473273
 20
46.402397199606298
 30
0.0
  0
VERTEX
  5
164D
  8
SAPA_FOGBAND
 10
65.202819443142701
 20
36.002397199606257
 30
0.0
 42
-0.4257917699693538
  0
VERTEX
  5
164E
  8
SAPA_FOGBAND
 10
64.903051889544841
 20
35.690589837075613
 30
0.0
  0
VERTEX
  5
164F
  8
SAPA_FOGBAND
 10
51.197518230320959
 20
35.690589837075613
 30
0.0
  0
VERTEX
  5
1650
  8
SAPA_FOGBAND
 10
45.594376632594091
 20
36.467124754758231
 30
0.0
 42
-0.322530093016903
  0
VERTEX
  5
1651
  8
SAPA_FOGBAND
 10
44.90305188954482
 20
37.461202059864213
 30
0.0
  0
VERTEX
  5
1652
  8
SAPA_FOGBAND
 10
44.90305188954482
 20
39.69194561630178
 30
0.0
 42
-0.2325311832130604
  0
VERTEX
  5
1653
  8
SAPA_FOGBAND
 10
45.097714646238039
 20
40.087886480383581
 30
0.0
  0
VERTEX
  5
1654
  8
SAPA_FOGBAND
 10
54.264277874145549
 20
46.482471565239102
 30
0.0
 42
-0.1657205760184606
  0
VERTEX
  5
1655
  8
SAPA_FOGBAND
 10
54.874952360759167
 20
46.690589837075663
 30
0.0
  0
VERTEX
  5
1656
  8
SAPA_FOGBAND
 10
57.903051911493961
 20
46.690589837075663
 30
0.0
 42
0.4142135623730951
  0
VERTEX
  5
1657
  8
SAPA_FOGBAND
 10
58.403051911493961
 20
47.190589837075663
 30
0.0
  0
SEQEND
  5
1658
  8
SAPA_FOGBAND
  0
CIRCLE
  5
D60
  8
SAPA_FOGBAND
 10
21.29354927757424
 20
27.61463890285
 30
0.0
 40
0.2549509756796394
  0
INSERT
  5
D61
  8
SAPA_FOGBAND
  6
CONTINUOUS
  2
*U46
 10
0.0
 20
0.0
 30
0.0
1001
ACAD
1002
{
1000
R14_HATCH_DATA
1000
D61
1011
1.0
1021
0.0
1031
0.0
1021
0.0
1031
0.0
1011
0.0
1021
0.0
1031
0.0
1021
1.0
1031
0.0
1011
0.0
1021
0.0
1031
0.0
1021
0.0
1031
1.0
1040
0.0
1010
0.0
1020
0.0
1030
1.0
1000
SOLID
1070
     1
1070
     1
1071
        1
1071
        1
1071
        1
1070
     2
1040
21.29354927757424
1040
27.61463890285
1040
0.2549509756796394
1040
0.0
1040
6.2831853071795862
1070
     1
1071
        1
1005
D60
1070
     0
1070
     1
1071
        1
1040
21.05681037600414
1040
27.696490400178909
1040
0.0
1002
}
  0
POLYLINE
  5
D62
  8
SAPA_FOGBAND
 66
     1
 10
0.0
 20
0.0
 30
0.0
 70
     1
  0
VERTEX
  5
166A
  8
SAPA_FOGBAND
 10
22.19354927757422
 20
24.652207123605479
 30
0.0
 42
0.9999999999999998
  0
VERTEX
  5
166B
  8
SAPA_FOGBAND
 10
20.393549277574269
 20
24.652207123605479
 30
0.0
  0
VERTEX
  5
166C
  8
SAPA_FOGBAND
 10
20.393549277574269
 20
24.052207123605459
 30
0.0
 42
0.9999999999999998
  0
VERTEX
  5
166D
  8
SAPA_FOGBAND
 10
22.19354927757422
 20
24.052207123605459
 30
0.0
  0
SEQEND
  5
166E
  8
SAPA_FOGBAND
  0
POLYLINE
  5
D63
  8
SAPA_FOGBAND
 66
     1
 10
0.0
 20
0.0
 30
0.0
 70
     1
  0
VERTEX
  5
166F
  8
SAPA_FOGBAND
 10
12.66567296940104
 20
29.752207123605501
 30
0.0
 42
0.0775891054856093
  0
VERTEX
  5
1670
  8
SAPA_FOGBAND
 10
16.13245469982359
 20
29.435571139544152
 30
0.0
  0
VERTEX
  5
1671
  8
SAPA_FOGBAND
 10
16.3703441926524
 20
29.652207123605539
 30
0.0
 42
-0.5773502691896298
  0
VERTEX
  5
1672
  8
SAPA_FOGBAND
 10
16.716754354166252
 20
29.652207123605539
 30
0.0
  0
VERTEX
  5
1673
  8
SAPA_FOGBAND
 10
16.954801970897051
 20
29.435297269382492
 30
0.0
  0
VERTEX
  5
1674
  8
SAPA_FOGBAND
 10
17.732296580813681
 20
29.435297269382492
 30
0.0
  0
VERTEX
  5
1675
  8
SAPA_FOGBAND
 10
17.970344192652419
 20
29.652207123605539
 30
0.0
 42
-0.577350269189699
  0
VERTEX
  5
1676
  8
SAPA_FOGBAND
 10
18.316754354166161
 20
29.652207123605539
 30
0.0
  0
VERTEX
  5
1677
  8
SAPA_FOGBAND
 10
18.55480197089696
 20
29.435297269382492
 30
0.0
  0
VERTEX
  5
1678
  8
SAPA_FOGBAND
 10
19.332296580813701
 20
29.435297269382492
 30
0.0
  0
VERTEX
  5
1679
  8
SAPA_FOGBAND
 10
19.570344192652438
 20
29.652207123605539
 30
0.0
 42
-0.577350269189699
  0
VERTEX
  5
167A
  8
SAPA_FOGBAND
 10
19.916754354166191
 20
29.652207123605539
 30
0.0
  0
VERTEX
  5
167B
  8
SAPA_FOGBAND
 10
20.15480197089698
 20
29.435297269382492
 30
0.0
  0
VERTEX
  5
167C
  8
SAPA_FOGBAND
 10
20.93229658081373
 20
29.435297269382492
 30
0.0
  0
VERTEX
  5
167D
  8
SAPA_FOGBAND
 10
21.170344192652351
 20
29.652207123605539
 30
0.0
 42
-0.5773502691896298
  0
VERTEX
  5
167E
  8
SAPA_FOGBAND
 10
21.51675435416621
 20
29.652207123605539
 30
0.0
  0
VERTEX
  5
167F
  8
SAPA_FOGBAND
 10
21.75480197089701
 20
29.435297269382492
 30
0.0
  0
VERTEX
  5
1680
  8
SAPA_FOGBAND
 10
22.53229658081375
 20
29.435297269382492
 30
0.0
  0
VERTEX
  5
1681
  8
SAPA_FOGBAND
 10
22.770344192652381
 20
29.652207123605539
 30
0.0
 42
-0.5773502691896298
  0
VERTEX
  5
1682
  8
SAPA_FOGBAND
 10
23.116754354166229
 20
29.652207123605539
 30
0.0
  0
VERTEX
  5
1683
  8
SAPA_FOGBAND
 10
23.354801970897029
 20
29.435297269382492
 30
0.0
  0
VERTEX
  5
1684
  8
SAPA_FOGBAND
 10
24.13229658497869
 20
29.435297269382492
 30
0.0
  0
VERTEX
  5
1685
  8
SAPA_FOGBAND
 10
24.370344196817431
 20
29.652207123605539
 30
0.0
 42
-0.577350269189699
  0
VERTEX
  5
1686
  8
SAPA_FOGBAND
 10
24.716754358331169
 20
29.652207123605539
 30
0.0
  0
VERTEX
  5
1687
  8
SAPA_FOGBAND
 10
25.516754357886271
 20
28.57887705512104
 30
0.0
 42
-0.1316524987190269
  0
VERTEX
  5
1688
  8
SAPA_FOGBAND
 10
25.54354927757425
 20
28.478877054350338
 30
0.0
  0
VERTEX
  5
1689
  8
SAPA_FOGBAND
 10
25.54354927757436
 20
25.95220712360555
 30
0.0
 42
-0.4142135623730951
  0
VERTEX
  5
168A
  8
SAPA_FOGBAND
 10
25.343549277574311
 20
25.752207123605501
 30
0.0
  0
VERTEX
  5
168B
  8
SAPA_FOGBAND
 10
23.29354927757425
 20
25.752207123605501
 30
0.0
 42
0.4142135623730951
  0
VERTEX
  5
168C
  8
SAPA_FOGBAND
 10
22.79354927757424
 20
25.252207123605501
 30
0.0
  0
VERTEX
  5
168D
  8
SAPA_FOGBAND
 10
22.79354927757424
 20
24.52541220436234
 30
0.0
  0
VERTEX
  5
168E
  8
SAPA_FOGBAND
 10
23.045313086594771
 20
24.457952295051939
 30
0.0
 42
-0.4740571810232869
  0
VERTEX
  5
168F
  8
SAPA_FOGBAND
 10
23.172606948958329
 20
24.175669709413281
 30
0.0
  0
VERTEX
  5
1690
  8
SAPA_FOGBAND
 10
22.5525064461998
 20
22.729463572653518
 30
0.0
 42
-0.2846003776495916
  0
VERTEX
  5
1691
  8
SAPA_FOGBAND
 10
22.104862267739581
 20
22.45220712360555
 30
0.0
  0
VERTEX
  5
1692
  8
SAPA_FOGBAND
 10
20.48223628740903
 20
22.45220712360555
 30
0.0
 42
-0.2846003776495917
  0
VERTEX
  5
1693
  8
SAPA_FOGBAND
 10
20.0345921089488
 20
22.729463572653518
 30
0.0
  0
VERTEX
  5
1694
  8
SAPA_FOGBAND
 10
19.414491606190271
 20
24.175669709413281
 30
0.0
 42
-0.4740571810232869
  0
VERTEX
  5
1695
  8
SAPA_FOGBAND
 10
19.541785468553819
 20
24.457952295051939
 30
0.0
  0
VERTEX
  5
1696
  8
SAPA_FOGBAND
 10
19.79354927757424
 20
24.52541220436234
 30
0.0
  0
VERTEX
  5
1697
  8
SAPA_FOGBAND
 10
19.79354927757424
 20
25.252207123605501
 30
0.0
 42
0.4142135623730951
  0
VERTEX
  5
1698
  8
SAPA_FOGBAND
 10
19.29354927757424
 20
25.752207123605501
 30
0.0
  0
VERTEX
  5
1699
  8
SAPA_FOGBAND
 10
16.243549277574289
 20
25.752207123605501
 30
0.0
 42
0.4142135623730951
  0
VERTEX
  5
169A
  8
SAPA_FOGBAND
 10
16.04354927757424
 20
25.552207123605459
 30
0.0
  0
VERTEX
  5
169B
  8
SAPA_FOGBAND
 10
16.04354927757436
 20
24.652207123605479
 30
0.0
 42
-0.4142135623731784
  0
VERTEX
  5
169C
  8
SAPA_FOGBAND
 10
15.84354927757431
 20
24.45220712360555
 30
0.0
  0
VERTEX
  5
169D
  8
SAPA_FOGBAND
 10
15.143549277574261
 20
24.452207123605429
 30
0.0
 42
-0.4142135623730398
  0
VERTEX
  5
169E
  8
SAPA_FOGBAND
 10
14.84354927757431
 20
24.752207123605501
 30
0.0
  0
VERTEX
  5
169F
  8
SAPA_FOGBAND
 10
14.84354927757431
 20
25.562718900257039
 30
0.0
 42
0.1316524975873973
  0
VERTEX
  5
16A0
  8
SAPA_FOGBAND
 10
14.575600085143151
 20
26.562718900257039
 30
0.0
  0
VERTEX
  5
16A1
  8
SAPA_FOGBAND
 10
9.4127549351027255
 20
29.152286892348972
 30
0.0
 42
-0.7057658529986604
  0
VERTEX
  5
16A2
  8
SAPA_FOGBAND
 10
9.6803481104610682
 20
29.752207123605501
 30
0.0
  0
SEQEND
  5
16A3
  8
SAPA_FOGBAND
  0
VIEWPORT
  5
C4
 67
     1
  8
0
 10
160.5543545598442
 20
116.00969601843509
 30
0.0
 40
404.96977709277462
 41
256.8421457311839
 68
     1
 69
     1
1001
ACAD
1000
MVIEW
1002
{
1070
    16
1010
0.0
1020
0.0
1030
0.0
1010
0.0
1020
0.0
1030
1.0
1040
-1.5707963267948959
1040
256.8421457311839
1040
102.1562485694885
1040
-121.90624046325679
1040
50.0
1040
0.0
1040
0.0
1070
     0
1070
     0
1070
     1
1070
     1
1070
     0
1070
     0
1070
     0
1070
     0
1040
0.0
1040
0.0
1040
0.0
1040
10.0
1040
10.0
1040
10.0
1040
10.0
1070
     0
1002
{
1002
}
1002
}
  0
ENDSEC
  0
EOF
