  0
SECTION
  2
HEADER
  9
$ACADVER
  1
AC1009
  9
$INSBASE
 10
0.0
 20
0.0
 30
0.0
  9
$EXTMIN
 10
-16.173285952478398
 20
28.05170123125027
 30
0.0
  9
$EXTMAX
 10
229.85749409341349
 20
151.081994729152
 30
0.0
  9
$LIMMIN
 10
0.0
 20
0.0
  9
$LIMMAX
 10
790.0
 20
790.0
  9
$ORTHOMODE
 70
     0
  9
$REGENMODE
 70
     1
  9
$FILLMODE
 70
     1
  9
$QTEXTMODE
 70
     0
  9
$MIRRTEXT
 70
     1
  9
$DRAGMODE
 70
     2
  9
$LTSCALE
 40
4.0
  9
$OSMODE
 70
   167
  9
$ATTMODE
 70
     1
  9
$TEXTSIZE
 40
3.5
  9
$TRACEWID
 40
0.05
  9
$TEXTSTYLE
  7
ISO
  9
$CLAYER
  8
0
  9
$CELTYPE
  6
BYLAYER
  9
$CECOLOR
 62
   256
  9
$DIMSCALE
 40
0.0
  9
$DIMASZ
 40
3.0
  9
$DIMEXO
 40
1.5
  9
$DIMDLI
 40
10.0
  9
$DIMRND
 40
0.0
  9
$DIMDLE
 40
0.0
  9
$DIMEXE
 40
1.5
  9
$DIMTP
 40
0.0
  9
$DIMTM
 40
0.0
  9
$DIMTXT
 40
3.0
  9
$DIMCEN
 40
-5.0
  9
$DIMTSZ
 40
0.0
  9
$DIMTOL
 70
     0
  9
$DIMLIM
 70
     0
  9
$DIMTIH
 70
     0
  9
$DIMTOH
 70
     0
  9
$DIMSE1
 70
     0
  9
$DIMSE2
 70
     0
  9
$DIMTAD
 70
     1
  9
$DIMZIN
 70
     8
  9
$DIMBLK
  1

  9
$DIMASO
 70
     1
  9
$DIMSHO
 70
     1
  9
$DIMPOST
  1

  9
$DIMAPOST
  1

  9
$DIMALT
 70
     0
  9
$DIMALTD
 70
     0
  9
$DIMALTF
 40
25.399999999999999
  9
$DIMLFAC
 40
-1.0
  9
$DIMTOFL
 70
     1
  9
$DIMTVP
 40
0.0
  9
$DIMTIX
 70
     0
  9
$DIMSOXD
 70
     0
  9
$DIMSAH
 70
     0
  9
$DIMBLK1
  1

  9
$DIMBLK2
  1

  9
$DIMSTYLE
  2
MASKIN
  9
$DIMCLRD
 70
   256
  9
$DIMCLRE
 70
   256
  9
$DIMCLRT
 70
     2
  9
$DIMTFAC
 40
1.0
  9
$DIMGAP
 40
1.0
  9
$LUNITS
 70
     2
  9
$LUPREC
 70
     8
  9
$SKETCHINC
 40
0.1
  9
$FILLETRAD
 40
0.0
  9
$AUNITS
 70
     0
  9
$AUPREC
 70
     8
  9
$MENU
  1
ACAD
  9
$ELEVATION
 40
0.0
  9
$PELEVATION
 40
0.0
  9
$THICKNESS
 40
0.0
  9
$LIMCHECK
 70
     0
  9
$BLIPMODE
 70
     0
  9
$CHAMFERA
 40
0.0
  9
$CHAMFERB
 40
0.0
  9
$SKPOLY
 70
     0
  9
$TDCREATE
 40
2457435.5345322569
  9
$TDUPDATE
 40
2457666.6179041429
  9
$TDINDWG
 40
0.1125059028
  9
$TDUSRTIMER
 40
0.1125059028
  9
$USRTIMER
 70
     1
  9
$ANGBASE
 50
0.0
  9
$ANGDIR
 70
     0
  9
$PDMODE
 70
     0
  9
$PDSIZE
 40
0.0
  9
$PLINEWID
 40
0.0
  9
$COORDS
 70
     1
  9
$SPLFRAME
 70
     0
  9
$SPLINETYPE
 70
     6
  9
$SPLINESEGS
 70
     8
  9
$ATTDIA
 70
     1
  9
$ATTREQ
 70
     1
  9
$HANDLING
 70
     1
  9
$HANDSEED
  5
153A
  9
$SURFTAB1
 70
     6
  9
$SURFTAB2
 70
     6
  9
$SURFTYPE
 70
     6
  9
$SURFU
 70
     6
  9
$SURFV
 70
     6
  9
$UCSNAME
  2

  9
$UCSORG
 10
0.0
 20
0.0
 30
0.0
  9
$UCSXDIR
 10
1.0
 20
0.0
 30
0.0
  9
$UCSYDIR
 10
0.0
 20
1.0
 30
0.0
  9
$PUCSNAME
  2

  9
$PUCSORG
 10
0.0
 20
0.0
 30
0.0
  9
$PUCSXDIR
 10
1.0
 20
0.0
 30
0.0
  9
$PUCSYDIR
 10
0.0
 20
1.0
 30
0.0
  9
$USERI1
 70
     0
  9
$USERI2
 70
     0
  9
$USERI3
 70
     0
  9
$USERI4
 70
     0
  9
$USERI5
 70
     0
  9
$USERR1
 40
0.0
  9
$USERR2
 40
0.0
  9
$USERR3
 40
0.0
  9
$USERR4
 40
0.0
  9
$USERR5
 40
0.0
  9
$WORLDVIEW
 70
     1
  9
$SHADEDGE
 70
     3
  9
$SHADEDIF
 70
    70
  9
$TILEMODE
 70
     1
  9
$MAXACTVP
 70
    16
  9
$PLIMCHECK
 70
     0
  9
$PEXTMIN
 10
1.0000000000000000E+020
 20
1.0000000000000000E+020
 30
1.0000000000000000E+020
  9
$PEXTMAX
 10
-1.0000000000000000E+020
 20
-1.0000000000000000E+020
 30
-1.0000000000000000E+020
  9
$PLIMMIN
 10
-5.069427490234375
 20
-5.8737497329711914
  9
$PLIMMAX
 10
291.89889526367187
 20
204.0995779037475
  9
$UNITMODE
 70
     0
  9
$VISRETAIN
 70
     1
  9
$PLINEGEN
 70
     0
  9
$PSLTSCALE
 70
     1
  0
ENDSEC
  0
SECTION
  2
TABLES
  0
TABLE
  2
VPORT
 70
     1
  0
VPORT
  2
*ACTIVE
 70
     0
 10
0.0
 20
0.0
 11
1.0
 21
1.0
 12
108.1436241369491
 22
186.9554452122907
 13
0.0
 23
0.0
 14
1.0
 24
1.0
 15
0.0
 25
0.0
 16
0.0
 26
0.0
 36
1.0
 17
0.0
 27
0.0
 37
0.0
 40
183.279552887715
 41
1.6070763500931089
 42
50.0
 43
0.0
 44
0.0
 50
0.0
 51
0.0
 71
     0
 72
   100
 73
     1
 74
     1
 75
     0
 76
     0
 77
     0
 78
     0
  0
ENDTAB
  0
TABLE
  2
LTYPE
 70
    27
  0
LTYPE
  2
CONTINUOUS
 70
     0
  3
Solid line
 72
    65
 73
     0
 40
0.0
  0
LTYPE
  2
BYGG-014279$0$NEWDOT
 70
     0
  3
____ . ____ . ____ . ____ . ____ . ____ . ____
 72
    65
 73
     4
 40
2.0
 49
1.0
 49
-0.5
 49
0.0
 49
-0.5
  0
LTYPE
  2
BYGG-014279$0$ZIGZAG
 70
     0
  3
Zig zag /\/\/\/\/\/\/\/\/\/\/\/\/\/\/\/\/\/\/\/\/\/\/\/
 72
    65
 73
     4
 40
20.32254
 49
0.00254
 49
-5.0800000000000001
 49
-10.16
 49
-5.0800000000000001
  0
LTYPE
  2
BYGG-01482301$0$NEWDOT
 70
     0
  3
____ . ____ . ____ . ____ . ____ . ____ . ____
 72
    65
 73
     4
 40
2.0
 49
1.0
 49
-0.5
 49
0.0
 49
-0.5
  0
LTYPE
  2
BYGG-01482301$0$ZIGZAG
 70
     0
  3
Zig zag /\/\/\/\/\/\/\/\/\/\/\/\/\/\/\/\/\/\/\/\/\/\/\/
 72
    65
 73
     4
 40
20.32254
 49
0.00254
 49
-5.0800000000000001
 49
-10.16
 49
-5.0800000000000001
  0
LTYPE
  2
BYGG-023714$0$NEWDOT
 70
     0
  3
____ . ____ . ____ . ____ . ____ . ____ . ____
 72
    65
 73
     4
 40
2.0
 49
1.0
 49
-0.5
 49
0.0
 49
-0.5
  0
LTYPE
  2
BYGG-023714$0$DASHDOT
 70
     0
  3
__ . __ . __ . __ . __ . __ . __ . __ . __ . __
 72
    65
 73
     4
 40
1.0
 49
0.5
 49
-0.25
 49
0.0
 49
-0.25
  0
LTYPE
  2
BYGG-023714$0$DASHED
 70
     0
  3
__ __ __ __ __ __ __ __ __ __ __ __ __ __ __
 72
    65
 73
     2
 40
0.75
 49
0.5
 49
-0.25
  0
LTYPE
  2
BYGG-023714$0$PHANTOM
 70
     0
  3
Phantom ______  __  __  ______  __  __  ______
 72
    65
 73
     6
 40
63.5
 49
31.75
 49
-6.3499999999999988
 49
6.3499999999999988
 49
-6.3499999999999988
 49
6.3499999999999988
 49
-6.3499999999999988
  0
LTYPE
  2
BYGG-023714$0$ZIGZAG
 70
     0
  3
Zig zag /\/\/\/\/\/\/\/\/\/\/\/\/\/\/\/\/\/\/\/\/\/\/\/
 72
    65
 73
     4
 40
20.32254
 49
0.00254
 49
-5.0800000000000001
 49
-10.16
 49
-5.0800000000000001
  0
LTYPE
  2
BYGG-021480$0$NEWDOT
 70
     0
  3
____ . ____ . ____ . ____ . ____ . ____ . ____
 72
    65
 73
     4
 40
2.0
 49
1.0
 49
-0.5
 49
0.0
 49
-0.5
  0
LTYPE
  2
BYGG-021480$0$DASHDOT
 70
     0
  3
__ . __ . __ . __ . __ . __ . __ . __ . __ . __
 72
    65
 73
     4
 40
1.0
 49
0.5
 49
-0.25
 49
0.0
 49
-0.25
  0
LTYPE
  2
BYGG-021480$0$DASHED
 70
     0
  3
__ __ __ __ __ __ __ __ __ __ __ __ __ __ __
 72
    65
 73
     2
 40
0.75
 49
0.5
 49
-0.25
  0
LTYPE
  2
BYGG-021480$0$PHANTOM
 70
     0
  3
Phantom ______  __  __  ______  __  __  ______
 72
    65
 73
     6
 40
63.5
 49
31.75
 49
-6.3499999999999988
 49
6.3499999999999988
 49
-6.3499999999999988
 49
6.3499999999999988
 49
-6.3499999999999988
  0
LTYPE
  2
BYGG-035293$0$NEWDOT
 70
     0
  3
____ . ____ . ____ . ____ . ____ . ____ . ____
 72
    65
 73
     4
 40
2.0
 49
1.0
 49
-0.5
 49
0.0
 49
-0.5
  0
LTYPE
  2
BYGG-035293$0$DASHDOT
 70
     0
  3
__ . __ . __ . __ . __ . __ . __ . __ . __ . __
 72
    65
 73
     4
 40
1.0
 49
0.5
 49
-0.25
 49
0.0
 49
-0.25
  0
LTYPE
  2
BYGG-035293$0$DASHED
 70
     0
  3
__ __ __ __ __ __ __ __ __ __ __ __ __ __ __
 72
    65
 73
     2
 40
0.75
 49
0.5
 49
-0.25
  0
LTYPE
  2
BYGG-035293$0$PHANTOM
 70
     0
  3
Phantom ______  __  __  ______  __  __  ______
 72
    65
 73
     6
 40
63.5
 49
31.75
 49
-6.3499999999999988
 49
6.3499999999999988
 49
-6.3499999999999988
 49
6.3499999999999988
 49
-6.3499999999999988
  0
LTYPE
  2
BYGG-020805$0$NEWDOT
 70
     0
  3
____ . ____ . ____ . ____ . ____ . ____ . ____
 72
    65
 73
     4
 40
2.0
 49
1.0
 49
-0.5
 49
0.0
 49
-0.5
  0
LTYPE
  2
BYGG-020805$0$DASHDOT
 70
     0
  3
__ . __ . __ . __ . __ . __ . __ . __ . __ . __
 72
    65
 73
     4
 40
1.0
 49
0.5
 49
-0.25
 49
0.0
 49
-0.25
  0
LTYPE
  2
BYGG-020805$0$DASHED
 70
     0
  3
__ __ __ __ __ __ __ __ __ __ __ __ __ __ __
 72
    65
 73
     2
 40
0.75
 49
0.5
 49
-0.25
  0
LTYPE
  2
BYGG-020805$0$PHANTOM
 70
     0
  3
Phantom ______  __  __  ______  __  __  ______
 72
    65
 73
     6
 40
63.5
 49
31.75
 49
-6.3499999999999988
 49
6.3499999999999988
 49
-6.3499999999999988
 49
6.3499999999999988
 49
-6.3499999999999988
  0
LTYPE
  2
BYGG-035302$0$NEWDOT
 70
     0
  3
____ . ____ . ____ . ____ . ____ . ____ . ____
 72
    65
 73
     4
 40
2.0
 49
1.0
 49
-0.5
 49
0.0
 49
-0.5
  0
LTYPE
  2
BYGG-035302$0$DASHDOT
 70
     0
  3
__ . __ . __ . __ . __ . __ . __ . __ . __ . __
 72
    65
 73
     4
 40
1.0
 49
0.5
 49
-0.25
 49
0.0
 49
-0.25
  0
LTYPE
  2
BYGG-035302$0$DASHED
 70
     0
  3
__ __ __ __ __ __ __ __ __ __ __ __ __ __ __
 72
    65
 73
     2
 40
0.75
 49
0.5
 49
-0.25
  0
LTYPE
  2
BYGG-035302$0$PHANTOM
 70
     0
  3
Phantom ______  __  __  ______  __  __  ______
 72
    65
 73
     6
 40
63.5
 49
31.75
 49
-6.3499999999999988
 49
6.3499999999999988
 49
-6.3499999999999988
 49
6.3499999999999988
 49
-6.3499999999999988
  0
LTYPE
  2
BYGG-035294$0$PHANTOM2
 70
     0
  3
Phantom (.5x) ___ _ _ ___ _ _ ___ _ _ ___ _ _
 72
    65
 73
     6
 40
1.25
 49
0.625
 49
-0.125
 49
0.125
 49
-0.125
 49
0.125
 49
-0.125
  0
ENDTAB
  0
TABLE
  2
LAYER
 70
   166
  0
LAYER
  2
0
 70
     0
 62
     7
  6
CONTINUOUS
  0
LAYER
  2
SAPA_FYLLNING
 70
     0
 62
     4
  6
CONTINUOUS
  0
LAYER
  2
SAPA_ISOLATOR
 70
     0
 62
     4
  6
CONTINUOUS
  0
LAYER
  2
SAPA_GLAS
 70
     0
 62
     4
  6
CONTINUOUS
  0
LAYER
  2
SAPA_FOGBAND
 70
     0
 62
     2
  6
CONTINUOUS
  0
LAYER
  2
SAPA_PROFIL
 70
     0
 62
     7
  6
CONTINUOUS
  0
ENDTAB
  0
TABLE
  2
STYLE
 70
    30
  0
STYLE
  2
STANDARD
 70
     0
 40
0.0
 41
1.0
 50
0.0
 71
     0
 42
0.2
  3
txt
  4

  0
STYLE
  2
ISO
 70
     0
 40
0.0
 41
1.0
 50
0.0
 71
     0
 42
3.5
  3
txt
  4

  0
STYLE
  2

 70
     1
 40
0.0
 41
1.0
 50
0.0
 71
     0
 42
0.2
  3
ltypeshp.shx
  4

  0
STYLE
  2
BYGG-022681$0$STANDARD
 70
     0
 40
0.0
 41
1.0
 50
0.0
 71
     0
 42
0.2
  3
txt
  4

  0
STYLE
  2
BYGG-022681$0$ISO
 70
     0
 40
0.0
 41
1.0
 50
0.0
 71
     0
 42
3.5
  3
txt
  4

  0
STYLE
  2
BYGG-014306$0$STANDARD
 70
     0
 40
0.0
 41
1.0
 50
0.0
 71
     0
 42
0.2
  3
txt
  4

  0
STYLE
  2
BYGG-021582$0$STANDARD
 70
     0
 40
0.0
 41
1.0
 50
0.0
 71
     0
 42
0.2
  3
txt
  4

  0
STYLE
  2
BYGG-021582$0$ISO
 70
     0
 40
0.0
 41
1.0
 50
0.0
 71
     0
 42
3.5
  3
isocp3.shx
  4

  0
STYLE
  2
BYGG-014279$0$STANDARD
 70
     0
 40
0.0
 41
1.0
 50
0.0
 71
     0
 42
0.2
  3
TXT.shx
  4

  0
STYLE
  2
BYGG-014279$0$ISO
 70
     0
 40
0.0
 41
1.0
 50
0.0
 71
     0
 42
3.5
  3
iso
  4

  0
STYLE
  2
BYGG-021667$0$STANDARD
 70
     0
 40
0.0
 41
1.0
 50
0.0
 71
     0
 42
0.2
  3
txt
  4

  0
STYLE
  2
BYGG-021667$0$ISO
 70
     0
 40
0.0
 41
1.0
 50
0.0
 71
     0
 42
3.5
  3
isocp3.shx
  4

  0
STYLE
  2
BYGG-01482301$0$STANDARD
 70
     0
 40
0.0
 41
1.0
 50
0.0
 71
     0
 42
0.2
  3
txt
  4

  0
STYLE
  2
BYGG-01482301$0$ISO
 70
     0
 40
0.0
 41
1.0
 50
0.0
 71
     0
 42
3.5
  3
isocp3.shx
  4

  0
STYLE
  2
BYGG-035294$0$STANDARD
 70
     0
 40
0.0
 41
1.0
 50
0.0
 71
     0
 42
0.2
  3
txt
  4

  0
STYLE
  2
BYGG-035294$0$ISO
 70
     0
 40
0.0
 41
1.0
 50
0.0
 71
     0
 42
3.5
  3
txt
  4

  0
STYLE
  2
BYGG-035294$0$ANNOTATIVE
 70
     0
 40
0.0
 41
1.0
 50
0.0
 71
     0
 42
0.2
  3
txt
  4

  0
STYLE
  2
BYGG-021480$0$STANDARD
 70
     0
 40
0.0
 41
1.0
 50
0.0
 71
     0
 42
0.2
  3
txt
  4

  0
STYLE
  2
BYGG-021480$0$ISO
 70
     0
 40
0.0
 41
1.0
 50
0.0
 71
     0
 42
3.5
  3
txt
  4

  0
STYLE
  2
BYGG-021480$0$ROMANS
 70
     0
 40
0.0
 41
1.0
 50
0.0
 71
     0
 42
3.5
  3
romans.shx
  4

  0
STYLE
  2
BYGG-035293$0$STANDARD
 70
     0
 40
0.0
 41
1.0
 50
0.0
 71
     0
 42
0.2
  3
txt
  4

  0
STYLE
  2
BYGG-035293$0$ISO
 70
     0
 40
0.0
 41
1.0
 50
0.0
 71
     0
 42
3.5
  3
txt
  4

  0
STYLE
  2
BYGG-020805$0$STANDARD
 70
     0
 40
0.0
 41
1.0
 50
0.0
 71
     0
 42
0.2
  3
txt
  4

  0
STYLE
  2
BYGG-020805$0$ISO
 70
     0
 40
0.0
 41
1.0
 50
0.0
 71
     0
 42
3.5
  3
txt
  4

  0
STYLE
  2
BYGG-014117$0$STANDARD
 70
     0
 40
0.0
 41
1.0
 50
0.0
 71
     0
 42
0.2
  3
txt
  4

  0
STYLE
  2
BYGG-014117$0$ISO
 70
     0
 40
0.0
 41
1.0
 50
0.0
 71
     0
 42
3.5
  3
isocp3.shx
  4

  0
STYLE
  2
BYGG-023714$0$STANDARD
 70
     0
 40
0.0
 41
1.0
 50
0.0
 71
     0
 42
0.2
  3
txt
  4

  0
STYLE
  2
BYGG-023714$0$ISO
 70
     0
 40
0.0
 41
1.0
 50
0.0
 71
     0
 42
3.5
  3
txt
  4

  0
STYLE
  2
BYGG-035302$0$STANDARD
 70
     0
 40
0.0
 41
1.0
 50
0.0
 71
     0
 42
0.2
  3
txt
  4

  0
STYLE
  2
BYGG-035302$0$ISO
 70
     0
 40
0.0
 41
1.0
 50
0.0
 71
     0
 42
3.5
  3
txt
  4

  0
ENDTAB
  0
TABLE
  2
VIEW
 70
     0
  0
ENDTAB
  0
TABLE
  2
UCS
 70
     0
  0
ENDTAB
  0
TABLE
  2
APPID
 70
    27
  0
APPID
  2
ACAD
 70
     0
  0
APPID
  2
ACAD_DSTYLE_DIMTEXT_FILL
 70
     0
  0
APPID
  2
ACAD_DSTYLE_DIMEXT_LENGTH
 70
     0
  0
APPID
  2
ACAD_DSTYLE_DIMEXT_ENABLED
 70
     0
  0
APPID
  2
ACAD_DSTYLE_DIM_LINETYPE
 70
     0
  0
APPID
  2
ACAD_DSTYLE_DIM_EXT1_LINETYPE
 70
     0
  0
APPID
  2
ACAD_DSTYLE_DIM_EXT2_LINETYPE
 70
     0
  0
APPID
  2
ACAD_DSTYLE_DIMJOGGED_JOGA
 70
     0
  0
APPID
  2
ACAD_DSTYLE_DIMARC_LENGTH_
 70
     0
  0
APPID
  2
ACAD_PSEXT
 70
     0
  0
APPID
  2
ACAD_MLEADERVER
 70
     0
  0
APPID
  2
ACAD_NAV_VCDISPLAY
 70
     0
  0
APPID
  2
AMG_ARCHIVE11
 70
     0
  0
APPID
  2
ACADANNOTATIVE
 70
     0
  0
APPID
  2
ACAD_EXEMPT_FROM_CAD_STANDARDS
 70
     0
  0
APPID
  2
ACAECLAYERSTANDARD
 70
     0
  0
APPID
  2
DCO15
 70
     0
  0
APPID
  2
ACDBDYNAMICBLOCKGUID
 70
     0
  0
APPID
  2
ACDBBLOCKREPETAG
 70
     0
  0
APPID
  2
ACAD_DSTYLE_DIMJAG
 70
     0
  0
APPID
  2
ACAD_DSTYLE_DIMBREAK
 70
     0
  0
APPID
  2
ACAD_DSTYLE_DIMTALN
 70
     0
  0
APPID
  2
AME_SOL
 70
     0
  0
APPID
  2
ACCMTRANSPARENCY
 70
     0
  0
APPID
  2
ACAUTHENVIRON
 70
     0
  0
APPID
  2
ACDBDYNAMICBLOCKTRUENAME
 70
     0
  0
APPID
  2
AEC_XDATA_BOUND_SPACE
 70
     0
  0
ENDTAB
  0
TABLE
  2
DIMSTYLE
 70
    26
  0
DIMSTYLE
  2
STANDARD
 70
     0
  3

  4

  5

  6

  7

 40
1.0
 41
0.18
 42
0.0625
 43
0.38
 44
0.18
 45
0.0
 46
0.0
 47
0.0
 48
0.0
140
0.18
141
0.09
142
0.0
143
25.399999999999999
144
1.0
145
0.0
146
1.0
147
0.09
 71
     0
 72
     0
 73
     1
 74
     1
 75
     0
 76
     0
 77
     0
 78
     0
170
     0
171
     2
172
     0
173
     0
174
     0
175
     0
176
     0
177
     0
178
     0
  0
DIMSTYLE
  2
MASKIN
 70
     0
  3

  4

  5

  6

  7

 40
0.0
 41
3.0
 42
1.5
 43
10.0
 44
1.5
 45
0.0
 46
0.0
 47
0.0
 48
0.0
140
3.0
141
-5.0
142
0.0
143
25.399999999999999
144
-1.0
145
0.0
146
1.0
147
1.0
 71
     0
 72
     0
 73
     0
 74
     0
 75
     0
 76
     0
 77
     1
 78
     8
170
     0
171
     0
172
     1
173
     0
174
     0
175
     0
176
   256
177
   256
178
     2
  0
DIMSTYLE
  2
BYGG-022681$0$STANDARD
 70
     0
  3

  4

  5

  6

  7

 40
1.0
 41
0.18
 42
0.0625
 43
0.38
 44
0.18
 45
0.0
 46
0.0
 47
0.0
 48
0.0
140
0.18
141
0.09
142
0.0
143
25.399999999999999
144
1.0
145
0.0
146
1.0
147
0.09
 71
     0
 72
     0
 73
     1
 74
     1
 75
     0
 76
     0
 77
     0
 78
     0
170
     0
171
     2
172
     0
173
     0
174
     0
175
     0
176
     0
177
     0
178
     0
  0
DIMSTYLE
  2
BYGG-022681$0$MASKIN
 70
     0
  3

  4

  5

  6

  7

 40
0.0
 41
3.0
 42
1.5
 43
10.0
 44
1.5
 45
0.0
 46
0.0
 47
0.0
 48
0.0
140
3.0
141
-5.0
142
0.0
143
25.399999999999999
144
-1.0
145
0.0
146
1.0
147
1.0
 71
     0
 72
     0
 73
     0
 74
     0
 75
     0
 76
     0
 77
     1
 78
     8
170
     0
171
     0
172
     1
173
     0
174
     0
175
     0
176
   256
177
   256
178
     2
  0
DIMSTYLE
  2
BYGG-014306$0$STANDARD
 70
     0
  3

  4

  5

  6

  7

 40
1.0
 41
0.18
 42
0.0625
 43
0.38
 44
0.18
 45
0.0
 46
0.0
 47
0.0
 48
0.0
140
0.18
141
0.09
142
0.0
143
25.399999999999999
144
1.0
145
0.0
146
1.0
147
0.09
 71
     0
 72
     0
 73
     1
 74
     1
 75
     0
 76
     0
 77
     0
 78
     0
170
     0
171
     2
172
     0
173
     0
174
     0
175
     0
176
     0
177
     0
178
     0
  0
DIMSTYLE
  2
BYGG-021582$0$MASKIN
 70
     0
  3

  4

  5

  6

  7

 40
0.0
 41
3.0
 42
1.5
 43
10.0
 44
1.5
 45
0.0
 46
0.0
 47
0.0
 48
0.0
140
3.0
141
-5.0
142
0.0
143
25.399999999999999
144
-1.0
145
0.0
146
1.0
147
1.0
 71
     0
 72
     0
 73
     0
 74
     0
 75
     0
 76
     0
 77
     1
 78
     8
170
     0
171
     0
172
     1
173
     0
174
     0
175
     0
176
   256
177
   256
178
   256
  0
DIMSTYLE
  2
BYGG-014279$0$STANDARD
 70
     0
  3

  4

  5

  6

  7

 40
1.0
 41
0.18
 42
0.0625
 43
0.38
 44
0.18
 45
0.0
 46
0.0
 47
0.0
 48
0.0
140
0.18
141
0.09
142
0.0
143
25.399999999999999
144
1.0
145
0.0
146
1.0
147
0.09
 71
     0
 72
     0
 73
     1
 74
     1
 75
     0
 76
     0
 77
     0
 78
     0
170
     0
171
     2
172
     0
173
     0
174
     0
175
     0
176
     0
177
     0
178
     0
  0
DIMSTYLE
  2
BYGG-014279$0$MASKIN
 70
     0
  3

  4

  5

  6

  7

 40
0.0
 41
3.0
 42
1.5
 43
10.0
 44
1.5
 45
0.0
 46
0.0
 47
0.0
 48
0.0
140
3.0
141
-5.0
142
0.0
143
25.399999999999999
144
-1.0
145
0.0
146
1.0
147
1.0
 71
     0
 72
     0
 73
     0
 74
     1
 75
     0
 76
     0
 77
     1
 78
     8
170
     0
171
     0
172
     1
173
     0
174
     0
175
     0
176
   256
177
   256
178
     2
  0
DIMSTYLE
  2
BYGG-021667$0$MASKIN
 70
     0
  3

  4

  5

  6

  7

 40
0.0
 41
3.0
 42
1.5
 43
10.0
 44
1.5
 45
0.0
 46
0.0
 47
0.0
 48
0.0
140
3.0
141
-5.0
142
0.0
143
25.399999999999999
144
-1.0
145
0.0
146
1.0
147
1.0
 71
     0
 72
     0
 73
     0
 74
     0
 75
     0
 76
     0
 77
     1
 78
     8
170
     0
171
     0
172
     1
173
     0
174
     0
175
     0
176
   256
177
   256
178
   256
  0
DIMSTYLE
  2
BYGG-01482301$0$STANDARD
 70
     0
  3

  4

  5

  6

  7

 40
1.0
 41
0.18
 42
0.0625
 43
0.38
 44
0.18
 45
0.0
 46
0.0
 47
0.0
 48
0.0
140
0.18
141
0.09
142
0.0
143
25.399999999999999
144
1.0
145
0.0
146
1.0
147
0.09
 71
     0
 72
     0
 73
     1
 74
     1
 75
     0
 76
     0
 77
     0
 78
     0
170
     0
171
     2
172
     0
173
     0
174
     0
175
     0
176
     0
177
     0
178
     0
  0
DIMSTYLE
  2
BYGG-01482301$0$MASKIN
 70
     0
  3

  4

  5

  6

  7

 40
0.0
 41
3.0
 42
1.5
 43
10.0
 44
1.5
 45
0.0
 46
0.0
 47
0.0
 48
0.0
140
3.0
141
-5.0
142
0.0
143
25.399999999999999
144
-1.0
145
0.0
146
1.0
147
1.0
 71
     0
 72
     0
 73
     0
 74
     1
 75
     0
 76
     0
 77
     1
 78
     8
170
     0
171
     0
172
     1
173
     0
174
     0
175
     0
176
   256
177
   256
178
     2
  0
DIMSTYLE
  2
BYGG-035294$0$STANDARD
 70
     0
  3

  4

  5

  6

  7

 40
1.0
 41
0.18
 42
0.0625
 43
0.38
 44
0.18
 45
0.0
 46
0.0
 47
0.0
 48
0.0
140
0.18
141
0.09
142
0.0
143
25.399999999999999
144
1.0
145
0.0
146
1.0
147
0.09
 71
     0
 72
     0
 73
     1
 74
     1
 75
     0
 76
     0
 77
     0
 78
     0
170
     0
171
     2
172
     0
173
     0
174
     0
175
     0
176
     0
177
     0
178
     0
  0
DIMSTYLE
  2
BYGG-035294$0$MASKIN
 70
     0
  3

  4

  5

  6

  7

 40
0.0
 41
3.0
 42
1.5
 43
10.0
 44
1.5
 45
0.0
 46
0.0
 47
0.0
 48
0.0
140
3.0
141
-5.0
142
0.0
143
25.399999999999999
144
-1.0
145
0.0
146
1.0
147
1.0
 71
     0
 72
     0
 73
     0
 74
     0
 75
     0
 76
     0
 77
     1
 78
     8
170
     0
171
     0
172
     1
173
     0
174
     0
175
     0
176
   256
177
   256
178
     2
  0
DIMSTYLE
  2
BYGG-035294$0$ANNOTATIVE
 70
     0
  3

  4

  5

  6

  7

 40
1.0
 41
0.18
 42
0.0625
 43
0.38
 44
0.18
 45
0.0
 46
0.0
 47
0.0
 48
0.0
140
0.18
141
0.09
142
0.0
143
25.399999999999999
144
1.0
145
0.0
146
1.0
147
0.09
 71
     0
 72
     0
 73
     1
 74
     1
 75
     0
 76
     0
 77
     0
 78
     0
170
     0
171
     2
172
     0
173
     0
174
     0
175
     0
176
     0
177
     0
178
     0
  0
DIMSTYLE
  2
BYGG-021480$0$STANDARD
 70
     0
  3

  4

  5

  6

  7

 40
1.0
 41
0.18
 42
0.0625
 43
0.38
 44
0.18
 45
0.0
 46
0.0
 47
0.0
 48
0.0
140
0.18
141
0.09
142
0.0
143
25.399999999999999
144
1.0
145
0.0
146
1.0
147
0.09
 71
     0
 72
     0
 73
     1
 74
     1
 75
     0
 76
     0
 77
     0
 78
     0
170
     0
171
     2
172
     0
173
     0
174
     0
175
     0
176
     0
177
     0
178
     0
  0
DIMSTYLE
  2
BYGG-021480$0$MASKIN
 70
     0
  3

  4

  5

  6

  7

 40
0.0
 41
3.0
 42
1.5
 43
10.0
 44
1.5
 45
0.0
 46
0.0
 47
0.0
 48
0.0
140
3.0
141
-5.0
142
0.0
143
25.399999999999999
144
-1.0
145
0.0
146
1.0
147
1.0
 71
     0
 72
     0
 73
     0
 74
     0
 75
     0
 76
     0
 77
     1
 78
     8
170
     0
171
     0
172
     1
173
     0
174
     0
175
     0
176
   256
177
   256
178
     2
  0
DIMSTYLE
  2
BYGG-021480$0$PRIMO_2_5-1
 70
     0
  3

  4

  5

  6

  7

 40
0.4
 41
3.0
 42
1.0
 43
5.0
 44
1.0
 45
0.0
 46
0.0
 47
0.0
 48
0.0
140
3.0
141
3.0
142
0.0
143
25.399999999999999
144
1.0
145
0.0
146
1.0
147
1.0
 71
     0
 72
     0
 73
     0
 74
     0
 75
     0
 76
     0
 77
     1
 78
     8
170
     0
171
     2
172
     0
173
     0
174
     0
175
     0
176
   256
177
   256
178
     6
  0
DIMSTYLE
  2
BYGG-035293$0$STANDARD
 70
     0
  3

  4

  5

  6

  7

 40
1.0
 41
0.18
 42
0.0625
 43
0.38
 44
0.18
 45
0.0
 46
0.0
 47
0.0
 48
0.0
140
0.18
141
0.09
142
0.0
143
25.399999999999999
144
1.0
145
0.0
146
1.0
147
0.09
 71
     0
 72
     0
 73
     1
 74
     1
 75
     0
 76
     0
 77
     0
 78
     0
170
     0
171
     2
172
     0
173
     0
174
     0
175
     0
176
     0
177
     0
178
     0
  0
DIMSTYLE
  2
BYGG-035293$0$MASKIN
 70
     0
  3

  4

  5

  6

  7

 40
0.0
 41
3.0
 42
1.5
 43
10.0
 44
1.5
 45
0.0
 46
0.0
 47
0.0
 48
0.0
140
3.0
141
-5.0
142
0.0
143
25.399999999999999
144
-1.0
145
0.0
146
1.0
147
1.0
 71
     0
 72
     0
 73
     0
 74
     0
 75
     0
 76
     0
 77
     1
 78
     8
170
     0
171
     0
172
     1
173
     0
174
     0
175
     0
176
   256
177
   256
178
     2
  0
DIMSTYLE
  2
BYGG-020805$0$STANDARD
 70
     0
  3

  4

  5

  6

  7

 40
1.0
 41
0.18
 42
0.0625
 43
0.38
 44
0.18
 45
0.0
 46
0.0
 47
0.0
 48
0.0
140
0.18
141
0.09
142
0.0
143
25.399999999999999
144
1.0
145
0.0
146
1.0
147
0.09
 71
     0
 72
     0
 73
     1
 74
     1
 75
     0
 76
     0
 77
     0
 78
     0
170
     0
171
     2
172
     0
173
     0
174
     0
175
     0
176
     0
177
     0
178
     0
  0
DIMSTYLE
  2
BYGG-020805$0$MASKIN
 70
     0
  3

  4

  5

  6

  7

 40
0.0
 41
3.0
 42
1.5
 43
10.0
 44
1.5
 45
0.0
 46
0.0
 47
0.0
 48
0.0
140
3.0
141
-5.0
142
0.0
143
25.399999999999999
144
-1.0
145
0.0
146
1.0
147
1.0
 71
     0
 72
     0
 73
     0
 74
     0
 75
     0
 76
     0
 77
     1
 78
     8
170
     0
171
     0
172
     1
173
     0
174
     0
175
     0
176
   256
177
   256
178
     2
  0
DIMSTYLE
  2
BYGG-014117$0$MASKIN
 70
     0
  3

  4

  5

  6

  7

 40
0.0
 41
3.0
 42
1.5
 43
10.0
 44
1.5
 45
0.0
 46
0.0
 47
0.0
 48
0.0
140
3.0
141
-5.0
142
0.0
143
25.399999999999999
144
-1.0
145
0.0
146
1.0
147
1.0
 71
     0
 72
     0
 73
     0
 74
     0
 75
     0
 76
     0
 77
     1
 78
     8
170
     0
171
     0
172
     1
173
     0
174
     0
175
     0
176
   256
177
   256
178
   256
  0
DIMSTYLE
  2
BYGG-023714$0$STANDARD
 70
     0
  3

  4

  5

  6

  7

 40
1.0
 41
0.18
 42
0.0625
 43
0.38
 44
0.18
 45
0.0
 46
0.0
 47
0.0
 48
0.0
140
0.18
141
0.09
142
0.0
143
25.399999999999999
144
1.0
145
0.0
146
1.0
147
0.09
 71
     0
 72
     0
 73
     1
 74
     1
 75
     0
 76
     0
 77
     0
 78
     0
170
     0
171
     2
172
     0
173
     0
174
     0
175
     0
176
     0
177
     0
178
     0
  0
DIMSTYLE
  2
BYGG-023714$0$MASKIN
 70
     0
  3

  4

  5

  6

  7

 40
0.0
 41
3.0
 42
1.5
 43
10.0
 44
1.5
 45
0.0
 46
0.0
 47
0.0
 48
0.0
140
3.0
141
-5.0
142
0.0
143
25.399999999999999
144
-1.0
145
0.0
146
1.0
147
1.0
 71
     0
 72
     0
 73
     0
 74
     0
 75
     0
 76
     0
 77
     1
 78
     8
170
     0
171
     0
172
     1
173
     0
174
     0
175
     0
176
   256
177
   256
178
     2
  0
DIMSTYLE
  2
BYGG-035302$0$STANDARD
 70
     0
  3

  4

  5

  6

  7

 40
1.0
 41
0.18
 42
0.0625
 43
0.38
 44
0.18
 45
0.0
 46
0.0
 47
0.0
 48
0.0
140
0.18
141
0.09
142
0.0
143
25.399999999999999
144
1.0
145
0.0
146
1.0
147
0.09
 71
     0
 72
     0
 73
     1
 74
     1
 75
     0
 76
     0
 77
     0
 78
     0
170
     0
171
     2
172
     0
173
     0
174
     0
175
     0
176
     0
177
     0
178
     0
  0
DIMSTYLE
  2
BYGG-035302$0$MASKIN
 70
     0
  3

  4

  5

  6

  7

 40
0.0
 41
3.0
 42
1.5
 43
10.0
 44
1.5
 45
0.0
 46
0.0
 47
0.0
 48
0.0
140
3.0
141
-5.0
142
0.0
143
25.399999999999999
144
-1.0
145
0.0
146
1.0
147
1.0
 71
     0
 72
     0
 73
     0
 74
     0
 75
     0
 76
     0
 77
     1
 78
     8
170
     0
171
     0
172
     1
173
     0
174
     0
175
     0
176
   256
177
   256
178
     2
  0
ENDTAB
  0
ENDSEC
  0
SECTION
  2
BLOCKS
  0
BLOCK
  8
0
  2
$MODEL_SPACE
 70
     0
 10
0.0
 20
0.0
 30
0.0
  3
$MODEL_SPACE
  1

  0
ENDBLK
  5
37
  8
0
  0
BLOCK
 67
     1
  8
0
  2
$PAPER_SPACE
 70
     0
 10
0.0
 20
0.0
 30
0.0
  3
$PAPER_SPACE
  1

  0
ENDBLK
  5
35
 67
     1
  8
0
  0
BLOCK
  8
0
  2
*U33
 70
     1
 10
0.0
 20
0.0
 30
0.0
  3
*U33
  1

  0
SOLID
  5
12C1
  8
SAPA_FOGBAND
  6
CONTINUOUS
 10
22.025283841427498
 20
94.840598643532388
 30
0.0
 11
21.845006277654299
 21
94.765925231625957
 31
0.0
 12
22.20556140520069
 22
94.765925231625957
 32
0.0
 13
22.20556140520069
 23
94.765925231625957
 33
0.0
210
0.0
220
0.0
230
1.0
  0
SOLID
  5
12C2
  8
SAPA_FOGBAND
  6
CONTINUOUS
 10
21.845006277654299
 20
94.765925231625957
 30
0.0
 11
21.77033286574785
 21
94.585647667852754
 31
0.0
 12
22.280234817107139
 22
94.585647667852754
 32
0.0
 13
22.280234817107139
 23
94.585647667852754
 33
0.0
210
0.0
220
0.0
230
1.0
  0
SOLID
  5
12C3
  8
SAPA_FOGBAND
  6
CONTINUOUS
 10
-21.845006277654299
 20
94.765925231625957
 30
0.0
 11
-22.20556140520069
 21
94.765925231625957
 31
0.0
 12
-22.280234817107139
 22
94.585647667852754
 32
0.0
 13
-22.280234817107139
 23
94.585647667852754
 33
0.0
210
0.0
220
0.0
230
-1.0
  0
SOLID
  5
12C4
  8
SAPA_FOGBAND
  6
CONTINUOUS
 10
-21.845006277654299
 20
94.405370104079566
 30
0.0
 11
-22.20556140520069
 21
94.405370104079566
 31
0.0
 12
-22.025283841427498
 22
94.33069669217312
 32
0.0
 13
-22.025283841427498
 23
94.33069669217312
 33
0.0
210
0.0
220
0.0
230
-1.0
  0
SOLID
  5
12C5
  8
SAPA_FOGBAND
  6
CONTINUOUS
 10
21.77033286574785
 20
94.585647667852754
 30
0.0
 11
21.845006277654299
 21
94.405370104079566
 31
0.0
 12
22.20556140520069
 22
94.405370104079566
 32
0.0
 13
22.20556140520069
 23
94.405370104079566
 33
0.0
210
0.0
220
0.0
230
1.0
  0
SOLID
  5
12C6
  8
SAPA_FOGBAND
  6
CONTINUOUS
 10
-21.77033286574785
 20
94.585647667852754
 30
0.0
 11
-22.280234817107139
 21
94.585647667852754
 31
0.0
 12
-22.20556140520069
 22
94.405370104079566
 32
0.0
 13
-22.20556140520069
 23
94.405370104079566
 33
0.0
210
0.0
220
0.0
230
-1.0
  0
LINE
  5
12C7
  8
SAPA_FOGBAND
  6
CONTINUOUS
 10
22.025283841427498
 20
94.840598643532388
 30
0.0
 11
21.845006277654299
 21
94.765925231625957
 31
0.0
  0
LINE
  5
12C8
  8
SAPA_FOGBAND
  6
CONTINUOUS
 10
22.20556140520069
 20
94.765925231625957
 30
0.0
 11
22.025283841427498
 21
94.840598643532388
 31
0.0
  0
LINE
  5
12C9
  8
SAPA_FOGBAND
  6
CONTINUOUS
 10
21.845006277654299
 20
94.765925231625957
 30
0.0
 11
21.77033286574785
 21
94.585647667852754
 31
0.0
  0
LINE
  5
12CA
  8
SAPA_FOGBAND
  6
CONTINUOUS
 10
22.20556140520069
 20
94.765925231625957
 30
0.0
 11
22.280234817107139
 21
94.585647667852754
 31
0.0
  0
LINE
  5
12CB
  8
SAPA_FOGBAND
  6
CONTINUOUS
 10
22.20556140520069
 20
94.405370104079566
 30
0.0
 11
22.025283841427498
 21
94.33069669217312
 31
0.0
  0
LINE
  5
12CC
  8
SAPA_FOGBAND
  6
CONTINUOUS
 10
22.025283841427498
 20
94.33069669217312
 30
0.0
 11
21.845006277654299
 21
94.405370104079566
 31
0.0
  0
LINE
  5
12CD
  8
SAPA_FOGBAND
  6
CONTINUOUS
 10
21.77033286574785
 20
94.585647667852754
 30
0.0
 11
21.845006277654299
 21
94.405370104079566
 31
0.0
  0
LINE
  5
12CE
  8
SAPA_FOGBAND
  6
CONTINUOUS
 10
22.280234817107139
 20
94.585647667852754
 30
0.0
 11
22.20556140520069
 21
94.405370104079566
 31
0.0
  0
ENDBLK
  5
12D0
  8
0
  0
BLOCK
  8
0
  2
*U34
 70
     1
 10
0.0
 20
0.0
 30
0.0
  3
*U34
  1

  0
SOLID
  5
13AC
  8
SAPA_FOGBAND
  6
CONTINUOUS
 10
21.6343852068252
 20
57.45586453009625
 30
0.0
 11
21.454107643052001
 21
57.381191118189811
 31
0.0
 12
21.8146627705984
 22
57.381191118189811
 32
0.0
 13
21.8146627705984
 23
57.381191118189811
 33
0.0
210
0.0
220
0.0
230
1.0
  0
SOLID
  5
13AD
  8
SAPA_FOGBAND
  6
CONTINUOUS
 10
21.454107643052001
 20
57.381191118189811
 30
0.0
 11
21.37943423114557
 21
57.200913554416609
 31
0.0
 12
21.889336182504842
 22
57.200913554416609
 32
0.0
 13
21.889336182504842
 23
57.200913554416609
 33
0.0
210
0.0
220
0.0
230
1.0
  0
SOLID
  5
13AE
  8
SAPA_FOGBAND
  6
CONTINUOUS
 10
-21.454107643052001
 20
57.381191118189811
 30
0.0
 11
-21.8146627705984
 21
57.381191118189811
 31
0.0
 12
-21.889336182504842
 22
57.200913554416609
 32
0.0
 13
-21.889336182504842
 23
57.200913554416609
 33
0.0
210
0.0
220
0.0
230
-1.0
  0
SOLID
  5
13AF
  8
SAPA_FOGBAND
  6
CONTINUOUS
 10
-21.454107643052001
 20
57.020635990643413
 30
0.0
 11
-21.8146627705984
 21
57.020635990643413
 31
0.0
 12
-21.6343852068252
 22
56.945962578736967
 32
0.0
 13
-21.6343852068252
 23
56.945962578736967
 33
0.0
210
0.0
220
0.0
230
-1.0
  0
SOLID
  5
13B0
  8
SAPA_FOGBAND
  6
CONTINUOUS
 10
21.37943423114557
 20
57.200913554416609
 30
0.0
 11
21.454107643052001
 21
57.020635990643413
 31
0.0
 12
21.8146627705984
 22
57.020635990643413
 32
0.0
 13
21.8146627705984
 23
57.020635990643413
 33
0.0
210
0.0
220
0.0
230
1.0
  0
SOLID
  5
13B1
  8
SAPA_FOGBAND
  6
CONTINUOUS
 10
-21.37943423114557
 20
57.200913554416609
 30
0.0
 11
-21.889336182504842
 21
57.200913554416609
 31
0.0
 12
-21.8146627705984
 22
57.020635990643413
 32
0.0
 13
-21.8146627705984
 23
57.020635990643413
 33
0.0
210
0.0
220
0.0
230
-1.0
  0
LINE
  5
13B2
  8
SAPA_FOGBAND
  6
CONTINUOUS
 10
21.6343852068252
 20
57.45586453009625
 30
0.0
 11
21.454107643052001
 21
57.381191118189811
 31
0.0
  0
LINE
  5
13B3
  8
SAPA_FOGBAND
  6
CONTINUOUS
 10
21.8146627705984
 20
57.381191118189811
 30
0.0
 11
21.6343852068252
 21
57.45586453009625
 31
0.0
  0
LINE
  5
13B4
  8
SAPA_FOGBAND
  6
CONTINUOUS
 10
21.454107643052001
 20
57.381191118189811
 30
0.0
 11
21.37943423114557
 21
57.200913554416609
 31
0.0
  0
LINE
  5
13B5
  8
SAPA_FOGBAND
  6
CONTINUOUS
 10
21.8146627705984
 20
57.381191118189811
 30
0.0
 11
21.889336182504842
 21
57.200913554416609
 31
0.0
  0
LINE
  5
13B6
  8
SAPA_FOGBAND
  6
CONTINUOUS
 10
21.8146627705984
 20
57.020635990643413
 30
0.0
 11
21.6343852068252
 21
56.945962578736967
 31
0.0
  0
LINE
  5
13B7
  8
SAPA_FOGBAND
  6
CONTINUOUS
 10
21.6343852068252
 20
56.945962578736967
 30
0.0
 11
21.454107643052001
 21
57.020635990643413
 31
0.0
  0
LINE
  5
13B8
  8
SAPA_FOGBAND
  6
CONTINUOUS
 10
21.37943423114557
 20
57.200913554416609
 30
0.0
 11
21.454107643052001
 21
57.020635990643413
 31
0.0
  0
LINE
  5
13B9
  8
SAPA_FOGBAND
  6
CONTINUOUS
 10
21.889336182504842
 20
57.200913554416609
 30
0.0
 11
21.8146627705984
 21
57.020635990643413
 31
0.0
  0
ENDBLK
  5
13BB
  8
0
  0
BLOCK
  8
0
  2
*U35
 70
     1
 10
0.0
 20
0.0
 30
0.0
  3
*U35
  1

  0
SOLID
  5
13BD
  8
SAPA_FOGBAND
  6
CONTINUOUS
 10
22.025283841427498
 20
94.840598643532388
 30
0.0
 11
21.845006277654299
 21
94.765925231625957
 31
0.0
 12
22.20556140520069
 22
94.765925231625957
 32
0.0
 13
22.20556140520069
 23
94.765925231625957
 33
0.0
210
0.0
220
0.0
230
1.0
  0
SOLID
  5
13BE
  8
SAPA_FOGBAND
  6
CONTINUOUS
 10
21.845006277654299
 20
94.765925231625957
 30
0.0
 11
21.77033286574785
 21
94.585647667852754
 31
0.0
 12
22.280234817107139
 22
94.585647667852754
 32
0.0
 13
22.280234817107139
 23
94.585647667852754
 33
0.0
210
0.0
220
0.0
230
1.0
  0
SOLID
  5
13BF
  8
SAPA_FOGBAND
  6
CONTINUOUS
 10
-21.845006277654299
 20
94.765925231625957
 30
0.0
 11
-22.20556140520069
 21
94.765925231625957
 31
0.0
 12
-22.280234817107139
 22
94.585647667852754
 32
0.0
 13
-22.280234817107139
 23
94.585647667852754
 33
0.0
210
0.0
220
0.0
230
-1.0
  0
SOLID
  5
13C0
  8
SAPA_FOGBAND
  6
CONTINUOUS
 10
-21.845006277654299
 20
94.405370104079566
 30
0.0
 11
-22.20556140520069
 21
94.405370104079566
 31
0.0
 12
-22.025283841427498
 22
94.33069669217312
 32
0.0
 13
-22.025283841427498
 23
94.33069669217312
 33
0.0
210
0.0
220
0.0
230
-1.0
  0
SOLID
  5
13C1
  8
SAPA_FOGBAND
  6
CONTINUOUS
 10
21.77033286574785
 20
94.585647667852754
 30
0.0
 11
21.845006277654299
 21
94.405370104079566
 31
0.0
 12
22.20556140520069
 22
94.405370104079566
 32
0.0
 13
22.20556140520069
 23
94.405370104079566
 33
0.0
210
0.0
220
0.0
230
1.0
  0
SOLID
  5
13C2
  8
SAPA_FOGBAND
  6
CONTINUOUS
 10
-21.77033286574785
 20
94.585647667852754
 30
0.0
 11
-22.280234817107139
 21
94.585647667852754
 31
0.0
 12
-22.20556140520069
 22
94.405370104079566
 32
0.0
 13
-22.20556140520069
 23
94.405370104079566
 33
0.0
210
0.0
220
0.0
230
-1.0
  0
LINE
  5
13C3
  8
SAPA_FOGBAND
  6
CONTINUOUS
 10
22.025283841427498
 20
94.840598643532388
 30
0.0
 11
21.845006277654299
 21
94.765925231625957
 31
0.0
  0
LINE
  5
13C4
  8
SAPA_FOGBAND
  6
CONTINUOUS
 10
22.20556140520069
 20
94.765925231625957
 30
0.0
 11
22.025283841427498
 21
94.840598643532388
 31
0.0
  0
LINE
  5
13C5
  8
SAPA_FOGBAND
  6
CONTINUOUS
 10
21.845006277654299
 20
94.765925231625957
 30
0.0
 11
21.77033286574785
 21
94.585647667852754
 31
0.0
  0
LINE
  5
13C6
  8
SAPA_FOGBAND
  6
CONTINUOUS
 10
22.20556140520069
 20
94.765925231625957
 30
0.0
 11
22.280234817107139
 21
94.585647667852754
 31
0.0
  0
LINE
  5
13C7
  8
SAPA_FOGBAND
  6
CONTINUOUS
 10
22.20556140520069
 20
94.405370104079566
 30
0.0
 11
22.025283841427498
 21
94.33069669217312
 31
0.0
  0
LINE
  5
13C8
  8
SAPA_FOGBAND
  6
CONTINUOUS
 10
22.025283841427498
 20
94.33069669217312
 30
0.0
 11
21.845006277654299
 21
94.405370104079566
 31
0.0
  0
LINE
  5
13C9
  8
SAPA_FOGBAND
  6
CONTINUOUS
 10
21.77033286574785
 20
94.585647667852754
 30
0.0
 11
21.845006277654299
 21
94.405370104079566
 31
0.0
  0
LINE
  5
13CA
  8
SAPA_FOGBAND
  6
CONTINUOUS
 10
22.280234817107139
 20
94.585647667852754
 30
0.0
 11
22.20556140520069
 21
94.405370104079566
 31
0.0
  0
ENDBLK
  5
13CC
  8
0
  0
BLOCK
  8
0
  2
*U36
 70
     1
 10
0.0
 20
0.0
 30
0.0
  3
*U36
  1

  0
SOLID
  5
14A8
  8
SAPA_FOGBAND
  6
CONTINUOUS
 10
21.6343852068252
 20
57.45586453009625
 30
0.0
 11
21.454107643052001
 21
57.381191118189811
 31
0.0
 12
21.8146627705984
 22
57.381191118189811
 32
0.0
 13
21.8146627705984
 23
57.381191118189811
 33
0.0
210
0.0
220
0.0
230
1.0
  0
SOLID
  5
14A9
  8
SAPA_FOGBAND
  6
CONTINUOUS
 10
21.454107643052001
 20
57.381191118189811
 30
0.0
 11
21.37943423114557
 21
57.200913554416609
 31
0.0
 12
21.889336182504842
 22
57.200913554416609
 32
0.0
 13
21.889336182504842
 23
57.200913554416609
 33
0.0
210
0.0
220
0.0
230
1.0
  0
SOLID
  5
14AA
  8
SAPA_FOGBAND
  6
CONTINUOUS
 10
-21.454107643052001
 20
57.381191118189811
 30
0.0
 11
-21.8146627705984
 21
57.381191118189811
 31
0.0
 12
-21.889336182504842
 22
57.200913554416609
 32
0.0
 13
-21.889336182504842
 23
57.200913554416609
 33
0.0
210
0.0
220
0.0
230
-1.0
  0
SOLID
  5
14AB
  8
SAPA_FOGBAND
  6
CONTINUOUS
 10
-21.454107643052001
 20
57.020635990643413
 30
0.0
 11
-21.8146627705984
 21
57.020635990643413
 31
0.0
 12
-21.6343852068252
 22
56.945962578736967
 32
0.0
 13
-21.6343852068252
 23
56.945962578736967
 33
0.0
210
0.0
220
0.0
230
-1.0
  0
SOLID
  5
14AC
  8
SAPA_FOGBAND
  6
CONTINUOUS
 10
21.37943423114557
 20
57.200913554416609
 30
0.0
 11
21.454107643052001
 21
57.020635990643413
 31
0.0
 12
21.8146627705984
 22
57.020635990643413
 32
0.0
 13
21.8146627705984
 23
57.020635990643413
 33
0.0
210
0.0
220
0.0
230
1.0
  0
SOLID
  5
14AD
  8
SAPA_FOGBAND
  6
CONTINUOUS
 10
-21.37943423114557
 20
57.200913554416609
 30
0.0
 11
-21.889336182504842
 21
57.200913554416609
 31
0.0
 12
-21.8146627705984
 22
57.020635990643413
 32
0.0
 13
-21.8146627705984
 23
57.020635990643413
 33
0.0
210
0.0
220
0.0
230
-1.0
  0
LINE
  5
14AE
  8
SAPA_FOGBAND
  6
CONTINUOUS
 10
21.6343852068252
 20
57.45586453009625
 30
0.0
 11
21.454107643052001
 21
57.381191118189811
 31
0.0
  0
LINE
  5
14AF
  8
SAPA_FOGBAND
  6
CONTINUOUS
 10
21.8146627705984
 20
57.381191118189811
 30
0.0
 11
21.6343852068252
 21
57.45586453009625
 31
0.0
  0
LINE
  5
14B0
  8
SAPA_FOGBAND
  6
CONTINUOUS
 10
21.454107643052001
 20
57.381191118189811
 30
0.0
 11
21.37943423114557
 21
57.200913554416609
 31
0.0
  0
LINE
  5
14B1
  8
SAPA_FOGBAND
  6
CONTINUOUS
 10
21.8146627705984
 20
57.381191118189811
 30
0.0
 11
21.889336182504842
 21
57.200913554416609
 31
0.0
  0
LINE
  5
14B2
  8
SAPA_FOGBAND
  6
CONTINUOUS
 10
21.8146627705984
 20
57.020635990643413
 30
0.0
 11
21.6343852068252
 21
56.945962578736967
 31
0.0
  0
LINE
  5
14B3
  8
SAPA_FOGBAND
  6
CONTINUOUS
 10
21.6343852068252
 20
56.945962578736967
 30
0.0
 11
21.454107643052001
 21
57.020635990643413
 31
0.0
  0
LINE
  5
14B4
  8
SAPA_FOGBAND
  6
CONTINUOUS
 10
21.37943423114557
 20
57.200913554416609
 30
0.0
 11
21.454107643052001
 21
57.020635990643413
 31
0.0
  0
LINE
  5
14B5
  8
SAPA_FOGBAND
  6
CONTINUOUS
 10
21.889336182504842
 20
57.200913554416609
 30
0.0
 11
21.8146627705984
 21
57.020635990643413
 31
0.0
  0
ENDBLK
  5
14B7
  8
0
  0
ENDSEC
  0
SECTION
  2
ENTITIES
  0
LINE
  5
BAF
  8
SAPA_FYLLNING
 10
93.162852062182296
 20
102.8108395617935
 30
0.0
 11
183.3450740910082
 21
102.8108395617936
 31
0.0
  0
ARC
  5
BB0
  8
SAPA_FYLLNING
 10
183.96844758048439
 20
108.7995613555056
 30
0.0
 40
6.0210782447883089
 50
264.05741210644578
 51
93.269439526873285
  0
LINE
  5
BB1
  8
SAPA_FYLLNING
 10
183.62505632191889
 20
114.8108395617945
 30
0.0
 11
93.162852062182296
 21
114.81083956179531
 31
0.0
  0
ARC
  5
BB2
  8
SAPA_FYLLNING
 10
93.162852062182296
 20
120.8108395617944
 30
0.0
 40
5.9999999999990896
 50
90.0
 51
270.0
  0
LINE
  5
BB3
  8
SAPA_FYLLNING
 10
93.162852062182296
 20
126.8108395617935
 30
0.0
 11
186.64978415662489
 21
126.8187692701225
 31
0.0
  0
ARC
  5
BB4
  8
SAPA_FYLLNING
 10
187.62973546692189
 20
132.78004351200491
 30
0.0
 40
6.0412825755367141
 50
260.66485350050579
 51
93.376383040387395
  0
LINE
  5
BB5
  8
SAPA_FYLLNING
 10
187.273934731488
 20
138.8108395617937
 30
0.0
 11
93.162852062182296
 21
138.8108395617935
 31
0.0
  0
ARC
  5
BB6
  8
SAPA_FYLLNING
 10
93.162852062182296
 20
144.81083956179259
 30
0.0
 40
5.9999999999990896
 50
90.0
 51
270.0
  0
LINE
  5
BB7
  8
SAPA_FYLLNING
 10
93.162852062182296
 20
150.81083956179171
 30
0.0
 11
186.64978415662489
 21
150.8187692701207
 31
0.0
  0
POLYLINE
  5
C5F
  8
SAPA_PROFIL
 62
     4
 66
     1
 10
0.0
 20
0.0
 30
0.0
 70
     1
  0
VERTEX
  5
F5E
  8
SAPA_PROFIL
 62
     4
 10
73.101234776645427
 20
82.830270715283547
 30
0.0
 42
-0.414213562373114
  0
VERTEX
  5
F5F
  8
SAPA_PROFIL
 62
     4
 10
71.101234776645285
 20
80.830270715283547
 30
0.0
  0
VERTEX
  5
F60
  8
SAPA_PROFIL
 62
     4
 10
66.601234776645384
 20
80.830270715283817
 30
0.0
 42
-0.4142135623730807
  0
VERTEX
  5
F61
  8
SAPA_PROFIL
 62
     4
 10
66.101234776645427
 20
81.330270715283817
 30
0.0
  0
VERTEX
  5
F62
  8
SAPA_PROFIL
 62
     4
 10
66.101234776645427
 20
81.830270715284442
 30
0.0
 42
-0.4142135623730951
  0
VERTEX
  5
F63
  8
SAPA_PROFIL
 62
     4
 10
66.601234776645427
 20
82.330270715284456
 30
0.0
  0
VERTEX
  5
F64
  8
SAPA_PROFIL
 62
     4
 10
71.101234776645484
 20
82.330270715284456
 30
0.0
 42
0.4142135623730847
  0
VERTEX
  5
F65
  8
SAPA_PROFIL
 62
     4
 10
71.601234776645484
 20
82.830270715284442
 30
0.0
  0
VERTEX
  5
F66
  8
SAPA_PROFIL
 62
     4
 10
71.601234776645541
 20
84.530270715281517
 30
0.0
 42
0.4142135623731284
  0
VERTEX
  5
F67
  8
SAPA_PROFIL
 62
     4
 10
71.101234776645541
 20
85.030270715281546
 30
0.0
  0
VERTEX
  5
F68
  8
SAPA_PROFIL
 62
     4
 10
43.101234776645533
 20
85.030270715279727
 30
0.0
 42
0.4142135623730959
  0
VERTEX
  5
F69
  8
SAPA_PROFIL
 62
     4
 10
42.601234776645519
 20
84.530270715279713
 30
0.0
  0
VERTEX
  5
F6A
  8
SAPA_PROFIL
 62
     4
 10
42.601234776645413
 20
82.830270715284442
 30
0.0
 42
0.4142135623730951
  0
VERTEX
  5
F6B
  8
SAPA_PROFIL
 62
     4
 10
43.101234776645413
 20
82.330270715284456
 30
0.0
  0
VERTEX
  5
F6C
  8
SAPA_PROFIL
 62
     4
 10
47.60123477664456
 20
82.330270715284456
 30
0.0
 42
-0.4142135623730951
  0
VERTEX
  5
F6D
  8
SAPA_PROFIL
 62
     4
 10
48.10123477664456
 20
81.830270715284442
 30
0.0
  0
VERTEX
  5
F6E
  8
SAPA_PROFIL
 62
     4
 10
48.10123477664456
 20
81.330270715284982
 30
0.0
 42
-0.4142135623731129
  0
VERTEX
  5
F6F
  8
SAPA_PROFIL
 62
     4
 10
47.601234776644517
 20
80.830270715284982
 30
0.0
  0
VERTEX
  5
F70
  8
SAPA_PROFIL
 62
     4
 10
41.60123477664456
 20
80.830270715285351
 30
0.0
 42
-0.4142135623730951
  0
VERTEX
  5
F71
  8
SAPA_PROFIL
 62
     4
 10
41.10123477664456
 20
81.330270715285366
 30
0.0
  0
VERTEX
  5
F72
  8
SAPA_PROFIL
 62
     4
 10
41.101234776645242
 20
93.630270715281895
 30
0.0
  0
VERTEX
  5
F73
  8
SAPA_PROFIL
 62
     4
 10
41.566158196211063
 20
94.216654731042709
 30
0.0
 42
-0.7105995015669819
  0
VERTEX
  5
F74
  8
SAPA_PROFIL
 62
     4
 10
42.101234776646152
 20
94.030270715281532
 30
0.0
  0
VERTEX
  5
F75
  8
SAPA_PROFIL
 62
     4
 10
42.101234776645242
 20
93.030270715281546
 30
0.0
 42
0.4142135623731117
  0
VERTEX
  5
F76
  8
SAPA_PROFIL
 62
     4
 10
42.601234776645242
 20
92.530270715281532
 30
0.0
  0
VERTEX
  5
F77
  8
SAPA_PROFIL
 62
     4
 10
46.601234776645242
 20
92.530270715281532
 30
0.0
 42
0.4142135623730951
  0
VERTEX
  5
F78
  8
SAPA_PROFIL
 62
     4
 10
47.101234776645242
 20
93.030270715281546
 30
0.0
  0
VERTEX
  5
F79
  8
SAPA_PROFIL
 62
     4
 10
47.101234776645242
 20
98.630270715281895
 30
0.0
 42
0.4142135623730951
  0
VERTEX
  5
F7A
  8
SAPA_PROFIL
 62
     4
 10
46.601234776645228
 20
99.130270715281895
 30
0.0
  0
VERTEX
  5
F7B
  8
SAPA_PROFIL
 62
     4
 10
42.601234776646137
 20
99.130270715281895
 30
0.0
 42
0.4142135623730784
  0
VERTEX
  5
F7C
  8
SAPA_PROFIL
 62
     4
 10
42.101234776646137
 20
98.630270715281895
 30
0.0
  0
VERTEX
  5
F7D
  8
SAPA_PROFIL
 62
     4
 10
42.101234776645228
 20
97.630270715281895
 30
0.0
 42
-0.7105995015654651
  0
VERTEX
  5
F7E
  8
SAPA_PROFIL
 62
     4
 10
41.566158196211049
 20
97.443886699521627
 30
0.0
  0
VERTEX
  5
F7F
  8
SAPA_PROFIL
 62
     4
 10
41.101234776645228
 20
98.030270715281546
 30
0.0
  0
VERTEX
  5
F80
  8
SAPA_PROFIL
 62
     4
 10
41.101234776645228
 20
100.1302707152819
 30
0.0
 42
-0.4142135623730951
  0
VERTEX
  5
F81
  8
SAPA_PROFIL
 62
     4
 10
41.601234776645228
 20
100.6302707152819
 30
0.0
  0
VERTEX
  5
F82
  8
SAPA_PROFIL
 62
     4
 10
48.601234776645228
 20
100.6302707152819
 30
0.0
 42
-0.4142135623730951
  0
VERTEX
  5
F83
  8
SAPA_PROFIL
 62
     4
 10
49.101234776645242
 20
100.1302707152819
 30
0.0
  0
VERTEX
  5
F84
  8
SAPA_PROFIL
 62
     4
 10
49.101234776646152
 20
98.530270715281532
 30
0.0
  0
VERTEX
  5
F85
  8
SAPA_PROFIL
 62
     4
 10
49.101234776646152
 20
98.530270715281532
 30
0.0
 42
0.4142135623730951
  0
VERTEX
  5
F86
  8
SAPA_PROFIL
 62
     4
 10
48.601234776646152
 20
98.030270715281546
 30
0.0
  0
VERTEX
  5
F87
  8
SAPA_PROFIL
 62
     4
 10
48.601234776646152
 20
91.530270715282441
 30
0.0
 42
-0.4142135623730951
  0
VERTEX
  5
F88
  8
SAPA_PROFIL
 62
     4
 10
48.101234776646152
 20
91.030270715282427
 30
0.0
  0
VERTEX
  5
F89
  8
SAPA_PROFIL
 62
     4
 10
43.101234776645242
 20
91.030270715282427
 30
0.0
 42
0.4142135623730951
  0
VERTEX
  5
F8A
  8
SAPA_PROFIL
 62
     4
 10
42.601234776645242
 20
90.530270715282441
 30
0.0
  0
VERTEX
  5
F8B
  8
SAPA_PROFIL
 62
     4
 10
42.601234776645349
 20
87.030270715281517
 30
0.0
 42
0.4142135623731117
  0
VERTEX
  5
F8C
  8
SAPA_PROFIL
 62
     4
 10
43.101234776645349
 20
86.530270715281532
 30
0.0
  0
VERTEX
  5
F8D
  8
SAPA_PROFIL
 62
     4
 10
88.601234776645967
 20
86.530270715283365
 30
0.0
 42
0.4142135623724291
  0
VERTEX
  5
F8E
  8
SAPA_PROFIL
 62
     4
 10
88.901234776646135
 20
86.830270715282623
 30
0.0
  0
VERTEX
  5
F8F
  8
SAPA_PROFIL
 62
     4
 10
88.901234776646135
 20
88.130270715283416
 30
0.0
 42
-0.6681786379194817
  0
VERTEX
  5
F90
  8
SAPA_PROFIL
 62
     4
 10
89.413366811002149
 20
88.342402749639234
 30
0.0
  0
VERTEX
  5
F91
  8
SAPA_PROFIL
 62
     4
 10
91.613366811002251
 20
86.142402749640041
 30
0.0
 42
-0.1989123673797118
  0
VERTEX
  5
F92
  8
SAPA_PROFIL
 62
     4
 10
91.701234776646331
 20
85.930270715284024
 30
0.0
  0
VERTEX
  5
F93
  8
SAPA_PROFIL
 62
     4
 10
91.701234776646331
 20
85.330270715282637
 30
0.0
 42
-0.4142135623724291
  0
VERTEX
  5
F94
  8
SAPA_PROFIL
 62
     4
 10
91.401234776646135
 20
85.030270715283365
 30
0.0
  0
VERTEX
  5
F95
  8
SAPA_PROFIL
 62
     4
 10
73.601234776645427
 20
85.030270715283365
 30
0.0
 42
0.4142135623730951
  0
VERTEX
  5
F96
  8
SAPA_PROFIL
 62
     4
 10
73.101234776645427
 20
84.530270715283365
 30
0.0
  0
SEQEND
  5
F97
  8
SAPA_PROFIL
 62
     4
  0
LINE
  5
C60
  8
SAPA_PROFIL
 62
     4
 10
49.162852062183113
 20
88.830270350030119
 30
0.0
 11
49.162852062183113
 21
150.83027035003099
 31
0.0
  0
LINE
  5
C61
  8
SAPA_PROFIL
 62
     4
 10
57.162852062183099
 20
88.830270350030119
 30
0.0
 11
49.162852062183113
 21
88.830270350030119
 31
0.0
  0
LINE
  5
C62
  8
SAPA_PROFIL
 62
     4
 10
57.16285206218312
 20
150.83027035003099
 30
0.0
 11
57.162852062183099
 21
88.830270350030119
 31
0.0
  0
LINE
  5
C63
  8
SAPA_PROFIL
 62
     4
 10
24.162852062183159
 20
86.830270350031142
 30
0.0
 11
24.16285206218318
 21
150.83027035003099
 31
0.0
  0
LINE
  5
C64
  8
SAPA_PROFIL
 62
     4
 10
30.162852062183159
 20
86.830270350031142
 30
0.0
 11
24.162852062183159
 21
86.830270350031142
 31
0.0
  0
LINE
  5
C65
  8
SAPA_PROFIL
 62
     4
 10
30.16285206218318
 20
150.83027035003099
 30
0.0
 11
30.162852062183159
 21
86.830270350031142
 31
0.0
  0
POLYLINE
  5
C66
  8
SAPA_PROFIL
 66
     1
 10
0.0
 20
0.0
 30
0.0
 70
     1
  0
VERTEX
  5
F98
  8
SAPA_PROFIL
 10
22.162852062181539
 20
87.768645625035603
 30
0.0
 42
0.2216946626428728
  0
VERTEX
  5
F99
  8
SAPA_PROFIL
 10
21.805639671868018
 20
88.534690068154248
 30
0.0
  0
VERTEX
  5
F9A
  8
SAPA_PROFIL
 10
20.520064452496879
 20
89.61341576057913
 30
0.0
 42
-0.2216946626428911
  0
VERTEX
  5
F9B
  8
SAPA_PROFIL
 10
20.162852062183411
 20
90.379460203697874
 30
0.0
  0
VERTEX
  5
F9C
  8
SAPA_PROFIL
 10
20.1628520621829
 20
92.156006281319435
 30
0.0
 42
0.1989123673796749
  0
VERTEX
  5
F9D
  8
SAPA_PROFIL
 10
20.074984096538991
 20
92.368138315675708
 30
0.0
  0
VERTEX
  5
F9E
  8
SAPA_PROFIL
 10
19.50427341842023
 20
92.938848993794011
 30
0.0
 42
0.6681786379193591
  0
VERTEX
  5
F9F
  8
SAPA_PROFIL
 10
19.1628520621829
 20
92.797427637556495
 30
0.0
  0
VERTEX
  5
FA0
  8
SAPA_PROFIL
 10
19.162852062183131
 20
91.830270350031299
 30
0.0
 42
-0.4142135623730951
  0
VERTEX
  5
FA1
  8
SAPA_PROFIL
 10
18.662852062183351
 20
91.330270350031284
 30
0.0
  0
VERTEX
  5
FA2
  8
SAPA_PROFIL
 10
18.272043132462748
 20
91.330270350031284
 30
0.0
 42
-0.1763269807084316
  0
VERTEX
  5
FA3
  8
SAPA_PROFIL
 10
18.079206849556972
 20
91.400457017095562
 30
0.0
  0
VERTEX
  5
FA4
  8
SAPA_PROFIL
 10
16.341458257340172
 20
92.858601219903505
 30
0.0
 42
-0.2216946626429586
  0
VERTEX
  5
FA5
  8
SAPA_PROFIL
 10
16.162852062183411
 20
93.241623441463005
 30
0.0
  0
VERTEX
  5
FA6
  8
SAPA_PROFIL
 10
16.162852062183351
 20
95.812178790230334
 30
0.0
 42
-0.2216946626429592
  0
VERTEX
  5
FA7
  8
SAPA_PROFIL
 10
16.270015779277301
 20
96.041992123166267
 30
0.0
  0
VERTEX
  5
FA8
  8
SAPA_PROFIL
 10
18.079206849556972
 20
97.56008368296699
 30
0.0
 42
-0.1763269807084563
  0
VERTEX
  5
FA9
  8
SAPA_PROFIL
 10
18.272043132462741
 20
97.630270350031253
 30
0.0
  0
VERTEX
  5
FAA
  8
SAPA_PROFIL
 10
18.662852062183351
 20
97.630270350031253
 30
0.0
 42
-0.4142135623730951
  0
VERTEX
  5
FAB
  8
SAPA_PROFIL
 10
19.162852062182889
 20
97.130270350031253
 30
0.0
  0
VERTEX
  5
FAC
  8
SAPA_PROFIL
 10
19.162852062182889
 20
96.163113062505829
 30
0.0
 42
0.6681786379193841
  0
VERTEX
  5
FAD
  8
SAPA_PROFIL
 10
19.50427341842023
 20
96.021691706268768
 30
0.0
  0
VERTEX
  5
FAE
  8
SAPA_PROFIL
 10
20.074984096538991
 20
96.592402384387526
 30
0.0
 42
0.1989123673796471
  0
VERTEX
  5
FAF
  8
SAPA_PROFIL
 10
20.162852062183351
 20
96.804534418743344
 30
0.0
  0
VERTEX
  5
FB0
  8
SAPA_PROFIL
 10
20.1628520621829
 20
99.130270350031253
 30
0.0
 42
0.4142135623730951
  0
VERTEX
  5
FB1
  8
SAPA_PROFIL
 10
19.662852062182889
 20
99.630270350031253
 30
0.0
  0
VERTEX
  5
FB2
  8
SAPA_PROFIL
 10
15.962852062183019
 20
99.630270350031822
 30
0.0
 42
0.4142135623729843
  0
VERTEX
  5
FB3
  8
SAPA_PROFIL
 10
15.662852062182839
 20
99.330270350031753
 30
0.0
  0
VERTEX
  5
FB4
  8
SAPA_PROFIL
 10
15.662852062182949
 20
98.303475430789433
 30
0.0
 42
-0.26794919243117
  0
VERTEX
  5
FB5
  8
SAPA_PROFIL
 10
15.51285206218286
 20
98.043667809653755
 30
0.0
  0
VERTEX
  5
FB6
  8
SAPA_PROFIL
 10
14.004774925588571
 20
97.172979068882512
 30
0.0
 42
-0.4142135623734465
  0
VERTEX
  5
FB7
  8
SAPA_PROFIL
 10
13.594967304453309
 20
97.282786690017758
 30
0.0
  0
VERTEX
  5
FB8
  8
SAPA_PROFIL
 10
13.278877465967311
 20
97.830270350031654
 30
0.0
 42
0.4663076581550835
  0
VERTEX
  5
FB9
  8
SAPA_PROFIL
 10
11.77006445249647
 20
98.096314793150611
 30
0.0
  0
VERTEX
  5
FBA
  8
SAPA_PROFIL
 10
8.2700157792770792
 20
95.159425242348391
 30
0.0
 42
0.2216946626429129
  0
VERTEX
  5
FBB
  8
SAPA_PROFIL
 10
8.1628520621830685
 20
94.929611909412699
 30
0.0
  0
VERTEX
  5
FBC
  8
SAPA_PROFIL
 10
8.1628520621830685
 20
93.780270350031117
 30
0.0
 42
0.4142135623732061
  0
VERTEX
  5
FBD
  8
SAPA_PROFIL
 10
8.4628520621831367
 20
93.480270350031162
 30
0.0
  0
VERTEX
  5
FBE
  8
SAPA_PROFIL
 10
11.969591567431531
 20
93.480270350031731
 30
0.0
 42
-0.1763269807085094
  0
VERTEX
  5
FBF
  8
SAPA_PROFIL
 10
12.61237917711823
 20
93.246314793150717
 30
0.0
  0
VERTEX
  5
FC0
  8
SAPA_PROFIL
 10
15.3556883450893
 20
90.944405082100886
 30
0.0
 42
-0.2216946626429509
  0
VERTEX
  5
FC1
  8
SAPA_PROFIL
 10
15.462852062183361
 20
90.714591749165209
 30
0.0
  0
VERTEX
  5
FC2
  8
SAPA_PROFIL
 10
15.462852062183361
 20
89.854484046611731
 30
0.0
 42
0.4142135623731506
  0
VERTEX
  5
FC3
  8
SAPA_PROFIL
 10
15.762852062183381
 20
89.554484046611776
 30
0.0
  0
VERTEX
  5
FC4
  8
SAPA_PROFIL
 10
16.902940662276329
 20
89.554484046611776
 30
0.0
 42
-0.1763269807084654
  0
VERTEX
  5
FC5
  8
SAPA_PROFIL
 10
17.095776945182269
 20
89.484297379547513
 30
0.0
  0
VERTEX
  5
FC6
  8
SAPA_PROFIL
 10
19.105639671870009
 20
87.797822306866863
 30
0.0
 42
-0.2216946626429509
  0
VERTEX
  5
FC7
  8
SAPA_PROFIL
 10
19.46285206218348
 20
87.031777863747891
 30
0.0
  0
VERTEX
  5
FC8
  8
SAPA_PROFIL
 10
19.462852062183369
 20
64.628762836314252
 30
0.0
 42
-0.2216946626429508
  0
VERTEX
  5
FC9
  8
SAPA_PROFIL
 10
19.105639671869909
 20
63.86271839319528
 30
0.0
  0
VERTEX
  5
FCA
  8
SAPA_PROFIL
 10
17.095776945182159
 20
62.176243320514629
 30
0.0
 42
-0.1763269807084657
  0
VERTEX
  5
FCB
  8
SAPA_PROFIL
 10
16.902940662276219
 20
62.106056653450359
 30
0.0
  0
VERTEX
  5
FCC
  8
SAPA_PROFIL
 10
15.762852062183381
 20
62.106056653450359
 30
0.0
 42
0.4142135623730951
  0
VERTEX
  5
FCD
  8
SAPA_PROFIL
 10
15.46285206218343
 20
61.806056653450412
 30
0.0
  0
VERTEX
  5
FCE
  8
SAPA_PROFIL
 10
15.46285206218343
 20
60.945948950896927
 30
0.0
 42
-0.2216946626429889
  0
VERTEX
  5
FCF
  8
SAPA_PROFIL
 10
15.35568834508936
 20
60.716135617961243
 30
0.0
  0
VERTEX
  5
FD0
  8
SAPA_PROFIL
 10
12.61237917711812
 20
58.41422590691144
 30
0.0
 42
-0.1763269807085052
  0
VERTEX
  5
FD1
  8
SAPA_PROFIL
 10
11.96959156743136
 20
58.180270350030412
 30
0.0
  0
VERTEX
  5
FD2
  8
SAPA_PROFIL
 10
8.4628520621831438
 20
58.180270350031087
 30
0.0
 42
0.4142135623732062
  0
VERTEX
  5
FD3
  8
SAPA_PROFIL
 10
8.1628520621830756
 20
57.88027035003114
 30
0.0
  0
VERTEX
  5
FD4
  8
SAPA_PROFIL
 10
8.1628520621830756
 20
56.730928790649557
 30
0.0
 42
0.2216946626429129
  0
VERTEX
  5
FD5
  8
SAPA_PROFIL
 10
8.2700157792770863
 20
56.501115457713873
 30
0.0
  0
VERTEX
  5
FD6
  8
SAPA_PROFIL
 10
11.77006445249642
 20
53.564225906911531
 30
0.0
 42
0.4663076581550919
  0
VERTEX
  5
FD7
  8
SAPA_PROFIL
 10
13.278877465967319
 20
53.830270350030503
 30
0.0
  0
VERTEX
  5
FD8
  8
SAPA_PROFIL
 10
13.59496730445326
 20
54.377754010044377
 30
0.0
 42
-0.4142135623731708
  0
VERTEX
  5
FD9
  8
SAPA_PROFIL
 10
14.004774925588579
 20
54.487561631179631
 30
0.0
  0
VERTEX
  5
FDA
  8
SAPA_PROFIL
 10
15.512852062182869
 20
53.616872890408388
 30
0.0
 42
-0.26794919243117
  0
VERTEX
  5
FDB
  8
SAPA_PROFIL
 10
15.66285206218296
 20
53.357065269272709
 30
0.0
  0
VERTEX
  5
FDC
  8
SAPA_PROFIL
 10
15.66285206218296
 20
52.330270350030389
 30
0.0
 42
0.4142135623729287
  0
VERTEX
  5
FDD
  8
SAPA_PROFIL
 10
15.96285206218303
 20
52.030270350030321
 30
0.0
  0
VERTEX
  5
FDE
  8
SAPA_PROFIL
 10
19.66285206218291
 20
52.030270350030882
 30
0.0
 42
0.4142135623730951
  0
VERTEX
  5
FDF
  8
SAPA_PROFIL
 10
20.16285206218291
 20
52.530270350030889
 30
0.0
  0
VERTEX
  5
FE0
  8
SAPA_PROFIL
 10
20.162852062183362
 20
54.856006281318798
 30
0.0
 42
0.1989123673796819
  0
VERTEX
  5
FE1
  8
SAPA_PROFIL
 10
20.074984096539001
 20
55.068138315674616
 30
0.0
  0
VERTEX
  5
FE2
  8
SAPA_PROFIL
 10
19.50427341842024
 20
55.638848993793367
 30
0.0
 42
0.6681786379193841
  0
VERTEX
  5
FE3
  8
SAPA_PROFIL
 10
19.1628520621829
 20
55.497427637556306
 30
0.0
  0
VERTEX
  5
FE4
  8
SAPA_PROFIL
 10
19.1628520621829
 20
54.530270350030882
 30
0.0
 42
-0.4142135623730951
  0
VERTEX
  5
FE5
  8
SAPA_PROFIL
 10
18.662852062183362
 20
54.030270350030889
 30
0.0
  0
VERTEX
  5
FE6
  8
SAPA_PROFIL
 10
18.272043132462748
 20
54.030270350030889
 30
0.0
 42
-0.1763269807084561
  0
VERTEX
  5
FE7
  8
SAPA_PROFIL
 10
18.079206849556979
 20
54.100457017095152
 30
0.0
  0
VERTEX
  5
FE8
  8
SAPA_PROFIL
 10
16.270015779277308
 20
55.618548576895883
 30
0.0
 42
-0.2216946626429592
  0
VERTEX
  5
FE9
  8
SAPA_PROFIL
 10
16.162852062183362
 20
55.848361909831787
 30
0.0
  0
VERTEX
  5
FEA
  8
SAPA_PROFIL
 10
16.162852062183418
 20
58.418917258599151
 30
0.0
 42
-0.2216946626429736
  0
VERTEX
  5
FEB
  8
SAPA_PROFIL
 10
16.341458257340179
 20
58.801939480158637
 30
0.0
  0
VERTEX
  5
FEC
  8
SAPA_PROFIL
 10
18.079206849556979
 20
60.260083682966581
 30
0.0
 42
-0.1763269807084407
  0
VERTEX
  5
FED
  8
SAPA_PROFIL
 10
18.272043132462748
 20
60.330270350030837
 30
0.0
  0
VERTEX
  5
FEE
  8
SAPA_PROFIL
 10
18.662852062183362
 20
60.330270350030837
 30
0.0
 42
-0.4142135623730951
  0
VERTEX
  5
FEF
  8
SAPA_PROFIL
 10
19.1628520621829
 20
59.830270350030837
 30
0.0
  0
VERTEX
  5
FF0
  8
SAPA_PROFIL
 10
19.1628520621829
 20
58.863113062505647
 30
0.0
 42
0.6681786379193591
  0
VERTEX
  5
FF1
  8
SAPA_PROFIL
 10
19.50427341842024
 20
58.721691706268132
 30
0.0
  0
VERTEX
  5
FF2
  8
SAPA_PROFIL
 10
20.074984096539001
 20
59.292402384386442
 30
0.0
 42
0.1989123673796749
  0
VERTEX
  5
FF3
  8
SAPA_PROFIL
 10
20.16285206218291
 20
59.504534418742701
 30
0.0
  0
VERTEX
  5
FF4
  8
SAPA_PROFIL
 10
20.162852062183418
 20
61.281080496364147
 30
0.0
 42
-0.2216946626428804
  0
VERTEX
  5
FF5
  8
SAPA_PROFIL
 10
20.520064452496939
 20
62.047124939482899
 30
0.0
  0
VERTEX
  5
FF6
  8
SAPA_PROFIL
 10
21.805639671868079
 20
63.125850631907888
 30
0.0
 42
0.2216946626428499
  0
VERTEX
  5
FF7
  8
SAPA_PROFIL
 10
22.162852062181539
 20
63.891895075026532
 30
0.0
  0
VERTEX
  5
FF8
  8
SAPA_PROFIL
 10
22.162852062183362
 20
69.18027035003098
 30
0.0
 42
-0.4142135623730951
  0
VERTEX
  5
FF9
  8
SAPA_PROFIL
 10
22.462852062183082
 20
69.480270350031162
 30
0.0
  0
VERTEX
  5
FFA
  8
SAPA_PROFIL
 10
22.86285206218318
 20
69.480270350031162
 30
0.0
 42
0.4142135623730951
  0
VERTEX
  5
FFB
  8
SAPA_PROFIL
 10
23.162852062183362
 20
69.780270350030889
 30
0.0
  0
VERTEX
  5
FFC
  8
SAPA_PROFIL
 10
23.162852062183362
 20
70.18027035003098
 30
0.0
 42
0.4142135623730951
  0
VERTEX
  5
FFD
  8
SAPA_PROFIL
 10
22.86285206218318
 20
70.480270350031162
 30
0.0
  0
VERTEX
  5
FFE
  8
SAPA_PROFIL
 10
22.462852062183082
 20
70.480270350031162
 30
0.0
 42
-0.4142135623730951
  0
VERTEX
  5
FFF
  8
SAPA_PROFIL
 10
22.162852062183362
 20
70.780270350030875
 30
0.0
  0
VERTEX
  5
1000
  8
SAPA_PROFIL
 10
22.162852062183351
 20
75.206006281319162
 30
0.0
 42
0.1989123673795535
  0
VERTEX
  5
1001
  8
SAPA_PROFIL
 10
22.074984096539449
 20
75.41813831567498
 30
0.0
  0
VERTEX
  5
1002
  8
SAPA_PROFIL
 10
21.662852062183351
 20
75.830270350031071
 30
0.0
  0
VERTEX
  5
1003
  8
SAPA_PROFIL
 10
22.074984096539449
 20
76.242402384387162
 30
0.0
 42
0.1989123673795536
  0
VERTEX
  5
1004
  8
SAPA_PROFIL
 10
22.162852062183351
 20
76.454534418742981
 30
0.0
  0
VERTEX
  5
1005
  8
SAPA_PROFIL
 10
22.162852062183351
 20
80.880270350030784
 30
0.0
 42
-0.4142135623730951
  0
VERTEX
  5
1006
  8
SAPA_PROFIL
 10
22.462852062183082
 20
81.18027035003098
 30
0.0
  0
VERTEX
  5
1007
  8
SAPA_PROFIL
 10
22.862852062183169
 20
81.18027035003098
 30
0.0
 42
0.4142135623730951
  0
VERTEX
  5
1008
  8
SAPA_PROFIL
 10
23.162852062183351
 20
81.480270350031148
 30
0.0
  0
VERTEX
  5
1009
  8
SAPA_PROFIL
 10
23.162852062183351
 20
81.880270350031253
 30
0.0
 42
0.4142135623730951
  0
VERTEX
  5
100A
  8
SAPA_PROFIL
 10
22.862852062183169
 20
82.18027035003098
 30
0.0
  0
VERTEX
  5
100B
  8
SAPA_PROFIL
 10
22.462852062183082
 20
82.18027035003098
 30
0.0
 42
-0.414213562373095
  0
VERTEX
  5
100C
  8
SAPA_PROFIL
 10
22.162852062183351
 20
82.480270350031176
 30
0.0
  0
SEQEND
  5
100D
  8
SAPA_PROFIL
  0
POLYLINE
  5
C67
  8
SAPA_PROFIL
 66
     1
 10
0.0
 20
0.0
 30
0.0
 70
     1
  0
VERTEX
  5
100E
  8
SAPA_PROFIL
 10
191.4628520621834
 20
120.8302703500304
 30
0.0
  0
VERTEX
  5
100F
  8
SAPA_PROFIL
 10
193.4628520621834
 20
120.8302703500304
 30
0.0
  0
VERTEX
  5
1010
  8
SAPA_PROFIL
 10
193.4628520621834
 20
106.4871245995228
 30
0.0
  0
VERTEX
  5
1011
  8
SAPA_PROFIL
 10
187.80599781269089
 20
100.8302703500304
 30
0.0
  0
VERTEX
  5
1012
  8
SAPA_PROFIL
 10
168.4628520621834
 20
100.8302703500304
 30
0.0
  0
VERTEX
  5
1013
  8
SAPA_PROFIL
 10
168.4628520621834
 20
102.8302703500304
 30
0.0
  0
VERTEX
  5
1014
  8
SAPA_PROFIL
 10
173.77003173915591
 20
102.8302703500304
 30
0.0
  0
VERTEX
  5
1015
  8
SAPA_PROFIL
 10
174.4628520621834
 20
102.4302703500306
 30
0.0
  0
VERTEX
  5
1016
  8
SAPA_PROFIL
 10
175.15567238521109
 20
102.8302703500304
 30
0.0
  0
VERTEX
  5
1017
  8
SAPA_PROFIL
 10
186.14914356319881
 20
102.8302703500304
 30
0.0
 42
0.1989123673796584
  0
VERTEX
  5
1018
  8
SAPA_PROFIL
 10
187.56335712557191
 20
103.4160567876573
 30
0.0
  0
VERTEX
  5
1019
  8
SAPA_PROFIL
 10
190.87706562455651
 20
106.72976528664221
 30
0.0
 42
0.1989123673796572
  0
VERTEX
  5
101A
  8
SAPA_PROFIL
 10
191.4628520621834
 20
108.1439788490153
 30
0.0
  0
VERTEX
  5
101B
  8
SAPA_PROFIL
 10
191.4628520621834
 20
114.1374500270029
 30
0.0
  0
VERTEX
  5
101C
  8
SAPA_PROFIL
 10
191.86285206218349
 20
114.8302703500304
 30
0.0
  0
VERTEX
  5
101D
  8
SAPA_PROFIL
 10
191.4628520621834
 20
115.52309067305811
 30
0.0
  0
SEQEND
  5
101E
  8
SAPA_PROFIL
  0
POLYLINE
  5
C68
  8
SAPA_PROFIL
 66
     1
 10
0.0
 20
0.0
 30
0.0
 70
     1
  0
VERTEX
  5
101F
  8
SAPA_PROFIL
 10
87.379263460733924
 20
94.103218925211422
 30
0.0
 42
0.1691807452125083
  0
VERTEX
  5
1020
  8
SAPA_PROFIL
 10
87.162852062183006
 20
93.481938872675528
 30
0.0
  0
VERTEX
  5
1021
  8
SAPA_PROFIL
 10
87.162852062183006
 20
87.130270350030287
 30
0.0
 42
0.4142135623730951
  0
VERTEX
  5
1022
  8
SAPA_PROFIL
 10
87.462852062182947
 20
86.830270350030347
 30
0.0
  0
VERTEX
  5
1023
  8
SAPA_PROFIL
 10
88.162852062182992
 20
86.830270350030347
 30
0.0
 42
0.4142135623730951
  0
VERTEX
  5
1024
  8
SAPA_PROFIL
 10
88.462852062182947
 20
87.130270350030287
 30
0.0
  0
VERTEX
  5
1025
  8
SAPA_PROFIL
 10
88.462852062182947
 20
90.03027035003015
 30
0.0
 42
-0.4142135623730951
  0
VERTEX
  5
1026
  8
SAPA_PROFIL
 10
88.962852062182947
 20
90.53027035003015
 30
0.0
  0
VERTEX
  5
1027
  8
SAPA_PROFIL
 10
92.162852062183006
 20
90.53027035003015
 30
0.0
 42
-0.4142135623730951
  0
VERTEX
  5
1028
  8
SAPA_PROFIL
 10
92.662852062182992
 20
90.03027035003015
 30
0.0
  0
VERTEX
  5
1029
  8
SAPA_PROFIL
 10
92.662852062183035
 20
81.830270350030347
 30
0.0
 42
-0.4142135623730951
  0
VERTEX
  5
102A
  8
SAPA_PROFIL
 10
91.662852062183035
 20
80.830270350030318
 30
0.0
  0
VERTEX
  5
102B
  8
SAPA_PROFIL
 10
70.462852062183003
 20
80.830270350030318
 30
0.0
 42
0.4142135623730948
  0
VERTEX
  5
102C
  8
SAPA_PROFIL
 10
70.162852062183049
 20
80.53027035003015
 30
0.0
  0
VERTEX
  5
102D
  8
SAPA_PROFIL
 10
70.162852062183049
 20
79.040275690899762
 30
0.0
 42
0.2135746067194863
  0
VERTEX
  5
102E
  8
SAPA_PROFIL
 10
70.262982842307849
 20
78.816551988654282
 30
0.0
  0
VERTEX
  5
102F
  8
SAPA_PROFIL
 10
71.100720027827094
 20
78.068138315674332
 30
0.0
 42
0.6681786379193474
  0
VERTEX
  5
1030
  8
SAPA_PROFIL
 10
71.612852062182867
 20
78.28027035003015
 30
0.0
  0
VERTEX
  5
1031
  8
SAPA_PROFIL
 10
71.612852062182867
 20
78.53027035003015
 30
0.0
  0
VERTEX
  5
1032
  8
SAPA_PROFIL
 10
72.989086655759422
 20
78.006990046728333
 30
0.0
 42
0.5450207798986705
  0
VERTEX
  5
1033
  8
SAPA_PROFIL
 10
73.412852062183049
 20
78.28027035003015
 30
0.0
  0
VERTEX
  5
1034
  8
SAPA_PROFIL
 10
73.412852062183049
 20
78.53027035003015
 30
0.0
  0
VERTEX
  5
1035
  8
SAPA_PROFIL
 10
74.789086655759604
 20
78.006990046728333
 30
0.0
 42
0.5450207798987319
  0
VERTEX
  5
1036
  8
SAPA_PROFIL
 10
75.212852062183003
 20
78.28027035003015
 30
0.0
  0
VERTEX
  5
1037
  8
SAPA_PROFIL
 10
75.212852062183003
 20
78.53027035003015
 30
0.0
  0
VERTEX
  5
1038
  8
SAPA_PROFIL
 10
76.589086655759331
 20
78.006990046728333
 30
0.0
 42
0.5450207798986705
  0
VERTEX
  5
1039
  8
SAPA_PROFIL
 10
77.012852062182958
 20
78.28027035003015
 30
0.0
  0
VERTEX
  5
103A
  8
SAPA_PROFIL
 10
77.012852062182958
 20
78.53027035003015
 30
0.0
  0
VERTEX
  5
103B
  8
SAPA_PROFIL
 10
78.389086655759513
 20
78.006990046728333
 30
0.0
 42
0.5450207798986705
  0
VERTEX
  5
103C
  8
SAPA_PROFIL
 10
78.81285206218314
 20
78.28027035003015
 30
0.0
  0
VERTEX
  5
103D
  8
SAPA_PROFIL
 10
78.81285206218314
 20
78.53027035003015
 30
0.0
  0
VERTEX
  5
103E
  8
SAPA_PROFIL
 10
79.536569356989105
 20
78.302507632646211
 30
0.0
 42
-0.2945484962562833
  0
VERTEX
  5
103F
  8
SAPA_PROFIL
 10
79.712804021937302
 20
78.029152818967759
 30
0.0
  0
VERTEX
  5
1040
  8
SAPA_PROFIL
 10
79.712596839971013
 20
77.094570287778424
 30
0.0
 42
0.3475954753796645
  0
VERTEX
  5
1041
  8
SAPA_PROFIL
 10
79.943350884139875
 20
76.802596860708263
 30
0.0
 42
-0.7905229096113513
  0
VERTEX
  5
1042
  8
SAPA_PROFIL
 10
79.943361088580389
 20
74.856606260164654
 30
0.0
 42
0.3476065658631767
  0
VERTEX
  5
1043
  8
SAPA_PROFIL
 10
79.712610109848413
 20
74.564618539143112
 30
0.0
  0
VERTEX
  5
1044
  8
SAPA_PROFIL
 10
79.712756830557339
 20
73.980277687936905
 30
0.0
 42
-0.4102317530970184
  0
VERTEX
  5
1045
  8
SAPA_PROFIL
 10
79.416905182403809
 20
73.680242051444566
 30
0.0
 42
0.0712587206050455
  0
VERTEX
  5
1046
  8
SAPA_PROFIL
 10
79.332861257475372
 20
73.667014737574846
 30
0.0
  0
VERTEX
  5
1047
  8
SAPA_PROFIL
 10
77.912852062183035
 20
73.130270350030287
 30
0.0
  0
VERTEX
  5
1048
  8
SAPA_PROFIL
 10
77.912852062183035
 20
73.380270350030287
 30
0.0
 42
0.5450200690651181
  0
VERTEX
  5
1049
  8
SAPA_PROFIL
 10
77.489087062183046
 20
73.653551350030284
 30
0.0
  0
VERTEX
  5
104A
  8
SAPA_PROFIL
 10
76.112852062182867
 20
73.130270350030287
 30
0.0
  0
VERTEX
  5
104B
  8
SAPA_PROFIL
 10
76.112852062183094
 20
73.380270350030287
 30
0.0
 42
0.5450200690652297
  0
VERTEX
  5
104C
  8
SAPA_PROFIL
 10
75.689087062182864
 20
73.653551350030284
 30
0.0
  0
VERTEX
  5
104D
  8
SAPA_PROFIL
 10
74.31285206218314
 20
73.130270350030287
 30
0.0
  0
VERTEX
  5
104E
  8
SAPA_PROFIL
 10
74.31285206218314
 20
73.380270350030287
 30
0.0
 42
0.5450200690651181
  0
VERTEX
  5
104F
  8
SAPA_PROFIL
 10
73.889087062183137
 20
73.653551350030284
 30
0.0
  0
VERTEX
  5
1050
  8
SAPA_PROFIL
 10
72.512852062182944
 20
73.130270350030287
 30
0.0
  0
VERTEX
  5
1051
  8
SAPA_PROFIL
 10
72.512852062182944
 20
73.680270350030241
 30
0.0
  0
VERTEX
  5
1052
  8
SAPA_PROFIL
 10
71.31285206218314
 20
73.680270350030241
 30
0.0
 42
0.1989123673797028
  0
VERTEX
  5
1053
  8
SAPA_PROFIL
 10
71.100720062183015
 20
73.59240235003017
 30
0.0
  0
VERTEX
  5
1054
  8
SAPA_PROFIL
 10
70.262982850937362
 20
72.843988712170813
 30
0.0
 42
0.2135746168025217
  0
VERTEX
  5
1055
  8
SAPA_PROFIL
 10
70.162852062183049
 20
72.620265002215774
 30
0.0
  0
VERTEX
  5
1056
  8
SAPA_PROFIL
 10
70.162852062183049
 20
71.130270350030287
 30
0.0
 42
0.4142135623730951
  0
VERTEX
  5
1057
  8
SAPA_PROFIL
 10
70.462852062183003
 20
70.830270350030332
 30
0.0
  0
VERTEX
  5
1058
  8
SAPA_PROFIL
 10
91.662852062183035
 20
70.830270350030332
 30
0.0
 42
-0.4142135623730951
  0
VERTEX
  5
1059
  8
SAPA_PROFIL
 10
92.662852062183035
 20
69.830270350030332
 30
0.0
  0
VERTEX
  5
105A
  8
SAPA_PROFIL
 10
92.662852062183035
 20
61.630270350030287
 30
0.0
 42
-0.4142135623730951
  0
VERTEX
  5
105B
  8
SAPA_PROFIL
 10
92.162852062183049
 20
61.13027035003028
 30
0.0
  0
VERTEX
  5
105C
  8
SAPA_PROFIL
 10
88.962852062182989
 20
61.13027035003028
 30
0.0
 42
-0.4142135623730951
  0
VERTEX
  5
105D
  8
SAPA_PROFIL
 10
88.462852062183003
 20
61.630270350030287
 30
0.0
  0
VERTEX
  5
105E
  8
SAPA_PROFIL
 10
88.462852062183003
 20
64.53027035003015
 30
0.0
 42
0.4142135623730951
  0
VERTEX
  5
105F
  8
SAPA_PROFIL
 10
88.162852062183049
 20
64.830270350030332
 30
0.0
  0
VERTEX
  5
1060
  8
SAPA_PROFIL
 10
87.462852062183003
 20
64.830270350030332
 30
0.0
 42
0.4142135623730948
  0
VERTEX
  5
1061
  8
SAPA_PROFIL
 10
87.162852062183049
 20
64.53027035003015
 30
0.0
  0
VERTEX
  5
1062
  8
SAPA_PROFIL
 10
87.162852062183049
 20
58.17860182738513
 30
0.0
 42
0.1691807452125083
  0
VERTEX
  5
1063
  8
SAPA_PROFIL
 10
87.379263460733966
 20
57.557321774849243
 30
0.0
  0
VERTEX
  5
1064
  8
SAPA_PROFIL
 10
87.627775481541946
 20
57.243886334529641
 30
0.0
 42
0.7105995019815232
  0
VERTEX
  5
1065
  8
SAPA_PROFIL
 10
88.162852062183049
 20
57.430270350030241
 30
0.0
  0
VERTEX
  5
1066
  8
SAPA_PROFIL
 10
88.162852062183049
 20
59.330270350030332
 30
0.0
 42
-0.4142135623730951
  0
VERTEX
  5
1067
  8
SAPA_PROFIL
 10
88.462852062183003
 20
59.630270350030287
 30
0.0
  0
VERTEX
  5
1068
  8
SAPA_PROFIL
 10
92.362852062183094
 20
59.630270350030287
 30
0.0
 42
-0.4142135623730951
  0
VERTEX
  5
1069
  8
SAPA_PROFIL
 10
92.662852062183035
 20
59.330270350030332
 30
0.0
  0
VERTEX
  5
106A
  8
SAPA_PROFIL
 10
92.662852062183035
 20
52.630270350030287
 30
0.0
 42
-0.4142135623730951
  0
VERTEX
  5
106B
  8
SAPA_PROFIL
 10
92.362852062182867
 20
52.330270350030332
 30
0.0
  0
VERTEX
  5
106C
  8
SAPA_PROFIL
 10
88.462852062183003
 20
52.330270350030332
 30
0.0
 42
-0.4142135623730951
  0
VERTEX
  5
106D
  8
SAPA_PROFIL
 10
88.162852062183049
 20
52.630270350030287
 30
0.0
  0
VERTEX
  5
106E
  8
SAPA_PROFIL
 10
88.162852062183049
 20
53.830270350030332
 30
0.0
 42
0.7105990647992588
  0
VERTEX
  5
106F
  8
SAPA_PROFIL
 10
87.627776062182932
 20
54.016654350030187
 30
0.0
  0
VERTEX
  5
1070
  8
SAPA_PROFIL
 10
87.379263846465676
 20
53.703219063615499
 30
0.0
 42
0.1691809048716788
  0
VERTEX
  5
1071
  8
SAPA_PROFIL
 10
87.162852062183049
 20
53.081938524575889
 30
0.0
  0
VERTEX
  5
1072
  8
SAPA_PROFIL
 10
87.162852062183049
 20
51.13027035003028
 30
0.0
 42
0.4142135623730951
  0
VERTEX
  5
1073
  8
SAPA_PROFIL
 10
87.462852062183003
 20
50.830270350030332
 30
0.0
  0
VERTEX
  5
1074
  8
SAPA_PROFIL
 10
206.66285206218291
 20
50.830270350030332
 30
0.0
 42
0.4142135623730951
  0
VERTEX
  5
1075
  8
SAPA_PROFIL
 10
207.16285206218291
 20
51.330270350030332
 30
0.0
  0
VERTEX
  5
1076
  8
SAPA_PROFIL
 10
207.16285206218291
 20
100.3302703500303
 30
0.0
 42
0.4142135623730951
  0
VERTEX
  5
1077
  8
SAPA_PROFIL
 10
206.66285206218291
 20
100.8302703500303
 30
0.0
  0
VERTEX
  5
1078
  8
SAPA_PROFIL
 10
87.462852062182947
 20
100.8302703500303
 30
0.0
 42
0.4142135623730948
  0
VERTEX
  5
1079
  8
SAPA_PROFIL
 10
87.162852062183006
 20
100.53027035003009
 30
0.0
  0
VERTEX
  5
107A
  8
SAPA_PROFIL
 10
87.162852062183006
 20
98.578601827385
 30
0.0
 42
0.1691807452125083
  0
VERTEX
  5
107B
  8
SAPA_PROFIL
 10
87.379263460733924
 20
97.957321774849106
 30
0.0
  0
VERTEX
  5
107C
  8
SAPA_PROFIL
 10
87.627775481541903
 20
97.643886334529725
 30
0.0
 42
0.7105995019815232
  0
VERTEX
  5
107D
  8
SAPA_PROFIL
 10
88.162852062183049
 20
97.830270350030332
 30
0.0
  0
VERTEX
  5
107E
  8
SAPA_PROFIL
 10
88.162852062182992
 20
99.03027035003015
 30
0.0
 42
-0.4142135623730948
  0
VERTEX
  5
107F
  8
SAPA_PROFIL
 10
88.462852062182947
 20
99.330270350030347
 30
0.0
  0
VERTEX
  5
1080
  8
SAPA_PROFIL
 10
92.362852062182824
 20
99.330270350030347
 30
0.0
 42
-0.4142135623730951
  0
VERTEX
  5
1081
  8
SAPA_PROFIL
 10
92.662852062182992
 20
99.03027035003015
 30
0.0
  0
VERTEX
  5
1082
  8
SAPA_PROFIL
 10
92.662852062182992
 20
92.330270350030332
 30
0.0
 42
-0.4142135623730951
  0
VERTEX
  5
1083
  8
SAPA_PROFIL
 10
92.362852062183023
 20
92.030270350030165
 30
0.0
  0
VERTEX
  5
1084
  8
SAPA_PROFIL
 10
88.462852062182947
 20
92.030270350030165
 30
0.0
 42
-0.414213562373095
  0
VERTEX
  5
1085
  8
SAPA_PROFIL
 10
88.162852062182992
 20
92.330270350030332
 30
0.0
  0
VERTEX
  5
1086
  8
SAPA_PROFIL
 10
88.162852062182992
 20
94.230270350030196
 30
0.0
 42
0.7105995019815232
  0
VERTEX
  5
1087
  8
SAPA_PROFIL
 10
87.627775481541946
 20
94.416654365530803
 30
0.0
  0
SEQEND
  5
1088
  8
SAPA_PROFIL
  0
POLYLINE
  5
C69
  8
SAPA_PROFIL
 66
     1
 10
0.0
 20
0.0
 30
0.0
 70
     1
  0
VERTEX
  5
1089
  8
SAPA_PROFIL
 10
89.612852062182867
 20
78.53027035003015
 30
0.0
  0
VERTEX
  5
108A
  8
SAPA_PROFIL
 10
89.612852062182867
 20
78.180270350030241
 30
0.0
 42
-0.545020779898761
  0
VERTEX
  5
108B
  8
SAPA_PROFIL
 10
89.189086655759453
 20
77.906990046728197
 30
0.0
  0
VERTEX
  5
108C
  8
SAPA_PROFIL
 10
87.812852062183126
 20
78.53027035003015
 30
0.0
  0
VERTEX
  5
108D
  8
SAPA_PROFIL
 10
87.812852062183126
 20
78.180270350030241
 30
0.0
 42
-0.54502077989874
  0
VERTEX
  5
108E
  8
SAPA_PROFIL
 10
87.389086655759513
 20
77.906990046728197
 30
0.0
  0
VERTEX
  5
108F
  8
SAPA_PROFIL
 10
86.012852062182958
 20
78.53027035003015
 30
0.0
  0
VERTEX
  5
1090
  8
SAPA_PROFIL
 10
86.012852062182958
 20
78.180270350030241
 30
0.0
 42
-0.545020779898768
  0
VERTEX
  5
1091
  8
SAPA_PROFIL
 10
85.589086655759317
 20
77.906990046728197
 30
0.0
  0
VERTEX
  5
1092
  8
SAPA_PROFIL
 10
84.212852062183003
 20
78.53027035003015
 30
0.0
  0
VERTEX
  5
1093
  8
SAPA_PROFIL
 10
84.212852062183003
 20
78.180270350030241
 30
0.0
 42
-0.5450205149791638
  0
VERTEX
  5
1094
  8
SAPA_PROFIL
 10
83.789087062183
 20
77.906990350030355
 30
0.0
  0
VERTEX
  5
1095
  8
SAPA_PROFIL
 10
82.412852062183049
 20
78.53027035003015
 30
0.0
  0
VERTEX
  5
1096
  8
SAPA_PROFIL
 10
82.412852062183049
 20
78.180270350030241
 30
0.0
 42
-0.5450207798987328
  0
VERTEX
  5
1097
  8
SAPA_PROFIL
 10
81.989086655759422
 20
77.906990046728197
 30
0.0
  0
VERTEX
  5
1098
  8
SAPA_PROFIL
 10
81.212852062183003
 20
78.258537983540919
 30
0.0
  0
VERTEX
  5
1099
  8
SAPA_PROFIL
 10
81.212852062183003
 20
73.130270350030287
 30
0.0
  0
VERTEX
  5
109A
  8
SAPA_PROFIL
 10
81.512852062182944
 20
73.130270350030287
 30
0.0
  0
VERTEX
  5
109B
  8
SAPA_PROFIL
 10
82.889087062183137
 20
73.753551350030193
 30
0.0
 42
-0.5450200690651692
  0
VERTEX
  5
109C
  8
SAPA_PROFIL
 10
83.31285206218314
 20
73.480270350030196
 30
0.0
  0
VERTEX
  5
109D
  8
SAPA_PROFIL
 10
83.31285206218314
 20
73.130270350030287
 30
0.0
  0
VERTEX
  5
109E
  8
SAPA_PROFIL
 10
84.689087062182864
 20
73.753551350030193
 30
0.0
 42
-0.5450200690651619
  0
VERTEX
  5
109F
  8
SAPA_PROFIL
 10
85.112852062183094
 20
73.480270350030196
 30
0.0
  0
VERTEX
  5
10A0
  8
SAPA_PROFIL
 10
85.112852062182867
 20
73.130270350030287
 30
0.0
  0
VERTEX
  5
10A1
  8
SAPA_PROFIL
 10
86.489087062183046
 20
73.753551350030193
 30
0.0
 42
-0.5450200690651619
  0
VERTEX
  5
10A2
  8
SAPA_PROFIL
 10
86.912852062183049
 20
73.480270350030196
 30
0.0
  0
VERTEX
  5
10A3
  8
SAPA_PROFIL
 10
86.912852062183049
 20
73.130270350030287
 30
0.0
  0
VERTEX
  5
10A4
  8
SAPA_PROFIL
 10
88.289087062183
 20
73.753551350030193
 30
0.0
 42
-0.5450200690651692
  0
VERTEX
  5
10A5
  8
SAPA_PROFIL
 10
88.712852062183003
 20
73.480270350030196
 30
0.0
  0
VERTEX
  5
10A6
  8
SAPA_PROFIL
 10
88.712852062183003
 20
73.130270350030287
 30
0.0
  0
VERTEX
  5
10A7
  8
SAPA_PROFIL
 10
90.089087062182955
 20
73.753551350030193
 30
0.0
 42
-0.5450200690651551
  0
VERTEX
  5
10A8
  8
SAPA_PROFIL
 10
90.512852062182944
 20
73.480270350030196
 30
0.0
  0
VERTEX
  5
10A9
  8
SAPA_PROFIL
 10
90.512852062182944
 20
73.130270350030287
 30
0.0
  0
VERTEX
  5
10AA
  8
SAPA_PROFIL
 10
91.662852062183035
 20
73.130270350030287
 30
0.0
 42
0.4142135623730951
  0
VERTEX
  5
10AB
  8
SAPA_PROFIL
 10
92.662852062183035
 20
74.130270350030287
 30
0.0
  0
VERTEX
  5
10AC
  8
SAPA_PROFIL
 10
92.662852062183035
 20
77.53027035003015
 30
0.0
 42
0.4142135623730951
  0
VERTEX
  5
10AD
  8
SAPA_PROFIL
 10
91.662852062183035
 20
78.53027035003015
 30
0.0
  0
VERTEX
  5
10AE
  8
SAPA_PROFIL
 10
91.412852062183035
 20
78.53027035003015
 30
0.0
  0
VERTEX
  5
10AF
  8
SAPA_PROFIL
 10
91.412852062183035
 20
78.180270350030241
 30
0.0
 42
-0.5450207798987328
  0
VERTEX
  5
10B0
  8
SAPA_PROFIL
 10
90.989086655759422
 20
77.906990046728197
 30
0.0
  0
SEQEND
  5
10B1
  8
SAPA_PROFIL
  0
POLYLINE
  5
C6A
  8
SAPA_PROFIL
 66
     1
 10
0.0
 20
0.0
 30
0.0
 70
     1
  0
VERTEX
  5
10B2
  8
SAPA_PROFIL
 10
202.66285206218291
 20
98.630270350030287
 30
0.0
  0
VERTEX
  5
10B3
  8
SAPA_PROFIL
 10
200.4871161308948
 20
98.630270350030287
 30
0.0
 42
0.1989123673796407
  0
VERTEX
  5
10B4
  8
SAPA_PROFIL
 10
200.27498409653879
 20
98.542402384386151
 30
0.0
  0
VERTEX
  5
10B5
  8
SAPA_PROFIL
 10
198.75072002782699
 20
97.01813831567415
 30
0.0
 42
-0.1989123673796753
  0
VERTEX
  5
10B6
  8
SAPA_PROFIL
 10
198.53858799347091
 20
96.930270350030256
 30
0.0
  0
VERTEX
  5
10B7
  8
SAPA_PROFIL
 10
197.9628520621828
 20
96.930270350030256
 30
0.0
 42
-0.4142135623730951
  0
VERTEX
  5
10B8
  8
SAPA_PROFIL
 10
197.66285206218291
 20
97.23027035003021
 30
0.0
  0
VERTEX
  5
10B9
  8
SAPA_PROFIL
 10
197.66285206218291
 20
98.330270350030347
 30
0.0
 42
0.4142135623730951
  0
VERTEX
  5
10BA
  8
SAPA_PROFIL
 10
197.3628520621827
 20
98.630270350030287
 30
0.0
  0
VERTEX
  5
10BB
  8
SAPA_PROFIL
 10
194.9628520621828
 20
98.630270350030074
 30
0.0
 42
0.4142135623730951
  0
VERTEX
  5
10BC
  8
SAPA_PROFIL
 10
194.66285206218279
 20
98.330270350030347
 30
0.0
  0
VERTEX
  5
10BD
  8
SAPA_PROFIL
 10
194.66285206218279
 20
97.23027035003021
 30
0.0
 42
-0.4142135623730951
  0
VERTEX
  5
10BE
  8
SAPA_PROFIL
 10
194.3628520621827
 20
96.930270350030256
 30
0.0
  0
VERTEX
  5
10BF
  8
SAPA_PROFIL
 10
193.78711613089479
 20
96.930270350030256
 30
0.0
 42
-0.198912367379658
  0
VERTEX
  5
10C0
  8
SAPA_PROFIL
 10
193.57498409653871
 20
97.01813831567415
 30
0.0
  0
VERTEX
  5
10C1
  8
SAPA_PROFIL
 10
192.05072002782671
 20
98.542402384386151
 30
0.0
 42
0.198912367379658
  0
VERTEX
  5
10C2
  8
SAPA_PROFIL
 10
191.8385879934707
 20
98.630270350030287
 30
0.0
  0
VERTEX
  5
10C3
  8
SAPA_PROFIL
 10
152.66285206218299
 20
98.630270350030287
 30
0.0
 42
0.4142135623730951
  0
VERTEX
  5
10C4
  8
SAPA_PROFIL
 10
151.66285206218299
 20
97.630270350030287
 30
0.0
  0
VERTEX
  5
10C5
  8
SAPA_PROFIL
 10
151.66285206218299
 20
93.430270350030227
 30
0.0
 42
-0.4142135623730951
  0
VERTEX
  5
10C6
  8
SAPA_PROFIL
 10
151.36285206218281
 20
93.130270350030287
 30
0.0
  0
VERTEX
  5
10C7
  8
SAPA_PROFIL
 10
149.06285206218311
 20
93.130270350030287
 30
0.0
 42
-0.4142135623730951
  0
VERTEX
  5
10C8
  8
SAPA_PROFIL
 10
148.7628520621829
 20
93.430270350030227
 30
0.0
  0
VERTEX
  5
10C9
  8
SAPA_PROFIL
 10
148.7628520621829
 20
93.930270350030241
 30
0.0
 42
-0.4142135623730951
  0
VERTEX
  5
10CA
  8
SAPA_PROFIL
 10
149.06285206218311
 20
94.230270350030196
 30
0.0
  0
VERTEX
  5
10CB
  8
SAPA_PROFIL
 10
149.39947898681751
 20
94.230270350030196
 30
0.0
 42
0.5535245743249297
  0
VERTEX
  5
10CC
  8
SAPA_PROFIL
 10
147.62695966430761
 20
98.540824561561521
 30
0.0
  0
VERTEX
  5
10CD
  8
SAPA_PROFIL
 10
147.3396287574796
 20
98.253493654733575
 30
0.0
 42
-0.4142135623729421
  0
VERTEX
  5
10CE
  8
SAPA_PROFIL
 10
146.9860753668863
 20
98.253493654733575
 30
0.0
  0
VERTEX
  5
10CF
  8
SAPA_PROFIL
 10
146.69874446005829
 20
98.540824561561521
 30
0.0
 42
0.5535245743249292
  0
VERTEX
  5
10D0
  8
SAPA_PROFIL
 10
144.9262251375485
 20
94.230270350030196
 30
0.0
  0
VERTEX
  5
10D1
  8
SAPA_PROFIL
 10
145.2628520621829
 20
94.230270350030196
 30
0.0
 42
-0.4142135623730951
  0
VERTEX
  5
10D2
  8
SAPA_PROFIL
 10
145.56285206218311
 20
93.930270350030241
 30
0.0
  0
VERTEX
  5
10D3
  8
SAPA_PROFIL
 10
145.56285206218311
 20
93.430270350030227
 30
0.0
 42
-0.4142135623730951
  0
VERTEX
  5
10D4
  8
SAPA_PROFIL
 10
145.2628520621829
 20
93.130270350030287
 30
0.0
  0
VERTEX
  5
10D5
  8
SAPA_PROFIL
 10
144.16285206218299
 20
93.130270350030287
 30
0.0
 42
-0.4142135623730951
  0
VERTEX
  5
10D6
  8
SAPA_PROFIL
 10
142.66285206218299
 20
94.630270350030287
 30
0.0
  0
VERTEX
  5
10D7
  8
SAPA_PROFIL
 10
142.66285206218299
 20
97.264244946245753
 30
0.0
 42
-0.267949192431143
  0
VERTEX
  5
10D8
  8
SAPA_PROFIL
 10
142.91285206218299
 20
97.69725764813802
 30
0.0
 42
0.767326987978956
  0
VERTEX
  5
10D9
  8
SAPA_PROFIL
 10
142.66285206218299
 20
98.630270350030287
 30
0.0
  0
VERTEX
  5
10DA
  8
SAPA_PROFIL
 10
107.66285206218301
 20
98.630270350030287
 30
0.0
 42
0.4142135623730951
  0
VERTEX
  5
10DB
  8
SAPA_PROFIL
 10
106.66285206218301
 20
97.630270350030287
 30
0.0
  0
VERTEX
  5
10DC
  8
SAPA_PROFIL
 10
106.66285206218301
 20
93.430270350030227
 30
0.0
 42
-0.4142135623730951
  0
VERTEX
  5
10DD
  8
SAPA_PROFIL
 10
106.36285206218299
 20
93.130270350030287
 30
0.0
  0
VERTEX
  5
10DE
  8
SAPA_PROFIL
 10
104.0628520621831
 20
93.130270350030287
 30
0.0
 42
-0.4142135623730951
  0
VERTEX
  5
10DF
  8
SAPA_PROFIL
 10
103.7628520621829
 20
93.430270350030227
 30
0.0
  0
VERTEX
  5
10E0
  8
SAPA_PROFIL
 10
103.7628520621829
 20
93.930270350030241
 30
0.0
 42
-0.4142135623730951
  0
VERTEX
  5
10E1
  8
SAPA_PROFIL
 10
104.0628520621831
 20
94.230270350030196
 30
0.0
  0
VERTEX
  5
10E2
  8
SAPA_PROFIL
 10
104.3994789868175
 20
94.230270350030196
 30
0.0
 42
0.5535245743249297
  0
VERTEX
  5
10E3
  8
SAPA_PROFIL
 10
102.62695966430761
 20
98.540824561561521
 30
0.0
  0
VERTEX
  5
10E4
  8
SAPA_PROFIL
 10
102.3396287574796
 20
98.253493654733575
 30
0.0
 42
-0.4142135623730243
  0
VERTEX
  5
10E5
  8
SAPA_PROFIL
 10
101.9860753668863
 20
98.253493654733575
 30
0.0
  0
VERTEX
  5
10E6
  8
SAPA_PROFIL
 10
101.69874446005829
 20
98.540824561561521
 30
0.0
 42
0.5535245743249292
  0
VERTEX
  5
10E7
  8
SAPA_PROFIL
 10
99.926225137548499
 20
94.230270350030196
 30
0.0
  0
VERTEX
  5
10E8
  8
SAPA_PROFIL
 10
100.2628520621829
 20
94.230270350030196
 30
0.0
 42
-0.4142135623730951
  0
VERTEX
  5
10E9
  8
SAPA_PROFIL
 10
100.5628520621831
 20
93.930270350030241
 30
0.0
  0
VERTEX
  5
10EA
  8
SAPA_PROFIL
 10
100.5628520621831
 20
93.430270350030227
 30
0.0
 42
-0.4142135623730951
  0
VERTEX
  5
10EB
  8
SAPA_PROFIL
 10
100.2628520621829
 20
93.130270350030287
 30
0.0
  0
VERTEX
  5
10EC
  8
SAPA_PROFIL
 10
99.162852062182992
 20
93.130270350030287
 30
0.0
 42
-0.4142135623730951
  0
VERTEX
  5
10ED
  8
SAPA_PROFIL
 10
97.662852062182992
 20
94.630270350030287
 30
0.0
  0
VERTEX
  5
10EE
  8
SAPA_PROFIL
 10
97.662852062182992
 20
97.610655107759627
 30
0.0
 42
-0.2679491924311188
  0
VERTEX
  5
10EF
  8
SAPA_PROFIL
 10
97.812852062183083
 20
97.870462728894836
 30
0.0
 42
0.7673269879789557
  0
VERTEX
  5
10F0
  8
SAPA_PROFIL
 10
97.662852062182992
 20
98.430270350030256
 30
0.0
  0
VERTEX
  5
10F1
  8
SAPA_PROFIL
 10
95.662852062182992
 20
98.430270350029787
 30
0.0
 42
0.4142137811865366
  0
VERTEX
  5
10F2
  8
SAPA_PROFIL
 10
94.662852062183006
 20
97.43027109710556
 30
0.0
  0
VERTEX
  5
10F3
  8
SAPA_PROFIL
 10
94.662852062183049
 20
54.230270350030203
 30
0.0
 42
0.4142140000000124
  0
VERTEX
  5
10F4
  8
SAPA_PROFIL
 10
95.662852062183049
 20
53.230270350030189
 30
0.0
  0
VERTEX
  5
10F5
  8
SAPA_PROFIL
 10
97.662852062183063
 20
53.230270350030189
 30
0.0
 42
0.7673269879789457
  0
VERTEX
  5
10F6
  8
SAPA_PROFIL
 10
97.812852062183126
 20
53.790077971165367
 30
0.0
 42
-0.2679491924311191
  0
VERTEX
  5
10F7
  8
SAPA_PROFIL
 10
97.662852062183063
 20
54.049885592300832
 30
0.0
  0
VERTEX
  5
10F8
  8
SAPA_PROFIL
 10
97.662852062183063
 20
57.03027035003015
 30
0.0
 42
-0.4142135623730951
  0
VERTEX
  5
10F9
  8
SAPA_PROFIL
 10
99.162852062183035
 20
58.53027035003015
 30
0.0
  0
VERTEX
  5
10FA
  8
SAPA_PROFIL
 10
100.2628520621829
 20
58.53027035003015
 30
0.0
 42
-0.4142135623730951
  0
VERTEX
  5
10FB
  8
SAPA_PROFIL
 10
100.5628520621831
 20
58.230270350030189
 30
0.0
  0
VERTEX
  5
10FC
  8
SAPA_PROFIL
 10
100.5628520621831
 20
57.730270350030189
 30
0.0
 42
-0.4142135623730951
  0
VERTEX
  5
10FD
  8
SAPA_PROFIL
 10
100.2628520621829
 20
57.430270350030241
 30
0.0
  0
VERTEX
  5
10FE
  8
SAPA_PROFIL
 10
99.926225137548556
 20
57.430270350030241
 30
0.0
 42
0.5535245743249307
  0
VERTEX
  5
10FF
  8
SAPA_PROFIL
 10
101.69874446005841
 20
53.119716138498909
 30
0.0
  0
VERTEX
  5
1100
  8
SAPA_PROFIL
 10
101.9860753668863
 20
53.407047045326863
 30
0.0
 42
-0.4142135623730951
  0
VERTEX
  5
1101
  8
SAPA_PROFIL
 10
102.3396287574797
 20
53.407047045326863
 30
0.0
  0
VERTEX
  5
1102
  8
SAPA_PROFIL
 10
102.62695966430761
 20
53.119716138498909
 30
0.0
 42
0.553524574324932
  0
VERTEX
  5
1103
  8
SAPA_PROFIL
 10
104.3994789868175
 20
57.430270350030241
 30
0.0
  0
VERTEX
  5
1104
  8
SAPA_PROFIL
 10
104.0628520621831
 20
57.430270350030241
 30
0.0
 42
-0.4142135623730951
  0
VERTEX
  5
1105
  8
SAPA_PROFIL
 10
103.7628520621829
 20
57.730270350030189
 30
0.0
  0
VERTEX
  5
1106
  8
SAPA_PROFIL
 10
103.7628520621829
 20
58.230270350030189
 30
0.0
 42
-0.4142135623730951
  0
VERTEX
  5
1107
  8
SAPA_PROFIL
 10
104.0628520621831
 20
58.53027035003015
 30
0.0
  0
VERTEX
  5
1108
  8
SAPA_PROFIL
 10
106.36285206218309
 20
58.53027035003015
 30
0.0
 42
-0.4142135623730951
  0
VERTEX
  5
1109
  8
SAPA_PROFIL
 10
106.66285206218301
 20
58.230270350030189
 30
0.0
  0
VERTEX
  5
110A
  8
SAPA_PROFIL
 10
106.66285206218301
 20
54.03027035003015
 30
0.0
 42
0.4142135623730951
  0
VERTEX
  5
110B
  8
SAPA_PROFIL
 10
107.66285206218301
 20
53.03027035003015
 30
0.0
  0
VERTEX
  5
110C
  8
SAPA_PROFIL
 10
142.66285206218299
 20
53.03027035003015
 30
0.0
 42
0.7673269879789505
  0
VERTEX
  5
110D
  8
SAPA_PROFIL
 10
142.91285206218299
 20
53.963283051922637
 30
0.0
 42
-0.2679491924311202
  0
VERTEX
  5
110E
  8
SAPA_PROFIL
 10
142.66285206218299
 20
54.396295753814677
 30
0.0
  0
VERTEX
  5
110F
  8
SAPA_PROFIL
 10
142.66285206218299
 20
57.03027035003015
 30
0.0
 42
-0.4142135623730951
  0
VERTEX
  5
1110
  8
SAPA_PROFIL
 10
144.16285206218299
 20
58.53027035003015
 30
0.0
  0
VERTEX
  5
1111
  8
SAPA_PROFIL
 10
145.2628520621829
 20
58.53027035003015
 30
0.0
 42
-0.4142135623730951
  0
VERTEX
  5
1112
  8
SAPA_PROFIL
 10
145.56285206218311
 20
58.230270350030189
 30
0.0
  0
VERTEX
  5
1113
  8
SAPA_PROFIL
 10
145.56285206218311
 20
57.730270350030189
 30
0.0
 42
-0.4142135623730951
  0
VERTEX
  5
1114
  8
SAPA_PROFIL
 10
145.2628520621829
 20
57.430270350030241
 30
0.0
  0
VERTEX
  5
1115
  8
SAPA_PROFIL
 10
144.9262251375485
 20
57.430270350030241
 30
0.0
 42
0.5535245743249307
  0
VERTEX
  5
1116
  8
SAPA_PROFIL
 10
146.69874446005829
 20
53.119716138498909
 30
0.0
  0
VERTEX
  5
1117
  8
SAPA_PROFIL
 10
146.9860753668863
 20
53.407047045326863
 30
0.0
 42
-0.4142135623731068
  0
VERTEX
  5
1118
  8
SAPA_PROFIL
 10
147.3396287574796
 20
53.407047045326863
 30
0.0
  0
VERTEX
  5
1119
  8
SAPA_PROFIL
 10
147.62695966430761
 20
53.119716138498909
 30
0.0
 42
0.553524574324932
  0
VERTEX
  5
111A
  8
SAPA_PROFIL
 10
149.39947898681751
 20
57.430270350030241
 30
0.0
  0
VERTEX
  5
111B
  8
SAPA_PROFIL
 10
149.06285206218311
 20
57.430270350030241
 30
0.0
 42
-0.4142135623730951
  0
VERTEX
  5
111C
  8
SAPA_PROFIL
 10
148.7628520621829
 20
57.730270350030189
 30
0.0
  0
VERTEX
  5
111D
  8
SAPA_PROFIL
 10
148.7628520621829
 20
58.230270350030189
 30
0.0
 42
-0.4142135623730951
  0
VERTEX
  5
111E
  8
SAPA_PROFIL
 10
149.06285206218311
 20
58.53027035003015
 30
0.0
  0
VERTEX
  5
111F
  8
SAPA_PROFIL
 10
151.36285206218281
 20
58.53027035003015
 30
0.0
 42
-0.4142135623730951
  0
VERTEX
  5
1120
  8
SAPA_PROFIL
 10
151.66285206218299
 20
58.230270350030189
 30
0.0
  0
VERTEX
  5
1121
  8
SAPA_PROFIL
 10
151.66285206218299
 20
54.03027035003015
 30
0.0
 42
0.4142135623730951
  0
VERTEX
  5
1122
  8
SAPA_PROFIL
 10
152.66285206218299
 20
53.03027035003015
 30
0.0
  0
VERTEX
  5
1123
  8
SAPA_PROFIL
 10
191.8385879934707
 20
53.03027035003015
 30
0.0
 42
0.198912367379658
  0
VERTEX
  5
1124
  8
SAPA_PROFIL
 10
192.05072002782671
 20
53.118138315674287
 30
0.0
  0
VERTEX
  5
1125
  8
SAPA_PROFIL
 10
193.57498409653849
 20
54.642402384386287
 30
0.0
 42
-0.1989123673797102
  0
VERTEX
  5
1126
  8
SAPA_PROFIL
 10
193.78711613089479
 20
54.730270350030423
 30
0.0
  0
VERTEX
  5
1127
  8
SAPA_PROFIL
 10
194.3628520621827
 20
54.730270350030203
 30
0.0
 42
-0.4142135623730951
  0
VERTEX
  5
1128
  8
SAPA_PROFIL
 10
194.66285206218279
 20
54.430270350030241
 30
0.0
  0
VERTEX
  5
1129
  8
SAPA_PROFIL
 10
194.66285206218279
 20
53.330270350030332
 30
0.0
 42
0.4142135623730951
  0
VERTEX
  5
112A
  8
SAPA_PROFIL
 10
194.9628520621828
 20
53.03027035003015
 30
0.0
  0
VERTEX
  5
112B
  8
SAPA_PROFIL
 10
197.3628520621827
 20
53.03027035003015
 30
0.0
 42
0.4142135623730951
  0
VERTEX
  5
112C
  8
SAPA_PROFIL
 10
197.66285206218291
 20
53.330270350030332
 30
0.0
  0
VERTEX
  5
112D
  8
SAPA_PROFIL
 10
197.66285206218291
 20
54.430270350030241
 30
0.0
 42
-0.4142135623730951
  0
VERTEX
  5
112E
  8
SAPA_PROFIL
 10
197.9628520621828
 20
54.730270350030203
 30
0.0
  0
VERTEX
  5
112F
  8
SAPA_PROFIL
 10
198.53858799347091
 20
54.730270350030203
 30
0.0
 42
-0.1989123673796752
  0
VERTEX
  5
1130
  8
SAPA_PROFIL
 10
198.75072002782679
 20
54.642402384386052
 30
0.0
  0
VERTEX
  5
1131
  8
SAPA_PROFIL
 10
200.27498409653879
 20
53.118138315674287
 30
0.0
 42
0.1989123673797102
  0
VERTEX
  5
1132
  8
SAPA_PROFIL
 10
200.4871161308948
 20
53.03027035003015
 30
0.0
  0
VERTEX
  5
1133
  8
SAPA_PROFIL
 10
202.66285206218291
 20
53.03027035003015
 30
0.0
 42
0.4142135623730951
  0
VERTEX
  5
1134
  8
SAPA_PROFIL
 10
203.66285206218291
 20
54.03027035003015
 30
0.0
  0
VERTEX
  5
1135
  8
SAPA_PROFIL
 10
203.66285206218291
 20
97.630270350030287
 30
0.0
 42
0.4142135623730951
  0
SEQEND
  5
1136
  8
SAPA_PROFIL
  0
POLYLINE
  5
C6B
  8
SAPA_PROFIL
 66
     1
 10
0.0
 20
0.0
 30
0.0
 70
     1
  0
VERTEX
  5
1137
  8
SAPA_PROFIL
 10
15.56437699097777
 20
98.630270350029605
 30
0.0
  0
VERTEX
  5
1138
  8
SAPA_PROFIL
 10
15.56437699097777
 20
99.630270350029605
 30
0.0
  0
VERTEX
  5
1139
  8
SAPA_PROFIL
 10
18.164376990977939
 20
99.630270350029605
 30
0.0
 42
0.4142135623730951
  0
VERTEX
  5
113A
  8
SAPA_PROFIL
 10
18.664376990977939
 20
100.1302703500296
 30
0.0
  0
VERTEX
  5
113B
  8
SAPA_PROFIL
 10
18.664376990977939
 20
100.5302703500297
 30
0.0
 42
0.4142135623730951
  0
VERTEX
  5
113C
  8
SAPA_PROFIL
 10
18.364376990977991
 20
100.83027035002959
 30
0.0
  0
VERTEX
  5
113D
  8
SAPA_PROFIL
 10
0.6628520631752936
 20
100.83027035002959
 30
0.0
 42
0.4142135623730951
  0
VERTEX
  5
113E
  8
SAPA_PROFIL
 10
0.1628520631752934
 20
100.33027035002959
 30
0.0
  0
VERTEX
  5
113F
  8
SAPA_PROFIL
 10
0.1628520631753041
 20
51.33027035002965
 30
0.0
 42
0.4142135623730951
  0
VERTEX
  5
1140
  8
SAPA_PROFIL
 10
0.6628520631753059
 20
50.83027035002965
 30
0.0
  0
VERTEX
  5
1141
  8
SAPA_PROFIL
 10
18.364376990977998
 20
50.830270350029657
 30
0.0
 42
0.4142135623730951
  0
VERTEX
  5
1142
  8
SAPA_PROFIL
 10
18.664376990977949
 20
51.130270350029612
 30
0.0
  0
VERTEX
  5
1143
  8
SAPA_PROFIL
 10
18.664376990977949
 20
51.530270350029703
 30
0.0
 42
0.4142135623730951
  0
VERTEX
  5
1144
  8
SAPA_PROFIL
 10
18.164376990977949
 20
52.030270350029703
 30
0.0
  0
VERTEX
  5
1145
  8
SAPA_PROFIL
 10
15.56437699097779
 20
52.030270350029703
 30
0.0
  0
VERTEX
  5
1146
  8
SAPA_PROFIL
 10
15.56437699097779
 20
53.030270350029703
 30
0.0
  0
VERTEX
  5
1147
  8
SAPA_PROFIL
 10
14.560344231344789
 20
53.60993112845086
 30
0.0
 42
0.4155392929676362
  0
VERTEX
  5
1148
  8
SAPA_PROFIL
 10
13.46572525955281
 20
53.31395770214499
 30
0.0
  0
VERTEX
  5
1149
  8
SAPA_PROFIL
 10
12.724588021253849
 20
52.030270350029703
 30
0.0
  0
VERTEX
  5
114A
  8
SAPA_PROFIL
 10
2.5628520631751668
 20
52.030270350029689
 30
0.0
 42
-0.4142135623730951
  0
VERTEX
  5
114B
  8
SAPA_PROFIL
 10
1.562852063175167
 20
53.030270350029689
 30
0.0
  0
VERTEX
  5
114C
  8
SAPA_PROFIL
 10
1.5628520631751579
 20
98.630270350029605
 30
0.0
 42
-0.4142135623730951
  0
VERTEX
  5
114D
  8
SAPA_PROFIL
 10
2.562852063175157
 20
99.630270350029605
 30
0.0
  0
VERTEX
  5
114E
  8
SAPA_PROFIL
 10
12.72458802125383
 20
99.630270350029605
 30
0.0
  0
VERTEX
  5
114F
  8
SAPA_PROFIL
 10
13.4657252595528
 20
98.346582997914311
 30
0.0
 42
0.4155392929676362
  0
VERTEX
  5
1150
  8
SAPA_PROFIL
 10
14.56034423134478
 20
98.050609571608447
 30
0.0
  0
SEQEND
  5
1151
  8
SAPA_PROFIL
  0
POLYLINE
  5
C75
  8
SAPA_GLAS
 66
     1
 10
0.0
 20
0.0
 30
0.0
  0
VERTEX
  5
116D
  8
SAPA_GLAS
 10
48.162852063173332
 20
34.830270350034979
 30
0.0
  0
VERTEX
  5
116E
  8
SAPA_GLAS
 10
48.162852063173339
 20
64.830270350034979
 30
0.0
  0
VERTEX
  5
116F
  8
SAPA_GLAS
 10
52.162852063173332
 20
64.830270350034979
 30
0.0
  0
VERTEX
  5
1170
  8
SAPA_GLAS
 10
52.162852063173332
 20
34.830270350034979
 30
0.0
  0
SEQEND
  5
1171
  8
SAPA_GLAS
  0
POLYLINE
  5
C76
  8
SAPA_GLAS
 66
     1
 10
0.0
 20
0.0
 30
0.0
  0
VERTEX
  5
1172
  8
SAPA_GLAS
 10
24.162852063173329
 20
34.830270350034993
 30
0.0
  0
VERTEX
  5
1173
  8
SAPA_GLAS
 10
24.162852063173339
 20
64.830270350034993
 30
0.0
  0
VERTEX
  5
1174
  8
SAPA_GLAS
 10
32.162852063173339
 20
64.830270350034993
 30
0.0
  0
VERTEX
  5
1175
  8
SAPA_GLAS
 10
32.162852063173332
 20
34.830270350034993
 30
0.0
  0
SEQEND
  5
1176
  8
SAPA_GLAS
  0
POLYLINE
  5
C77
  8
SAPA_GLAS
 66
     1
 10
0.0
 20
0.0
 30
0.0
  0
VERTEX
  5
1177
  8
SAPA_GLAS
 10
68.162852063174924
 20
34.83027035003407
 30
0.0
  0
VERTEX
  5
1178
  8
SAPA_GLAS
 10
68.162852063174924
 20
64.83027035003407
 30
0.0
  0
VERTEX
  5
1179
  8
SAPA_GLAS
 10
74.162852063174924
 20
64.83027035003407
 30
0.0
  0
VERTEX
  5
117A
  8
SAPA_GLAS
 10
74.162852063174924
 20
34.83027035003407
 30
0.0
  0
SEQEND
  5
117B
  8
SAPA_GLAS
  0
POLYLINE
  5
C78
  8
SAPA_GLAS
 66
     1
 10
0.0
 20
0.0
 30
0.0
  0
VERTEX
  5
117C
  8
SAPA_GLAS
 10
32.162852063174917
 20
54.830270350034979
 30
0.0
  0
VERTEX
  5
117D
  8
SAPA_GLAS
 10
48.162852063174917
 20
54.830270350034979
 30
0.0
  0
VERTEX
  5
117E
  8
SAPA_GLAS
 10
48.162852063174931
 20
64.83027035003407
 30
0.0
  0
VERTEX
  5
117F
  8
SAPA_GLAS
 10
32.162852063174931
 20
64.830270350034084
 30
0.0
  0
VERTEX
  5
1180
  8
SAPA_GLAS
 10
32.162852063174917
 20
54.830270350034979
 30
0.0
  0
SEQEND
  5
1181
  8
SAPA_GLAS
  0
POLYLINE
  5
C79
  8
SAPA_GLAS
 66
     1
 10
0.0
 20
0.0
 30
0.0
  0
VERTEX
  5
1182
  8
SAPA_GLAS
 10
52.162852063174917
 20
54.830270350034979
 30
0.0
  0
VERTEX
  5
1183
  8
SAPA_GLAS
 10
68.162852063174924
 20
54.830270350034979
 30
0.0
  0
VERTEX
  5
1184
  8
SAPA_GLAS
 10
68.162852063174924
 20
64.83027035003407
 30
0.0
  0
VERTEX
  5
1185
  8
SAPA_GLAS
 10
52.162852063174931
 20
64.83027035003407
 30
0.0
  0
VERTEX
  5
1186
  8
SAPA_GLAS
 10
52.162852063174917
 20
54.830270350034979
 30
0.0
  0
SEQEND
  5
1187
  8
SAPA_GLAS
  0
LINE
  5
C81
  8
SAPA_FYLLNING
 10
195.16285206218311
 20
101.8302703500301
 30
0.0
 11
195.16285206218299
 21
150.8302703500301
 31
0.0
  0
POLYLINE
  5
C82
  8
SAPA_FYLLNING
 66
     1
 10
0.0
 20
0.0
 30
0.0
  0
VERTEX
  5
11A8
  8
SAPA_FYLLNING
 10
193.66285206218299
 20
150.8302703500301
 30
0.0
  0
VERTEX
  5
11A9
  8
SAPA_FYLLNING
 10
193.66285206218299
 20
101.8302703500301
 30
0.0
  0
VERTEX
  5
11AA
  8
SAPA_FYLLNING
 10
205.16285206218311
 20
101.8302703500301
 30
0.0
  0
VERTEX
  5
11AB
  8
SAPA_FYLLNING
 10
205.16285206218311
 20
150.8302703500301
 30
0.0
  0
SEQEND
  5
11AC
  8
SAPA_FYLLNING
  0
POLYLINE
  5
C83
  8
SAPA_FYLLNING
 66
     1
 10
0.0
 20
0.0
 30
0.0
  0
VERTEX
  5
11AD
  8
SAPA_FYLLNING
 10
84.680093392260005
 20
86.530270715283223
 30
0.0
 42
0.9999999999999998
  0
VERTEX
  5
11AE
  8
SAPA_FYLLNING
 10
84.680093406248488
 20
91.495788041141168
 30
0.0
  0
VERTEX
  5
11AF
  8
SAPA_FYLLNING
 10
59.604231530049219
 20
91.495788195711611
 30
0.0
 42
-0.9999999999999998
  0
VERTEX
  5
11B0
  8
SAPA_FYLLNING
 10
59.604231530049219
 20
96.461305419713426
 30
0.0
  0
VERTEX
  5
11B1
  8
SAPA_FYLLNING
 10
84.680093406248488
 20
96.461305265142983
 30
0.0
 42
1.0
  0
VERTEX
  5
11B2
  8
SAPA_FYLLNING
 10
84.680093427230531
 20
101.4268224891411
 30
0.0
  0
VERTEX
  5
11B3
  8
SAPA_FYLLNING
 10
59.604231558026193
 20
101.4268226437116
 30
0.0
 42
-0.9999999999999998
  0
VERTEX
  5
11B4
  8
SAPA_FYLLNING
 10
59.604231558026193
 20
106.3923398677134
 30
0.0
  0
VERTEX
  5
11B5
  8
SAPA_FYLLNING
 10
84.680093434224545
 20
106.3923396112868
 30
0.0
 42
0.9999999999999998
  0
VERTEX
  5
11B6
  8
SAPA_FYLLNING
 10
84.680093448212574
 20
111.3578569371448
 30
0.0
  0
VERTEX
  5
11B7
  8
SAPA_FYLLNING
 10
59.604231572014221
 20
111.3578570917152
 30
0.0
 42
-0.9999999999999998
  0
VERTEX
  5
11B8
  8
SAPA_FYLLNING
 10
59.604231572014221
 20
116.323374315717
 30
0.0
  0
VERTEX
  5
11B9
  8
SAPA_FYLLNING
 10
84.680093448212574
 20
116.3233741611466
 30
0.0
 42
1.0
  0
VERTEX
  5
11BA
  8
SAPA_FYLLNING
 10
84.680093469194617
 20
121.28889138514479
 30
0.0
  0
VERTEX
  5
11BB
  8
SAPA_FYLLNING
 10
59.604231599990271
 20
121.28889153971519
 30
0.0
 42
-0.9999999999999998
  0
VERTEX
  5
11BC
  8
SAPA_FYLLNING
 10
59.604231599990271
 20
126.254408763717
 30
0.0
  0
VERTEX
  5
11BD
  8
SAPA_FYLLNING
 10
84.680093476188631
 20
126.25440850729041
 30
0.0
 42
0.9999999999999998
  0
VERTEX
  5
11BE
  8
SAPA_FYLLNING
 10
84.68009349017666
 20
131.21992583314841
 30
0.0
  0
VERTEX
  5
11BF
  8
SAPA_FYLLNING
 10
59.6042316139783
 20
131.2199259877188
 30
0.0
 42
-0.9999999999999998
  0
VERTEX
  5
11C0
  8
SAPA_FYLLNING
 10
59.6042316139783
 20
136.1854432117207
 30
0.0
  0
VERTEX
  5
11C1
  8
SAPA_FYLLNING
 10
84.68009349017666
 20
136.1854430571502
 30
0.0
 42
1.0000000000000011
  0
VERTEX
  5
11C2
  8
SAPA_FYLLNING
 10
84.680093511158702
 20
141.1509602811484
 30
0.0
  0
VERTEX
  5
11C3
  8
SAPA_FYLLNING
 10
59.604231641954357
 20
141.15096043571879
 30
0.0
 42
-0.9999999999999998
  0
VERTEX
  5
11C4
  8
SAPA_FYLLNING
 10
59.604231641954357
 20
146.1164776597206
 30
0.0
  0
VERTEX
  5
11C5
  8
SAPA_FYLLNING
 10
84.680093518152717
 20
146.116477403294
 30
0.0
 42
0.9999999999999998
  0
VERTEX
  5
11C6
  8
SAPA_FYLLNING
 10
84.680093532140745
 20
151.081994729152
 30
0.0
  0
SEQEND
  5
11C7
  8
SAPA_FYLLNING
  0
POLYLINE
  5
C92
  8
SAPA_ISOLATOR
 66
     1
 10
0.0
 20
0.0
 30
0.0
 70
     1
  0
VERTEX
  5
1244
  8
SAPA_ISOLATOR
 10
64.427774007511744
 20
84.66421773617671
 30
0.0
 42
-0.2133140774071598
  0
VERTEX
  5
1245
  8
SAPA_ISOLATOR
 10
65.917936539249695
 20
85.330270350031157
 30
0.0
  0
VERTEX
  5
1246
  8
SAPA_ISOLATOR
 10
66.089793447908619
 20
85.330270350031157
 30
0.0
 42
0.9999999999999998
  0
VERTEX
  5
1247
  8
SAPA_ISOLATOR
 10
66.089793447908619
 20
85.830270350031157
 30
0.0
  0
VERTEX
  5
1248
  8
SAPA_ISOLATOR
 10
65.130668908622056
 20
85.830270350031157
 30
0.0
 42
0.2072397715914422
  0
VERTEX
  5
1249
  8
SAPA_ISOLATOR
 10
63.307264865701647
 20
85.040591283733889
 30
0.0
 42
0.1421101772925093
  0
VERTEX
  5
124A
  8
SAPA_ISOLATOR
 10
61.162852062183212
 20
80.830270350031157
 30
0.0
  0
VERTEX
  5
124B
  8
SAPA_ISOLATOR
 10
62.975017306728198
 20
80.830270350031157
 30
0.0
 42
-0.1860725815673001
  0
SEQEND
  5
124C
  8
SAPA_ISOLATOR
  0
POLYLINE
  5
C93
  8
SAPA_ISOLATOR
 66
     1
 10
0.0
 20
0.0
 30
0.0
 70
     1
  0
VERTEX
  5
124D
  8
SAPA_ISOLATOR
 10
64.427774007511744
 20
66.996322963885476
 30
0.0
 42
0.2133140774071598
  0
VERTEX
  5
124E
  8
SAPA_ISOLATOR
 10
65.917936539249695
 20
66.330270350031043
 30
0.0
  0
VERTEX
  5
124F
  8
SAPA_ISOLATOR
 10
66.089793447908619
 20
66.330270350031043
 30
0.0
 42
-0.9999999999999998
  0
VERTEX
  5
1250
  8
SAPA_ISOLATOR
 10
66.089793447908619
 20
65.830270350031043
 30
0.0
  0
VERTEX
  5
1251
  8
SAPA_ISOLATOR
 10
65.130668908622056
 20
65.830270350031043
 30
0.0
 42
-0.2072397715914422
  0
VERTEX
  5
1252
  8
SAPA_ISOLATOR
 10
63.307264865701647
 20
66.619949416328282
 30
0.0
 42
-0.1421101772925093
  0
VERTEX
  5
1253
  8
SAPA_ISOLATOR
 10
61.162852062183212
 20
70.830270350031043
 30
0.0
  0
VERTEX
  5
1254
  8
SAPA_ISOLATOR
 10
62.975017306728198
 20
70.830270350031043
 30
0.0
 42
0.1860725815673001
  0
SEQEND
  5
1255
  8
SAPA_ISOLATOR
  0
POLYLINE
  5
C94
  8
SAPA_ISOLATOR
 66
     1
 10
0.0
 20
0.0
 30
0.0
 70
     1
  0
VERTEX
  5
1256
  8
SAPA_ISOLATOR
 10
47.427774007511744
 20
66.996322963885476
 30
0.0
 42
0.2133140774071598
  0
VERTEX
  5
1257
  8
SAPA_ISOLATOR
 10
48.917936539249702
 20
66.330270350031014
 30
0.0
  0
VERTEX
  5
1258
  8
SAPA_ISOLATOR
 10
49.089793447908619
 20
66.330270350031014
 30
0.0
 42
-0.9999999999999998
  0
VERTEX
  5
1259
  8
SAPA_ISOLATOR
 10
49.089793447908619
 20
65.830270350031029
 30
0.0
  0
VERTEX
  5
125A
  8
SAPA_ISOLATOR
 10
48.130668908622063
 20
65.830270350031029
 30
0.0
 42
-0.2072397715914422
  0
VERTEX
  5
125B
  8
SAPA_ISOLATOR
 10
46.307264865701647
 20
66.619949416328282
 30
0.0
 42
-0.1421101772925093
  0
VERTEX
  5
125C
  8
SAPA_ISOLATOR
 10
44.162852062183212
 20
70.830270350031029
 30
0.0
  0
VERTEX
  5
125D
  8
SAPA_ISOLATOR
 10
45.975017306728198
 20
70.830270350031029
 30
0.0
 42
0.1860725815673001
  0
SEQEND
  5
125E
  8
SAPA_ISOLATOR
  0
POLYLINE
  5
C95
  8
SAPA_ISOLATOR
 66
     1
 10
0.0
 20
0.0
 30
0.0
 70
     1
  0
VERTEX
  5
125F
  8
SAPA_ISOLATOR
 10
30.427774007512198
 20
66.996322963885532
 30
0.0
 42
0.2133140774071598
  0
VERTEX
  5
1260
  8
SAPA_ISOLATOR
 10
31.91793653925015
 20
66.330270350031086
 30
0.0
  0
VERTEX
  5
1261
  8
SAPA_ISOLATOR
 10
32.089793447909081
 20
66.330270350031086
 30
0.0
 42
-0.9999999999999998
  0
VERTEX
  5
1262
  8
SAPA_ISOLATOR
 10
32.089793447909081
 20
65.830270350031086
 30
0.0
  0
VERTEX
  5
1263
  8
SAPA_ISOLATOR
 10
31.130668908622511
 20
65.830270350031086
 30
0.0
 42
-0.2072397715914422
  0
VERTEX
  5
1264
  8
SAPA_ISOLATOR
 10
29.307264865702109
 20
66.619949416328325
 30
0.0
 42
-0.1421101772925093
  0
VERTEX
  5
1265
  8
SAPA_ISOLATOR
 10
27.162852062183681
 20
70.830270350031086
 30
0.0
  0
VERTEX
  5
1266
  8
SAPA_ISOLATOR
 10
28.97501730672866
 20
70.830270350031086
 30
0.0
 42
0.1860725815673001
  0
SEQEND
  5
1267
  8
SAPA_ISOLATOR
  0
POLYLINE
  5
C96
  8
SAPA_ISOLATOR
 66
     1
 10
0.0
 20
0.0
 30
0.0
 70
     1
  0
VERTEX
  5
1268
  8
SAPA_ISOLATOR
 10
47.427774007511744
 20
84.664217736176695
 30
0.0
 42
-0.2133140774071598
  0
VERTEX
  5
1269
  8
SAPA_ISOLATOR
 10
48.917936539249702
 20
85.330270350031128
 30
0.0
  0
VERTEX
  5
126A
  8
SAPA_ISOLATOR
 10
49.089793447908619
 20
85.330270350031128
 30
0.0
 42
0.9999999999999998
  0
VERTEX
  5
126B
  8
SAPA_ISOLATOR
 10
49.089793447908619
 20
85.830270350031142
 30
0.0
  0
VERTEX
  5
126C
  8
SAPA_ISOLATOR
 10
48.130668908622063
 20
85.830270350031142
 30
0.0
 42
0.2072397715914422
  0
VERTEX
  5
126D
  8
SAPA_ISOLATOR
 10
46.307264865701647
 20
85.040591283733889
 30
0.0
 42
0.1421101772925093
  0
VERTEX
  5
126E
  8
SAPA_ISOLATOR
 10
44.162852062183212
 20
80.830270350031142
 30
0.0
  0
VERTEX
  5
126F
  8
SAPA_ISOLATOR
 10
45.975017306728198
 20
80.830270350031142
 30
0.0
 42
-0.1860725815673001
  0
SEQEND
  5
1270
  8
SAPA_ISOLATOR
  0
POLYLINE
  5
C97
  8
SAPA_ISOLATOR
 66
     1
 10
0.0
 20
0.0
 30
0.0
 70
     1
  0
VERTEX
  5
1271
  8
SAPA_ISOLATOR
 10
30.427774007512198
 20
84.664217736176639
 30
0.0
 42
-0.2133140774071598
  0
VERTEX
  5
1272
  8
SAPA_ISOLATOR
 10
31.91793653925015
 20
85.330270350031086
 30
0.0
  0
VERTEX
  5
1273
  8
SAPA_ISOLATOR
 10
32.089793447909081
 20
85.330270350031086
 30
0.0
 42
0.9999999999999998
  0
VERTEX
  5
1274
  8
SAPA_ISOLATOR
 10
32.089793447909081
 20
85.830270350031086
 30
0.0
  0
VERTEX
  5
1275
  8
SAPA_ISOLATOR
 10
31.130668908622511
 20
85.830270350031086
 30
0.0
 42
0.2072397715914422
  0
VERTEX
  5
1276
  8
SAPA_ISOLATOR
 10
29.307264865702109
 20
85.040591283733818
 30
0.0
 42
0.1421101772925093
  0
VERTEX
  5
1277
  8
SAPA_ISOLATOR
 10
27.162852062183671
 20
80.830270350031086
 30
0.0
  0
VERTEX
  5
1278
  8
SAPA_ISOLATOR
 10
28.97501730672866
 20
80.830270350031086
 30
0.0
 42
-0.1860725815673001
  0
SEQEND
  5
1279
  8
SAPA_ISOLATOR
  0
POLYLINE
  5
C98
  8
SAPA_ISOLATOR
 66
     1
 10
0.0
 20
0.0
 30
0.0
 70
     1
  0
VERTEX
  5
127A
  8
SAPA_ISOLATOR
 10
22.250720027604071
 20
72.418138315636796
 30
0.0
 42
0.1989123671061558
  0
VERTEX
  5
127B
  8
SAPA_ISOLATOR
 10
22.16285206218334
 20
72.206006281504088
 30
0.0
  0
VERTEX
  5
127C
  8
SAPA_ISOLATOR
 10
22.16285206218345
 20
71.130270350030983
 30
0.0
 42
0.4142135623730605
  0
VERTEX
  5
127D
  8
SAPA_ISOLATOR
 10
22.462852062183462
 20
70.830270350031029
 30
0.0
  0
VERTEX
  5
127E
  8
SAPA_ISOLATOR
 10
69.662852062183333
 20
70.830270350031043
 30
0.0
 42
0.4142135623730951
  0
VERTEX
  5
127F
  8
SAPA_ISOLATOR
 10
70.162852062183219
 20
71.330270350031157
 30
0.0
  0
VERTEX
  5
1280
  8
SAPA_ISOLATOR
 10
70.162852062183333
 20
72.556006281319156
 30
0.0
 42
-0.1989123673796248
  0
VERTEX
  5
1281
  8
SAPA_ISOLATOR
 10
70.250720027827356
 20
72.768138315675145
 30
0.0
  0
VERTEX
  5
1282
  8
SAPA_ISOLATOR
 10
70.92498409653922
 20
73.442402384386995
 30
0.0
 42
-0.1989123673796571
  0
VERTEX
  5
1283
  8
SAPA_ISOLATOR
 10
71.137116130895265
 20
73.530270350031032
 30
0.0
  0
VERTEX
  5
1284
  8
SAPA_ISOLATOR
 10
75.567885020398634
 20
73.530270350031032
 30
0.0
 42
0.0912836897734216
  0
VERTEX
  5
1285
  8
SAPA_ISOLATOR
 10
77.687442054000599
 20
74.748912017840922
 30
0.0
 42
0.4396415083054796
  0
VERTEX
  5
1286
  8
SAPA_ISOLATOR
 10
77.687442054000712
 20
76.911628682221107
 30
0.0
 42
0.0912836897734209
  0
VERTEX
  5
1287
  8
SAPA_ISOLATOR
 10
75.567885020398634
 20
78.130270350031054
 30
0.0
  0
VERTEX
  5
1288
  8
SAPA_ISOLATOR
 10
71.137116130895265
 20
78.130270350031054
 30
0.0
 42
-0.1989123673796602
  0
VERTEX
  5
1289
  8
SAPA_ISOLATOR
 10
70.92498409653922
 20
78.218138315675134
 30
0.0
  0
VERTEX
  5
128A
  8
SAPA_ISOLATOR
 10
70.250720027827356
 20
78.892402384386983
 30
0.0
 42
-0.1989123673796276
  0
VERTEX
  5
128B
  8
SAPA_ISOLATOR
 10
70.162852062183333
 20
79.104534418742986
 30
0.0
  0
VERTEX
  5
128C
  8
SAPA_ISOLATOR
 10
70.162852062183333
 20
80.3302703500311
 30
0.0
 42
0.4142135623730951
  0
VERTEX
  5
128D
  8
SAPA_ISOLATOR
 10
69.662852062183333
 20
80.830270350031114
 30
0.0
  0
VERTEX
  5
128E
  8
SAPA_ISOLATOR
 10
22.462852062183401
 20
80.830270350031086
 30
0.0
 42
0.4142135623731471
  0
VERTEX
  5
128F
  8
SAPA_ISOLATOR
 10
22.16285206218339
 20
80.530270350031088
 30
0.0
  0
VERTEX
  5
1290
  8
SAPA_ISOLATOR
 10
22.16285206218333
 20
79.454534418927906
 30
0.0
 42
0.1989123676531289
  0
VERTEX
  5
1291
  8
SAPA_ISOLATOR
 10
22.25072002805063
 20
79.242402384348694
 30
0.0
  0
VERTEX
  5
1292
  8
SAPA_ISOLATOR
 10
25.30929867159012
 20
76.183823747247075
 30
0.0
 42
-0.4142135623730478
  0
VERTEX
  5
1293
  8
SAPA_ISOLATOR
 10
25.30929867159012
 20
75.476716966060522
 30
0.0
  0
SEQEND
  5
1294
  8
SAPA_ISOLATOR
  0
POLYLINE
  5
C99
  8
SAPA_ISOLATOR
 66
     1
 10
0.0
 20
0.0
 30
0.0
 70
     1
  0
VERTEX
  5
1295
  8
SAPA_ISOLATOR
 10
70.469349177928848
 20
77.118138315675111
 30
0.0
 42
0.198912367379658
  0
VERTEX
  5
1296
  8
SAPA_ISOLATOR
 10
70.68148121228478
 20
77.030270350031088
 30
0.0
  0
VERTEX
  5
1297
  8
SAPA_ISOLATOR
 10
75.332606950392801
 20
77.030270350031088
 30
0.0
 42
-0.0949127563617268
  0
VERTEX
  5
1298
  8
SAPA_ISOLATOR
 10
75.406515544635852
 20
77.016113078424723
 30
0.0
 42
-0.0825355669758324
  0
VERTEX
  5
1299
  8
SAPA_ISOLATOR
 10
76.992990313938023
 20
76.058186571395382
 30
0.0
 42
-0.4603672002713016
  0
VERTEX
  5
129A
  8
SAPA_ISOLATOR
 10
76.992990313938023
 20
75.602354128666747
 30
0.0
 42
-0.08253556697594
  0
VERTEX
  5
129B
  8
SAPA_ISOLATOR
 10
75.406515544633635
 20
74.644427621636851
 30
0.0
 42
-0.0949127563615792
  0
VERTEX
  5
129C
  8
SAPA_ISOLATOR
 10
75.332606950390471
 20
74.630270350031054
 30
0.0
  0
VERTEX
  5
129D
  8
SAPA_ISOLATOR
 10
70.68148121228478
 20
74.630270350031054
 30
0.0
 42
0.1989123673796566
  0
VERTEX
  5
129E
  8
SAPA_ISOLATOR
 10
70.469349177928962
 20
74.542402384387032
 30
0.0
  0
VERTEX
  5
129F
  8
SAPA_ISOLATOR
 10
69.150720027827333
 20
73.223773234285517
 30
0.0
 42
0.1989123673796571
  0
VERTEX
  5
12A0
  8
SAPA_ISOLATOR
 10
69.06285206218331
 20
73.011641199929585
 30
0.0
  0
VERTEX
  5
12A1
  8
SAPA_ISOLATOR
 10
69.06285206218331
 20
72.230270350031077
 30
0.0
 42
-0.4142135623730395
  0
VERTEX
  5
12A2
  8
SAPA_ISOLATOR
 10
68.762852062183356
 20
71.930270350031066
 30
0.0
  0
VERTEX
  5
12A3
  8
SAPA_ISOLATOR
 10
56.562852062183367
 20
71.930270350031051
 30
0.0
 42
-0.4142135623730673
  0
VERTEX
  5
12A4
  8
SAPA_ISOLATOR
 10
56.262852062183413
 20
72.230270350031063
 30
0.0
  0
VERTEX
  5
12A5
  8
SAPA_ISOLATOR
 10
56.262852062183413
 20
79.430270350031051
 30
0.0
 42
-0.4142135623731228
  0
VERTEX
  5
12A6
  8
SAPA_ISOLATOR
 10
56.562852062183367
 20
79.730270350031034
 30
0.0
  0
VERTEX
  5
12A7
  8
SAPA_ISOLATOR
 10
68.762852062183356
 20
79.730270350031077
 30
0.0
 42
-0.4142135623730743
  0
VERTEX
  5
12A8
  8
SAPA_ISOLATOR
 10
69.06285206218331
 20
79.430270350031122
 30
0.0
  0
VERTEX
  5
12A9
  8
SAPA_ISOLATOR
 10
69.06285206218331
 20
78.648899500132558
 30
0.0
 42
0.1989123673796576
  0
VERTEX
  5
12AA
  8
SAPA_ISOLATOR
 10
69.150720027827447
 20
78.436767465776626
 30
0.0
  0
SEQEND
  5
12AB
  8
SAPA_ISOLATOR
  0
POLYLINE
  5
C9A
  8
SAPA_ISOLATOR
 66
     1
 10
0.0
 20
0.0
 30
0.0
 70
     1
  0
VERTEX
  5
12AC
  8
SAPA_ISOLATOR
 10
55.16285206218339
 20
72.230270350031063
 30
0.0
 42
-0.4142135623731076
  0
VERTEX
  5
12AD
  8
SAPA_ISOLATOR
 10
54.862852062183322
 20
71.930270350031051
 30
0.0
  0
VERTEX
  5
12AE
  8
SAPA_ISOLATOR
 10
39.562852062183431
 20
71.93027035003108
 30
0.0
 42
-0.4142135623730659
  0
VERTEX
  5
12AF
  8
SAPA_ISOLATOR
 10
39.26285206218347
 20
72.230270350031091
 30
0.0
  0
VERTEX
  5
12B0
  8
SAPA_ISOLATOR
 10
39.262852062183363
 20
79.430270350031122
 30
0.0
 42
-0.414213562373041
  0
VERTEX
  5
12B1
  8
SAPA_ISOLATOR
 10
39.562852062183431
 20
79.730270350031077
 30
0.0
  0
VERTEX
  5
12B2
  8
SAPA_ISOLATOR
 10
54.862852062183322
 20
79.730270350031063
 30
0.0
 42
-0.4142135623730784
  0
VERTEX
  5
12B3
  8
SAPA_ISOLATOR
 10
55.162852062183269
 20
79.430270350031108
 30
0.0
  0
SEQEND
  5
12B4
  8
SAPA_ISOLATOR
  0
POLYLINE
  5
C9B
  8
SAPA_ISOLATOR
 66
     1
 10
0.0
 20
0.0
 30
0.0
 70
     1
  0
VERTEX
  5
12B5
  8
SAPA_ISOLATOR
 10
38.16285206218334
 20
72.230270350031091
 30
0.0
 42
-0.4142135623730659
  0
VERTEX
  5
12B6
  8
SAPA_ISOLATOR
 10
37.862852062183379
 20
71.93027035003108
 30
0.0
  0
VERTEX
  5
12B7
  8
SAPA_ISOLATOR
 10
23.801329691754521
 20
71.930270350031051
 30
0.0
 42
-0.6681786375387276
  0
VERTEX
  5
12B8
  8
SAPA_ISOLATOR
 10
23.65990833536836
 20
72.271691706119526
 30
0.0
  0
VERTEX
  5
12B9
  8
SAPA_ISOLATOR
 10
26.087116131713859
 20
74.698899507573927
 30
0.0
 42
0.4142135623730892
  0
VERTEX
  5
12BA
  8
SAPA_ISOLATOR
 10
26.087116130895311
 20
76.961641206552272
 30
0.0
  0
VERTEX
  5
12BB
  8
SAPA_ISOLATOR
 10
23.65990833869375
 20
79.388848993644913
 30
0.0
 42
-0.6681786382998753
  0
VERTEX
  5
12BC
  8
SAPA_ISOLATOR
 10
23.801329694782218
 20
79.730270350031063
 30
0.0
  0
VERTEX
  5
12BD
  8
SAPA_ISOLATOR
 10
37.862852062183272
 20
79.730270350031077
 30
0.0
 42
-0.4142135623730951
  0
VERTEX
  5
12BE
  8
SAPA_ISOLATOR
 10
38.16285206218334
 20
79.430270350031066
 30
0.0
  0
SEQEND
  5
12BF
  8
SAPA_ISOLATOR
  0
CIRCLE
  5
CB2
  8
SAPA_FOGBAND
 10
22.025283841427498
 20
94.585647667852754
 30
0.0
 40
0.2549509756796394
  0
INSERT
  5
CB3
  8
SAPA_FOGBAND
  6
CONTINUOUS
  2
*U35
 10
0.0
 20
0.0
 30
0.0
1001
ACAD
1002
{
1000
R14_HATCH_DATA
1000
CB3
1011
1.0
1021
0.0
1031
0.0
1021
0.0
1031
0.0
1011
0.0
1021
0.0
1031
0.0
1021
1.0
1031
0.0
1011
0.0
1021
0.0
1031
0.0
1021
0.0
1031
1.0
1040
0.0
1010
0.0
1020
0.0
1030
1.0
1000
SOLID
1070
     1
1070
     1
1071
        1
1071
        1
1071
        1
1070
     2
1040
22.025283841427498
1040
94.585647667852754
1040
0.2549509756796394
1040
-1.5707963267948959
1040
4.7123889803846888
1070
     1
1071
        1
1005
CB2
1070
     0
1070
     1
1071
        1
1040
22.10713533875639
1040
94.822386569422861
1040
0.0
1002
}
  0
POLYLINE
  5
CB4
  8
SAPA_FOGBAND
 66
     1
 10
0.0
 20
0.0
 30
0.0
 70
     1
  0
VERTEX
  5
13CD
  8
SAPA_FOGBAND
 10
19.062852062182969
 20
93.685647667852777
 30
0.0
 42
0.9999999999999998
  0
VERTEX
  5
13CE
  8
SAPA_FOGBAND
 10
19.062852062182969
 20
95.485647667852746
 30
0.0
  0
VERTEX
  5
13CF
  8
SAPA_FOGBAND
 10
18.46285206218295
 20
95.485647667852746
 30
0.0
 42
0.9999999999999998
  0
VERTEX
  5
13D0
  8
SAPA_FOGBAND
 10
18.46285206218295
 20
93.685647667852777
 30
0.0
  0
SEQEND
  5
13D1
  8
SAPA_FOGBAND
  0
POLYLINE
  5
CB5
  8
SAPA_FOGBAND
 66
     1
 10
0.0
 20
0.0
 30
0.0
 70
     1
  0
VERTEX
  5
13D2
  8
SAPA_FOGBAND
 10
24.162852062182999
 20
103.2135239760259
 30
0.0
 42
0.0775891054856093
  0
VERTEX
  5
13D3
  8
SAPA_FOGBAND
 10
23.846216078121639
 20
99.7467422456034
 30
0.0
  0
VERTEX
  5
13D4
  8
SAPA_FOGBAND
 10
24.06285206218303
 20
99.508852752774601
 30
0.0
 42
-0.5773502691896298
  0
VERTEX
  5
13D5
  8
SAPA_FOGBAND
 10
24.06285206218303
 20
99.162442591260742
 30
0.0
  0
VERTEX
  5
13D6
  8
SAPA_FOGBAND
 10
23.845942207959979
 20
98.924394974529946
 30
0.0
  0
VERTEX
  5
13D7
  8
SAPA_FOGBAND
 10
23.845942207959979
 20
98.146900364613316
 30
0.0
  0
VERTEX
  5
13D8
  8
SAPA_FOGBAND
 10
24.06285206218303
 20
97.908852752774578
 30
0.0
 42
-0.577350269189699
  0
VERTEX
  5
13D9
  8
SAPA_FOGBAND
 10
24.06285206218303
 20
97.562442591260833
 30
0.0
  0
VERTEX
  5
13DA
  8
SAPA_FOGBAND
 10
23.845942207959979
 20
97.324394974530037
 30
0.0
  0
VERTEX
  5
13DB
  8
SAPA_FOGBAND
 10
23.845942207959979
 20
96.546900364613293
 30
0.0
  0
VERTEX
  5
13DC
  8
SAPA_FOGBAND
 10
24.06285206218303
 20
96.308852752774555
 30
0.0
 42
-0.577350269189699
  0
VERTEX
  5
13DD
  8
SAPA_FOGBAND
 10
24.06285206218303
 20
95.96244259126081
 30
0.0
  0
VERTEX
  5
13DE
  8
SAPA_FOGBAND
 10
23.845942207959979
 20
95.724394974530014
 30
0.0
  0
VERTEX
  5
13DF
  8
SAPA_FOGBAND
 10
23.845942207959979
 20
94.946900364613256
 30
0.0
  0
VERTEX
  5
13E0
  8
SAPA_FOGBAND
 10
24.06285206218303
 20
94.708852752774646
 30
0.0
 42
-0.5773502691896298
  0
VERTEX
  5
13E1
  8
SAPA_FOGBAND
 10
24.06285206218303
 20
94.362442591260788
 30
0.0
  0
VERTEX
  5
13E2
  8
SAPA_FOGBAND
 10
23.845942207959979
 20
94.124394974529977
 30
0.0
  0
VERTEX
  5
13E3
  8
SAPA_FOGBAND
 10
23.845942207959979
 20
93.346900364613234
 30
0.0
  0
VERTEX
  5
13E4
  8
SAPA_FOGBAND
 10
24.06285206218303
 20
93.108852752774624
 30
0.0
 42
-0.5773502691896298
  0
VERTEX
  5
13E5
  8
SAPA_FOGBAND
 10
24.06285206218303
 20
92.762442591260765
 30
0.0
  0
VERTEX
  5
13E6
  8
SAPA_FOGBAND
 10
23.845942207959979
 20
92.524394974529955
 30
0.0
  0
VERTEX
  5
13E7
  8
SAPA_FOGBAND
 10
23.845942207959979
 20
91.746900360448308
 30
0.0
  0
VERTEX
  5
13E8
  8
SAPA_FOGBAND
 10
24.06285206218303
 20
91.50885274860957
 30
0.0
 42
-0.577350269189699
  0
VERTEX
  5
13E9
  8
SAPA_FOGBAND
 10
24.06285206218303
 20
91.162442587095825
 30
0.0
  0
VERTEX
  5
13EA
  8
SAPA_FOGBAND
 10
22.989521993698531
 20
90.362442587540727
 30
0.0
 42
-0.1316524987190269
  0
VERTEX
  5
13EB
  8
SAPA_FOGBAND
 10
22.889521992927829
 20
90.335647667852754
 30
0.0
  0
VERTEX
  5
13EC
  8
SAPA_FOGBAND
 10
20.362852062183041
 20
90.335647667852641
 30
0.0
 42
-0.4142135623730951
  0
VERTEX
  5
13ED
  8
SAPA_FOGBAND
 10
20.162852062182989
 20
90.535647667852686
 30
0.0
  0
VERTEX
  5
13EE
  8
SAPA_FOGBAND
 10
20.162852062182989
 20
92.585647667852754
 30
0.0
 42
0.4142135623730951
  0
VERTEX
  5
13EF
  8
SAPA_FOGBAND
 10
19.662852062182989
 20
93.085647667852754
 30
0.0
  0
VERTEX
  5
13F0
  8
SAPA_FOGBAND
 10
18.936057142939831
 20
93.085647667852754
 30
0.0
  0
VERTEX
  5
13F1
  8
SAPA_FOGBAND
 10
18.86859723362943
 20
92.833883858832223
 30
0.0
 42
-0.4740571810232869
  0
VERTEX
  5
13F2
  8
SAPA_FOGBAND
 10
18.586314647990768
 20
92.706589996468665
 30
0.0
  0
VERTEX
  5
13F3
  8
SAPA_FOGBAND
 10
17.140108511230999
 20
93.326690499227183
 30
0.0
 42
-0.2846003776495916
  0
VERTEX
  5
13F4
  8
SAPA_FOGBAND
 10
16.862852062183041
 20
93.77433467768742
 30
0.0
  0
VERTEX
  5
13F5
  8
SAPA_FOGBAND
 10
16.862852062183041
 20
95.396960658017974
 30
0.0
 42
-0.2846003776495917
  0
VERTEX
  5
13F6
  8
SAPA_FOGBAND
 10
17.140108511230999
 20
95.844604836478197
 30
0.0
  0
VERTEX
  5
13F7
  8
SAPA_FOGBAND
 10
18.586314647990768
 20
96.464705339236744
 30
0.0
 42
-0.4740571810232869
  0
VERTEX
  5
13F8
  8
SAPA_FOGBAND
 10
18.86859723362943
 20
96.337411476873172
 30
0.0
  0
VERTEX
  5
13F9
  8
SAPA_FOGBAND
 10
18.936057142939831
 20
96.085647667852754
 30
0.0
  0
VERTEX
  5
13FA
  8
SAPA_FOGBAND
 10
19.662852062182989
 20
96.085647667852754
 30
0.0
 42
0.4142135623730951
  0
VERTEX
  5
13FB
  8
SAPA_FOGBAND
 10
20.162852062182989
 20
96.585647667852754
 30
0.0
  0
VERTEX
  5
13FC
  8
SAPA_FOGBAND
 10
20.162852062182989
 20
99.635647667852709
 30
0.0
 42
0.4142135623730951
  0
VERTEX
  5
13FD
  8
SAPA_FOGBAND
 10
19.96285206218295
 20
99.835647667852754
 30
0.0
  0
VERTEX
  5
13FE
  8
SAPA_FOGBAND
 10
19.062852062182969
 20
99.835647667852641
 30
0.0
 42
-0.4142135623731784
  0
VERTEX
  5
13FF
  8
SAPA_FOGBAND
 10
18.86285206218303
 20
100.0356476678527
 30
0.0
  0
VERTEX
  5
1400
  8
SAPA_FOGBAND
 10
18.86285206218292
 20
100.7356476678527
 30
0.0
 42
-0.4142135623730398
  0
VERTEX
  5
1401
  8
SAPA_FOGBAND
 10
19.162852062182989
 20
101.0356476678527
 30
0.0
  0
VERTEX
  5
1402
  8
SAPA_FOGBAND
 10
19.97336383883453
 20
101.0356476678527
 30
0.0
 42
0.1316524975873973
  0
VERTEX
  5
1403
  8
SAPA_FOGBAND
 10
20.97336383883453
 20
101.3035968602838
 30
0.0
  0
VERTEX
  5
1404
  8
SAPA_FOGBAND
 10
23.562931830926459
 20
106.4664420103242
 30
0.0
 42
-0.7057658529986604
  0
VERTEX
  5
1405
  8
SAPA_FOGBAND
 10
24.162852062182999
 20
106.1988488349659
 30
0.0
  0
SEQEND
  5
1406
  8
SAPA_FOGBAND
  0
POLYLINE
  5
CB6
  8
SAPA_FOGBAND
 66
     1
 10
0.0
 20
0.0
 30
0.0
 70
     1
  0
VERTEX
  5
1407
  8
SAPA_FOGBAND
 10
42.415865274283867
 20
94.927640949592643
 30
0.0
 42
-0.9999999999999998
  0
VERTEX
  5
1408
  8
SAPA_FOGBAND
 10
42.415865274283867
 20
96.727640949592654
 30
0.0
  0
VERTEX
  5
1409
  8
SAPA_FOGBAND
 10
43.015865274283897
 20
96.727640949592654
 30
0.0
 42
-0.9999999999999998
  0
VERTEX
  5
140A
  8
SAPA_FOGBAND
 10
43.015865274283897
 20
94.927640949592643
 30
0.0
  0
SEQEND
  5
140B
  8
SAPA_FOGBAND
  0
POLYLINE
  5
CB7
  8
SAPA_FOGBAND
 66
     1
 10
0.0
 20
0.0
 30
0.0
  0
VERTEX
  5
140C
  8
SAPA_FOGBAND
 10
40.80123477664506
 20
99.427640949592643
 30
0.0
  0
VERTEX
  5
140D
  8
SAPA_FOGBAND
 10
41.101234776645128
 20
99.427640949592643
 30
0.0
  0
VERTEX
  5
140E
  8
SAPA_FOGBAND
 10
40.80123477664506
 20
99.427640949592643
 30
0.0
 42
0.4142135623730951
  0
VERTEX
  5
140F
  8
SAPA_FOGBAND
 10
40.301234776645053
 20
98.927640949592643
 30
0.0
  0
VERTEX
  5
1410
  8
SAPA_FOGBAND
 10
40.301234776645053
 20
91.627640949592688
 30
0.0
 42
0.4142135623730951
  0
VERTEX
  5
1411
  8
SAPA_FOGBAND
 10
40.80123477664506
 20
91.127640949592688
 30
0.0
  0
VERTEX
  5
1412
  8
SAPA_FOGBAND
 10
41.101234776645128
 20
91.127640949592688
 30
0.0
  0
SEQEND
  5
1413
  8
SAPA_FOGBAND
  0
POLYLINE
  5
CB8
  8
SAPA_FOGBAND
 66
     1
 10
0.0
 20
0.0
 30
0.0
 70
     1
  0
VERTEX
  5
1414
  8
SAPA_FOGBAND
 10
36.601234776645128
 20
92.778572450097357
 30
0.0
  0
VERTEX
  5
1415
  8
SAPA_FOGBAND
 10
36.601234776645128
 20
95.864505986873397
 30
0.0
 42
0.9695372397405709
  0
VERTEX
  5
1416
  8
SAPA_FOGBAND
 10
33.019702983859631
 20
95.864505986873397
 30
0.0
  0
VERTEX
  5
1417
  8
SAPA_FOGBAND
 10
33.019702983859631
 20
92.778572450097357
 30
0.0
 42
0.9063837695480113
  0
SEQEND
  5
1418
  8
SAPA_FOGBAND
  0
POLYLINE
  5
CB9
  8
SAPA_FOGBAND
 66
     1
 10
0.0
 20
0.0
 30
0.0
 70
     1
  0
VERTEX
  5
1419
  8
SAPA_FOGBAND
 10
34.089637242760958
 20
83.496551748661005
 30
0.0
  0
VERTEX
  5
141A
  8
SAPA_FOGBAND
 10
34.089637242760958
 20
83.496551748661005
 30
0.0
 42
-0.611149385816862
  0
VERTEX
  5
141B
  8
SAPA_FOGBAND
 10
32.209395113395878
 20
83.528302915725732
 30
0.0
  0
VERTEX
  5
141C
  8
SAPA_FOGBAND
 10
31.64355320114144
 20
87.518965692641885
 30
0.0
 42
-0.4464785874932439
  0
VERTEX
  5
141D
  8
SAPA_FOGBAND
 10
32.637630506247348
 20
88.627640949592688
 30
0.0
  0
VERTEX
  5
141E
  8
SAPA_FOGBAND
 10
35.660941831112062
 20
88.627640949592688
 30
0.0
 42
-0.622676997742357
  0
VERTEX
  5
141F
  8
SAPA_FOGBAND
 10
36.452823559275508
 20
87.01696646297907
 30
0.0
  0
VERTEX
  5
1420
  8
SAPA_FOGBAND
 10
34.089637242760958
 20
83.496551748661005
 30
0.0
 42
-0.232531183213058
  0
SEQEND
  5
1421
  8
SAPA_FOGBAND
  0
POLYLINE
  5
CBA
  8
SAPA_FOGBAND
 66
     1
 10
0.0
 20
0.0
 30
0.0
 70
     1
  0
VERTEX
  5
1422
  8
SAPA_FOGBAND
 10
42.542660193527013
 20
94.327640949592677
 30
0.0
  0
VERTEX
  5
1423
  8
SAPA_FOGBAND
 10
42.610120102837413
 20
94.075877140572189
 30
0.0
 42
0.4740571810232144
  0
VERTEX
  5
1424
  8
SAPA_FOGBAND
 10
42.892402688476061
 20
93.948583278208588
 30
0.0
  0
VERTEX
  5
1425
  8
SAPA_FOGBAND
 10
44.338608825235951
 20
94.568683780967177
 30
0.0
 42
0.2846003776496053
  0
VERTEX
  5
1426
  8
SAPA_FOGBAND
 10
44.615865274283919
 20
95.016327959427343
 30
0.0
  0
VERTEX
  5
1427
  8
SAPA_FOGBAND
 10
44.615865274283919
 20
96.638953939757954
 30
0.0
 42
0.2846003776496027
  0
VERTEX
  5
1428
  8
SAPA_FOGBAND
 10
44.338608825235951
 20
97.08659811821812
 30
0.0
  0
VERTEX
  5
1429
  8
SAPA_FOGBAND
 10
42.892402688476011
 20
97.706698620976709
 30
0.0
 42
0.4740571810232332
  0
VERTEX
  5
142A
  8
SAPA_FOGBAND
 10
42.610120102837413
 20
97.579404758613165
 30
0.0
  0
VERTEX
  5
142B
  8
SAPA_FOGBAND
 10
42.542660193527013
 20
97.327640949592677
 30
0.0
  0
VERTEX
  5
142C
  8
SAPA_FOGBAND
 10
41.601234776645121
 20
97.327640949592677
 30
0.0
 42
-0.4142135623730951
  0
VERTEX
  5
142D
  8
SAPA_FOGBAND
 10
41.101234776645128
 20
97.827640949592691
 30
0.0
  0
VERTEX
  5
142E
  8
SAPA_FOGBAND
 10
41.101234776645072
 20
100.3398011129741
 30
0.0
 42
0.4027293761437467
  0
VERTEX
  5
142F
  8
SAPA_FOGBAND
 10
40.813042139175757
 20
100.639568666572
 30
0.0
  0
VERTEX
  5
1430
  8
SAPA_FOGBAND
 10
30.41304213917573
 20
101.1274084812414
 30
0.0
 42
0.4257917699693538
  0
VERTEX
  5
1431
  8
SAPA_FOGBAND
 10
30.101234776645072
 20
100.8276409276435
 30
0.0
  0
VERTEX
  5
1432
  8
SAPA_FOGBAND
 10
30.101234776645072
 20
87.122107268419683
 30
0.0
  0
VERTEX
  5
1433
  8
SAPA_FOGBAND
 10
30.8777696943277
 20
81.518965670692808
 30
0.0
 42
0.322530093016903
  0
VERTEX
  5
1434
  8
SAPA_FOGBAND
 10
31.871846999433671
 20
80.827640927643543
 30
0.0
  0
VERTEX
  5
1435
  8
SAPA_FOGBAND
 10
34.102590555871252
 20
80.827640927643543
 30
0.0
 42
0.2325311832130604
  0
VERTEX
  5
1436
  8
SAPA_FOGBAND
 10
34.498531419953054
 20
81.022303684336762
 30
0.0
  0
VERTEX
  5
1437
  8
SAPA_FOGBAND
 10
40.893116504808567
 20
90.188866912244265
 30
0.0
 42
0.1657205760184606
  0
VERTEX
  5
1438
  8
SAPA_FOGBAND
 10
41.101234776645128
 20
90.799541398857883
 30
0.0
  0
VERTEX
  5
1439
  8
SAPA_FOGBAND
 10
41.101234776645128
 20
93.827640949592677
 30
0.0
 42
-0.4142135623730951
  0
VERTEX
  5
143A
  8
SAPA_FOGBAND
 10
41.601234776645121
 20
94.327640949592677
 30
0.0
  0
SEQEND
  5
143B
  8
SAPA_FOGBAND
  0
POLYLINE
  5
CBB
  8
SAPA_FOGBAND
 66
     1
 10
0.0
 20
0.0
 30
0.0
 70
     1
  0
VERTEX
  5
143C
  8
SAPA_FOGBAND
 10
86.362852063174515
 20
52.52894316551474
 30
0.0
  0
VERTEX
  5
143D
  8
SAPA_FOGBAND
 10
86.362852063174515
 20
59.828943165514922
 30
0.0
 42
-0.4142135623730951
  0
VERTEX
  5
143E
  8
SAPA_FOGBAND
 10
86.862852063174515
 20
60.328943165514922
 30
0.0
  0
VERTEX
  5
143F
  8
SAPA_FOGBAND
 10
87.162852063174469
 20
60.328943165514922
 30
0.0
  0
VERTEX
  5
1440
  8
SAPA_FOGBAND
 10
87.162852063174242
 20
57.628943165515217
 30
0.0
 42
0.414213562373117
  0
VERTEX
  5
1441
  8
SAPA_FOGBAND
 10
87.662852063174256
 20
57.128943165515217
 30
0.0
  0
VERTEX
  5
1442
  8
SAPA_FOGBAND
 10
88.389646982417517
 20
57.128943165515217
 30
0.0
  0
VERTEX
  5
1443
  8
SAPA_FOGBAND
 10
88.457106891727861
 20
57.3807069745353
 30
0.0
 42
-0.4740571810233732
  0
VERTEX
  5
1444
  8
SAPA_FOGBAND
 10
88.739389477366444
 20
57.508000836898738
 30
0.0
  0
VERTEX
  5
1445
  8
SAPA_FOGBAND
 10
90.185595614126285
 20
56.887900334141001
 30
0.0
 42
-0.2846003776494633
  0
VERTEX
  5
1446
  8
SAPA_FOGBAND
 10
90.462852063174424
 20
56.440256155680331
 30
0.0
  0
VERTEX
  5
1447
  8
SAPA_FOGBAND
 10
90.462852063174424
 20
54.817630175349201
 30
0.0
 42
-0.2846003776496146
  0
VERTEX
  5
1448
  8
SAPA_FOGBAND
 10
90.185595614126512
 20
54.369985996889319
 30
0.0
  0
VERTEX
  5
1449
  8
SAPA_FOGBAND
 10
88.739389477366402
 20
53.749885494131469
 30
0.0
 42
-0.4740571810233364
  0
VERTEX
  5
144A
  8
SAPA_FOGBAND
 10
88.457106891727861
 20
53.877179356494914
 30
0.0
  0
VERTEX
  5
144B
  8
SAPA_FOGBAND
 10
88.389646982417517
 20
54.128943165515217
 30
0.0
  0
VERTEX
  5
144C
  8
SAPA_FOGBAND
 10
87.662852063174256
 20
54.128943165515217
 30
0.0
 42
0.4142135623731218
  0
VERTEX
  5
144D
  8
SAPA_FOGBAND
 10
87.162852063174242
 20
53.628943165515111
 30
0.0
  0
VERTEX
  5
144E
  8
SAPA_FOGBAND
 10
87.162852063174427
 20
52.028943165515649
 30
0.0
  0
VERTEX
  5
144F
  8
SAPA_FOGBAND
 10
86.862852063176035
 20
52.02894316551474
 30
0.0
 42
-0.4142135623739815
  0
SEQEND
  5
1450
  8
SAPA_FOGBAND
  0
POLYLINE
  5
CBC
  8
SAPA_FOGBAND
 10
80.549638730557334
 20
53.565696031678002
 30
0.0
 66
     1
 70
     8
  0
VERTEX
  8
SAPA_FOGBAND
  5
14B8
 10
80.5496
 20
53.5657
 30
0.000000
  70
    32
  0
VERTEX
  8
SAPA_FOGBAND
  5
14B9
 10
80.4335
 20
53.5708
 30
0.000000
  70
    32
  0
VERTEX
  8
SAPA_FOGBAND
  5
14BA
 10
80.3177
 20
53.5839
 30
0.000000
  70
    32
  0
VERTEX
  8
SAPA_FOGBAND
  5
14BB
 10
80.2025
 20
53.6049
 30
0.000000
  70
    32
  0
VERTEX
  8
SAPA_FOGBAND
  5
14BC
 10
80.0882
 20
53.6337
 30
0.000000
  70
    32
  0
VERTEX
  8
SAPA_FOGBAND
  5
14BD
 10
79.9752
 20
53.6703
 30
0.000000
  70
    32
  0
VERTEX
  8
SAPA_FOGBAND
  5
14BE
 10
79.8636
 20
53.7146
 30
0.000000
  70
    32
  0
VERTEX
  8
SAPA_FOGBAND
  5
14BF
 10
79.7537
 20
53.7664
 30
0.000000
  70
    32
  0
VERTEX
  8
SAPA_FOGBAND
  5
14C0
 10
79.6458
 20
53.8258
 30
0.000000
  70
    32
  0
VERTEX
  8
SAPA_FOGBAND
  5
14C1
 10
79.5402
 20
53.8924
 30
0.000000
  70
    32
  0
VERTEX
  8
SAPA_FOGBAND
  5
14C2
 10
79.4371
 20
53.9663
 30
0.000000
  70
    32
  0
VERTEX
  8
SAPA_FOGBAND
  5
14C3
 10
79.3367
 20
54.0471
 30
0.000000
  70
    32
  0
VERTEX
  8
SAPA_FOGBAND
  5
14C4
 10
79.2394
 20
54.1347
 30
0.000000
  70
    32
  0
VERTEX
  8
SAPA_FOGBAND
  5
14C5
 10
79.1453
 20
54.2288
 30
0.000000
  70
    32
  0
VERTEX
  8
SAPA_FOGBAND
  5
14C6
 10
79.0546
 20
54.3293
 30
0.000000
  70
    32
  0
VERTEX
  8
SAPA_FOGBAND
  5
14C7
 10
78.9677
 20
54.4359
 30
0.000000
  70
    32
  0
VERTEX
  8
SAPA_FOGBAND
  5
14C8
 10
78.8846
 20
54.5484
 30
0.000000
  70
    32
  0
VERTEX
  8
SAPA_FOGBAND
  5
14C9
 10
78.8056
 20
54.6664
 30
0.000000
  70
    32
  0
VERTEX
  8
SAPA_FOGBAND
  5
14CA
 10
78.7309
 20
54.7898
 30
0.000000
  70
    32
  0
VERTEX
  8
SAPA_FOGBAND
  5
14CB
 10
78.6607
 20
54.9181
 30
0.000000
  70
    32
  0
VERTEX
  8
SAPA_FOGBAND
  5
14CC
 10
78.5950
 20
55.0511
 30
0.000000
  70
    32
  0
VERTEX
  8
SAPA_FOGBAND
  5
14CD
 10
78.5342
 20
55.1885
 30
0.000000
  70
    32
  0
VERTEX
  8
SAPA_FOGBAND
  5
14CE
 10
78.4783
 20
55.3300
 30
0.000000
  70
    32
  0
VERTEX
  8
SAPA_FOGBAND
  5
14CF
 10
78.4275
 20
55.4751
 30
0.000000
  70
    32
  0
VERTEX
  8
SAPA_FOGBAND
  5
14D0
 10
78.3819
 20
55.6236
 30
0.000000
  70
    32
  0
VERTEX
  8
SAPA_FOGBAND
  5
14D1
 10
78.3415
 20
55.7750
 30
0.000000
  70
    32
  0
VERTEX
  8
SAPA_FOGBAND
  5
14D2
 10
78.3066
 20
55.9291
 30
0.000000
  70
    32
  0
VERTEX
  8
SAPA_FOGBAND
  5
14D3
 10
78.2771
 20
56.0854
 30
0.000000
  70
    32
  0
VERTEX
  8
SAPA_FOGBAND
  5
14D4
 10
78.2532
 20
56.2436
 30
0.000000
  70
    32
  0
VERTEX
  8
SAPA_FOGBAND
  5
14D5
 10
78.2350
 20
56.4033
 30
0.000000
  70
    32
  0
VERTEX
  8
SAPA_FOGBAND
  5
14D6
 10
78.2223
 20
56.5641
 30
0.000000
  70
    32
  0
VERTEX
  8
SAPA_FOGBAND
  5
14D7
 10
78.2154
 20
56.7257
 30
0.000000
  70
    32
  0
VERTEX
  8
SAPA_FOGBAND
  5
14D8
 10
78.2141
 20
56.8875
 30
0.000000
  70
    32
  0
VERTEX
  8
SAPA_FOGBAND
  5
14D9
 10
78.2186
 20
57.0493
 30
0.000000
  70
    32
  0
VERTEX
  8
SAPA_FOGBAND
  5
14DA
 10
78.2288
 20
57.2107
 30
0.000000
  70
    32
  0
VERTEX
  8
SAPA_FOGBAND
  5
14DB
 10
78.2446
 20
57.3712
 30
0.000000
  70
    32
  0
VERTEX
  8
SAPA_FOGBAND
  5
14DC
 10
78.2661
 20
57.5305
 30
0.000000
  70
    32
  0
VERTEX
  8
SAPA_FOGBAND
  5
14DD
 10
78.2931
 20
57.6882
 30
0.000000
  70
    32
  0
VERTEX
  8
SAPA_FOGBAND
  5
14DE
 10
78.3257
 20
57.8440
 30
0.000000
  70
    32
  0
VERTEX
  8
SAPA_FOGBAND
  5
14DF
 10
78.3636
 20
57.9973
 30
0.000000
  70
    32
  0
VERTEX
  8
SAPA_FOGBAND
  5
14E0
 10
78.4070
 20
58.1479
 30
0.000000
  70
    32
  0
VERTEX
  8
SAPA_FOGBAND
  5
14E1
 10
78.4556
 20
58.2955
 30
0.000000
  70
    32
  0
VERTEX
  8
SAPA_FOGBAND
  5
14E2
 10
78.5093
 20
58.4395
 30
0.000000
  70
    32
  0
VERTEX
  8
SAPA_FOGBAND
  5
14E3
 10
78.5680
 20
58.5798
 30
0.000000
  70
    32
  0
VERTEX
  8
SAPA_FOGBAND
  5
14E4
 10
78.6315
 20
58.7160
 30
0.000000
  70
    32
  0
VERTEX
  8
SAPA_FOGBAND
  5
14E5
 10
78.6998
 20
58.8477
 30
0.000000
  70
    32
  0
VERTEX
  8
SAPA_FOGBAND
  5
14E6
 10
78.7726
 20
58.9746
 30
0.000000
  70
    32
  0
VERTEX
  8
SAPA_FOGBAND
  5
14E7
 10
78.8497
 20
59.0964
 30
0.000000
  70
    32
  0
VERTEX
  8
SAPA_FOGBAND
  5
14E8
 10
78.9310
 20
59.2129
 30
0.000000
  70
    32
  0
VERTEX
  8
SAPA_FOGBAND
  5
14E9
 10
79.0163
 20
59.3237
 30
0.000000
  70
    32
  0
VERTEX
  8
SAPA_FOGBAND
  5
14EA
 10
79.1054
 20
59.4285
 30
0.000000
  70
    32
  0
VERTEX
  8
SAPA_FOGBAND
  5
14EB
 10
79.1980
 20
59.5272
 30
0.000000
  70
    32
  0
VERTEX
  8
SAPA_FOGBAND
  5
14EC
 10
79.2940
 20
59.6195
 30
0.000000
  70
    32
  0
VERTEX
  8
SAPA_FOGBAND
  5
14ED
 10
79.3931
 20
59.7051
 30
0.000000
  70
    32
  0
VERTEX
  8
SAPA_FOGBAND
  5
14EE
 10
79.4950
 20
59.7839
 30
0.000000
  70
    32
  0
VERTEX
  8
SAPA_FOGBAND
  5
14EF
 10
79.5996
 20
59.8556
 30
0.000000
  70
    32
  0
VERTEX
  8
SAPA_FOGBAND
  5
14F0
 10
79.7065
 20
59.9202
 30
0.000000
  70
    32
  0
VERTEX
  8
SAPA_FOGBAND
  5
14F1
 10
79.8155
 20
59.9774
 30
0.000000
  70
    32
  0
VERTEX
  8
SAPA_FOGBAND
  5
14F2
 10
79.9264
 20
60.0271
 30
0.000000
  70
    32
  0
VERTEX
  8
SAPA_FOGBAND
  5
14F3
 10
80.0389
 20
60.0691
 30
0.000000
  70
    32
  0
VERTEX
  8
SAPA_FOGBAND
  5
14F4
 10
80.1526
 20
60.1035
 30
0.000000
  70
    32
  0
VERTEX
  8
SAPA_FOGBAND
  5
14F5
 10
80.2674
 20
60.1300
 30
0.000000
  70
    32
  0
VERTEX
  8
SAPA_FOGBAND
  5
14F6
 10
80.3830
 20
60.1487
 30
0.000000
  70
    32
  0
VERTEX
  8
SAPA_FOGBAND
  5
14F7
 10
80.4990
 20
60.1594
 30
0.000000
  70
    32
  0
VERTEX
  8
SAPA_FOGBAND
  5
14F8
 10
80.6153
 20
60.1622
 30
0.000000
  70
    32
  0
VERTEX
  8
SAPA_FOGBAND
  5
14F9
 10
80.7315
 20
60.1571
 30
0.000000
  70
    32
  0
VERTEX
  8
SAPA_FOGBAND
  5
14FA
 10
80.8473
 20
60.1440
 30
0.000000
  70
    32
  0
VERTEX
  8
SAPA_FOGBAND
  5
14FB
 10
80.9624
 20
60.1231
 30
0.000000
  70
    32
  0
VERTEX
  8
SAPA_FOGBAND
  5
14FC
 10
81.0767
 20
60.0943
 30
0.000000
  70
    32
  0
VERTEX
  8
SAPA_FOGBAND
  5
14FD
 10
81.1898
 20
60.0577
 30
0.000000
  70
    32
  0
VERTEX
  8
SAPA_FOGBAND
  5
14FE
 10
81.3014
 20
60.0134
 30
0.000000
  70
    32
  0
VERTEX
  8
SAPA_FOGBAND
  5
14FF
 10
81.4112
 20
59.9615
 30
0.000000
  70
    32
  0
VERTEX
  8
SAPA_FOGBAND
  5
1500
 10
81.5191
 20
59.9021
 30
0.000000
  70
    32
  0
VERTEX
  8
SAPA_FOGBAND
  5
1501
 10
81.6247
 20
59.8355
 30
0.000000
  70
    32
  0
VERTEX
  8
SAPA_FOGBAND
  5
1502
 10
81.7278
 20
59.7617
 30
0.000000
  70
    32
  0
VERTEX
  8
SAPA_FOGBAND
  5
1503
 10
81.8282
 20
59.6809
 30
0.000000
  70
    32
  0
VERTEX
  8
SAPA_FOGBAND
  5
1504
 10
81.9255
 20
59.5933
 30
0.000000
  70
    32
  0
VERTEX
  8
SAPA_FOGBAND
  5
1505
 10
82.0196
 20
59.4991
 30
0.000000
  70
    32
  0
VERTEX
  8
SAPA_FOGBAND
  5
1506
 10
82.1103
 20
59.3986
 30
0.000000
  70
    32
  0
VERTEX
  8
SAPA_FOGBAND
  5
1507
 10
82.1973
 20
59.2920
 30
0.000000
  70
    32
  0
VERTEX
  8
SAPA_FOGBAND
  5
1508
 10
82.2803
 20
59.1795
 30
0.000000
  70
    32
  0
VERTEX
  8
SAPA_FOGBAND
  5
1509
 10
82.3593
 20
59.0615
 30
0.000000
  70
    32
  0
VERTEX
  8
SAPA_FOGBAND
  5
150A
 10
82.4340
 20
58.9381
 30
0.000000
  70
    32
  0
VERTEX
  8
SAPA_FOGBAND
  5
150B
 10
82.5043
 20
58.8098
 30
0.000000
  70
    32
  0
VERTEX
  8
SAPA_FOGBAND
  5
150C
 10
82.5699
 20
58.6768
 30
0.000000
  70
    32
  0
VERTEX
  8
SAPA_FOGBAND
  5
150D
 10
82.6307
 20
58.5394
 30
0.000000
  70
    32
  0
VERTEX
  8
SAPA_FOGBAND
  5
150E
 10
82.6866
 20
58.3980
 30
0.000000
  70
    32
  0
VERTEX
  8
SAPA_FOGBAND
  5
150F
 10
82.7374
 20
58.2528
 30
0.000000
  70
    32
  0
VERTEX
  8
SAPA_FOGBAND
  5
1510
 10
82.7831
 20
58.1044
 30
0.000000
  70
    32
  0
VERTEX
  8
SAPA_FOGBAND
  5
1511
 10
82.8234
 20
57.9529
 30
0.000000
  70
    32
  0
VERTEX
  8
SAPA_FOGBAND
  5
1512
 10
82.8583
 20
57.7988
 30
0.000000
  70
    32
  0
VERTEX
  8
SAPA_FOGBAND
  5
1513
 10
82.8878
 20
57.6425
 30
0.000000
  70
    32
  0
VERTEX
  8
SAPA_FOGBAND
  5
1514
 10
82.9117
 20
57.4843
 30
0.000000
  70
    32
  0
VERTEX
  8
SAPA_FOGBAND
  5
1515
 10
82.9300
 20
57.3246
 30
0.000000
  70
    32
  0
VERTEX
  8
SAPA_FOGBAND
  5
1516
 10
82.9426
 20
57.1638
 30
0.000000
  70
    32
  0
VERTEX
  8
SAPA_FOGBAND
  5
1517
 10
82.9495
 20
57.0023
 30
0.000000
  70
    32
  0
VERTEX
  8
SAPA_FOGBAND
  5
1518
 10
82.9508
 20
56.8404
 30
0.000000
  70
    32
  0
VERTEX
  8
SAPA_FOGBAND
  5
1519
 10
82.9463
 20
56.6786
 30
0.000000
  70
    32
  0
VERTEX
  8
SAPA_FOGBAND
  5
151A
 10
82.9362
 20
56.5172
 30
0.000000
  70
    32
  0
VERTEX
  8
SAPA_FOGBAND
  5
151B
 10
82.9203
 20
56.3567
 30
0.000000
  70
    32
  0
VERTEX
  8
SAPA_FOGBAND
  5
151C
 10
82.8989
 20
56.1974
 30
0.000000
  70
    32
  0
VERTEX
  8
SAPA_FOGBAND
  5
151D
 10
82.8718
 20
56.0397
 30
0.000000
  70
    32
  0
VERTEX
  8
SAPA_FOGBAND
  5
151E
 10
82.8393
 20
55.8840
 30
0.000000
  70
    32
  0
VERTEX
  8
SAPA_FOGBAND
  5
151F
 10
82.8013
 20
55.7306
 30
0.000000
  70
    32
  0
VERTEX
  8
SAPA_FOGBAND
  5
1520
 10
82.7579
 20
55.5800
 30
0.000000
  70
    32
  0
VERTEX
  8
SAPA_FOGBAND
  5
1521
 10
82.7094
 20
55.4325
 30
0.000000
  70
    32
  0
VERTEX
  8
SAPA_FOGBAND
  5
1522
 10
82.6557
 20
55.2884
 30
0.000000
  70
    32
  0
VERTEX
  8
SAPA_FOGBAND
  5
1523
 10
82.5970
 20
55.1481
 30
0.000000
  70
    32
  0
VERTEX
  8
SAPA_FOGBAND
  5
1524
 10
82.5334
 20
55.0119
 30
0.000000
  70
    32
  0
VERTEX
  8
SAPA_FOGBAND
  5
1525
 10
82.4652
 20
54.8803
 30
0.000000
  70
    32
  0
VERTEX
  8
SAPA_FOGBAND
  5
1526
 10
82.3924
 20
54.7533
 30
0.000000
  70
    32
  0
VERTEX
  8
SAPA_FOGBAND
  5
1527
 10
82.3152
 20
54.6315
 30
0.000000
  70
    32
  0
VERTEX
  8
SAPA_FOGBAND
  5
1528
 10
82.2339
 20
54.5151
 30
0.000000
  70
    32
  0
VERTEX
  8
SAPA_FOGBAND
  5
1529
 10
82.1486
 20
54.4043
 30
0.000000
  70
    32
  0
VERTEX
  8
SAPA_FOGBAND
  5
152A
 10
82.0595
 20
54.2994
 30
0.000000
  70
    32
  0
VERTEX
  8
SAPA_FOGBAND
  5
152B
 10
81.9669
 20
54.2007
 30
0.000000
  70
    32
  0
VERTEX
  8
SAPA_FOGBAND
  5
152C
 10
81.8709
 20
54.1085
 30
0.000000
  70
    32
  0
VERTEX
  8
SAPA_FOGBAND
  5
152D
 10
81.7719
 20
54.0228
 30
0.000000
  70
    32
  0
VERTEX
  8
SAPA_FOGBAND
  5
152E
 10
81.6699
 20
53.9440
 30
0.000000
  70
    32
  0
VERTEX
  8
SAPA_FOGBAND
  5
152F
 10
81.5654
 20
53.8723
 30
0.000000
  70
    32
  0
VERTEX
  8
SAPA_FOGBAND
  5
1530
 10
81.4585
 20
53.8077
 30
0.000000
  70
    32
  0
VERTEX
  8
SAPA_FOGBAND
  5
1531
 10
81.3494
 20
53.7506
 30
0.000000
  70
    32
  0
VERTEX
  8
SAPA_FOGBAND
  5
1532
 10
81.2385
 20
53.7009
 30
0.000000
  70
    32
  0
VERTEX
  8
SAPA_FOGBAND
  5
1533
 10
81.1261
 20
53.6588
 30
0.000000
  70
    32
  0
VERTEX
  8
SAPA_FOGBAND
  5
1534
 10
81.0123
 20
53.6245
 30
0.000000
  70
    32
  0
VERTEX
  8
SAPA_FOGBAND
  5
1535
 10
80.8975
 20
53.5979
 30
0.000000
  70
    32
  0
VERTEX
  8
SAPA_FOGBAND
  5
1536
 10
80.7819
 20
53.5793
 30
0.000000
  70
    32
  0
VERTEX
  8
SAPA_FOGBAND
  5
1537
 10
80.6659
 20
53.5685
 30
0.000000
  70
    32
  0
VERTEX
  8
SAPA_FOGBAND
  5
1538
 10
80.5496
 20
53.5657
 30
0.000000
  70
    32
  0
SEQEND
  8
SAPA_FOGBAND
  5
1539
  0
POLYLINE
  5
CBD
  8
SAPA_FOGBAND
 66
     1
 10
0.0
 20
0.0
 30
0.0
 70
     1
  0
VERTEX
  5
1451
  8
SAPA_FOGBAND
 10
76.349486565265479
 20
66.938945585035171
 30
0.0
  0
VERTEX
  5
1452
  8
SAPA_FOGBAND
 10
75.85753422537546
 20
63.937618422465768
 30
0.0
 42
0.4464785874932524
  0
VERTEX
  5
1453
  8
SAPA_FOGBAND
 10
76.851611530481378
 20
62.828943165514929
 30
0.0
  0
VERTEX
  5
1454
  8
SAPA_FOGBAND
 10
82.312704316584487
 20
62.828943165514922
 30
0.0
 42
0.6226769977423571
  0
VERTEX
  5
1455
  8
SAPA_FOGBAND
 10
83.104586044747876
 20
64.439617652128717
 30
0.0
  0
VERTEX
  5
1456
  8
SAPA_FOGBAND
 10
80.629550722230874
 20
67.440944814698113
 30
0.0
 42
0.232531183213058
  0
VERTEX
  5
1457
  8
SAPA_FOGBAND
 10
79.837668994067272
 20
67.830270328084325
 30
0.0
  0
VERTEX
  5
1458
  8
SAPA_FOGBAND
 10
77.343563870371227
 20
67.830270328084325
 30
0.0
 42
0.3826682380870913
  0
SEQEND
  5
1459
  8
SAPA_FOGBAND
  0
POLYLINE
  5
CBE
  8
SAPA_FOGBAND
 66
     1
 10
0.0
 20
0.0
 30
0.0
 70
     1
  0
VERTEX
  5
145A
  8
SAPA_FOGBAND
 10
88.862852063174287
 20
56.52894316551474
 30
0.0
  0
VERTEX
  5
145B
  8
SAPA_FOGBAND
 10
88.262852063174378
 20
56.52894316551474
 30
0.0
 42
0.9999999999999998
  0
VERTEX
  5
145C
  8
SAPA_FOGBAND
 10
88.262852063174378
 20
54.728943165514558
 30
0.0
  0
VERTEX
  5
145D
  8
SAPA_FOGBAND
 10
88.862852063174287
 20
54.728943165514558
 30
0.0
 42
0.9999999999999998
  0
SEQEND
  5
145E
  8
SAPA_FOGBAND
  0
POLYLINE
  5
CBF
  8
SAPA_FOGBAND
 66
     1
 10
0.0
 20
0.0
 30
0.0
  0
VERTEX
  5
145F
  8
SAPA_FOGBAND
 10
87.162852063174469
 20
60.328943165514922
 30
0.0
  0
VERTEX
  5
1460
  8
SAPA_FOGBAND
 10
87.162852063174469
 20
60.657042716249727
 30
0.0
 42
0.1657205760184635
  0
VERTEX
  5
1461
  8
SAPA_FOGBAND
 10
86.954733791337844
 20
61.267717202863629
 30
0.0
  0
VERTEX
  5
1462
  8
SAPA_FOGBAND
 10
81.560148706481996
 20
70.635607593340055
 30
0.0
 42
0.2325311832130381
  0
VERTEX
  5
1463
  8
SAPA_FOGBAND
 10
81.164207842400074
 20
70.83027035003407
 30
0.0
  0
VERTEX
  5
1464
  8
SAPA_FOGBAND
 10
70.312852060758317
 20
70.829062847373038
 30
0.0
 42
0.5543163197794524
  0
VERTEX
  5
1465
  8
SAPA_FOGBAND
 10
69.318774755652569
 20
68.903117291850535
 30
0.0
  0
VERTEX
  5
1466
  8
SAPA_FOGBAND
 10
74.162852063174014
 20
65.574166599143595
 30
0.0
  0
VERTEX
  5
1467
  8
SAPA_FOGBAND
 10
74.162852063174071
 20
50.628943187463939
 30
0.0
 42
0.425791769969346
  0
VERTEX
  5
1468
  8
SAPA_FOGBAND
 10
74.474659425704786
 20
50.329175633866029
 30
0.0
  0
VERTEX
  5
1469
  8
SAPA_FOGBAND
 10
86.874659425705332
 20
50.817015448535223
 30
0.0
 42
0.4027293761437539
  0
VERTEX
  5
146A
  8
SAPA_FOGBAND
 10
87.162852063174469
 20
51.116783002133253
 30
0.0
  0
VERTEX
  5
146B
  8
SAPA_FOGBAND
 10
87.16285206317913
 20
52.028943165515649
 30
0.0
  0
SEQEND
  5
146C
  8
SAPA_FOGBAND
  0
CIRCLE
  5
CC0
  8
SAPA_FOGBAND
 10
21.6343852068252
 20
57.200913554416609
 30
0.0
 40
0.2549509756796394
  0
POLYLINE
  5
CC1
  8
SAPA_FOGBAND
 66
     1
 10
0.0
 20
0.0
 30
0.0
 70
     1
  0
VERTEX
  5
146D
  8
SAPA_FOGBAND
 10
19.062852063174329
 20
58.100913554416699
 30
0.0
 42
-0.9999999999999998
  0
VERTEX
  5
146E
  8
SAPA_FOGBAND
 10
19.062852063174329
 20
56.300913554416738
 30
0.0
  0
VERTEX
  5
146F
  8
SAPA_FOGBAND
 10
18.46285206317431
 20
56.300913554416738
 30
0.0
 42
-0.9999999999999998
  0
VERTEX
  5
1470
  8
SAPA_FOGBAND
 10
18.46285206317431
 20
58.100913554416699
 30
0.0
  0
SEQEND
  5
1471
  8
SAPA_FOGBAND
  0
POLYLINE
  5
CC2
  8
SAPA_FOGBAND
 66
     1
 10
0.0
 20
0.0
 30
0.0
 70
     1
  0
VERTEX
  5
1472
  8
SAPA_FOGBAND
 10
22.498623358325538
 20
61.450913554416601
 30
0.0
  0
VERTEX
  5
1473
  8
SAPA_FOGBAND
 10
20.362852063174401
 20
61.450913554416829
 30
0.0
 42
0.4142135623730951
  0
VERTEX
  5
1474
  8
SAPA_FOGBAND
 10
20.162852063174359
 20
61.25091355441679
 30
0.0
  0
VERTEX
  5
1475
  8
SAPA_FOGBAND
 10
20.162852063174359
 20
59.200913554416609
 30
0.0
 42
-0.4142135623730951
  0
VERTEX
  5
1476
  8
SAPA_FOGBAND
 10
19.662852063174359
 20
58.700913554416609
 30
0.0
  0
VERTEX
  5
1477
  8
SAPA_FOGBAND
 10
18.93605714393119
 20
58.700913554416609
 30
0.0
  0
VERTEX
  5
1478
  8
SAPA_FOGBAND
 10
18.8685972346208
 20
58.952677363437139
 30
0.0
 42
0.4740571810232154
  0
VERTEX
  5
1479
  8
SAPA_FOGBAND
 10
18.586314648982139
 20
59.079971225800698
 30
0.0
  0
VERTEX
  5
147A
  8
SAPA_FOGBAND
 10
17.140108512222369
 20
58.459870723042158
 30
0.0
 42
0.2846003776496056
  0
VERTEX
  5
147B
  8
SAPA_FOGBAND
 10
16.862852063174401
 20
58.012226544581949
 30
0.0
  0
VERTEX
  5
147C
  8
SAPA_FOGBAND
 10
16.862852063174401
 20
56.389600564251509
 30
0.0
 42
0.2846003776496054
  0
VERTEX
  5
147D
  8
SAPA_FOGBAND
 10
17.140108512222369
 20
55.941956385791279
 30
0.0
  0
VERTEX
  5
147E
  8
SAPA_FOGBAND
 10
18.586314648982139
 20
55.32185588303274
 30
0.0
 42
0.4740571810232154
  0
VERTEX
  5
147F
  8
SAPA_FOGBAND
 10
18.86859723462079
 20
55.449149745396298
 30
0.0
  0
VERTEX
  5
1480
  8
SAPA_FOGBAND
 10
18.93605714393119
 20
55.700913554416609
 30
0.0
  0
VERTEX
  5
1481
  8
SAPA_FOGBAND
 10
19.662852063174348
 20
55.700913554416609
 30
0.0
 42
-0.4142135623730951
  0
VERTEX
  5
1482
  8
SAPA_FOGBAND
 10
20.162852063174348
 20
55.200913554416601
 30
0.0
  0
VERTEX
  5
1483
  8
SAPA_FOGBAND
 10
20.162852063174348
 20
52.150913554416647
 30
0.0
 42
-0.4142135623730951
  0
VERTEX
  5
1484
  8
SAPA_FOGBAND
 10
19.96285206317431
 20
51.950913554416609
 30
0.0
  0
VERTEX
  5
1485
  8
SAPA_FOGBAND
 10
19.062852063174329
 20
51.950913554416829
 30
0.0
 42
0.4142135623730951
  0
VERTEX
  5
1486
  8
SAPA_FOGBAND
 10
18.862852063174401
 20
51.75091355441679
 30
0.0
  0
VERTEX
  5
1487
  8
SAPA_FOGBAND
 10
18.862852063174291
 20
51.050913554416752
 30
0.0
 42
0.4142135623730951
  0
VERTEX
  5
1488
  8
SAPA_FOGBAND
 10
19.162852063174348
 20
50.75091355441679
 30
0.0
  0
VERTEX
  5
1489
  8
SAPA_FOGBAND
 10
19.97336383982589
 20
50.75091355441679
 30
0.0
 42
-0.1316524975873982
  0
VERTEX
  5
148A
  8
SAPA_FOGBAND
 10
20.9733638398259
 20
50.48296436198563
 30
0.0
  0
VERTEX
  5
148B
  8
SAPA_FOGBAND
 10
23.608730758170068
 20
46.512251824883492
 30
0.0
 42
0.876976462992761
  0
VERTEX
  5
148C
  8
SAPA_FOGBAND
 10
24.12607209428656
 20
46.615157414793757
 30
0.0
  0
VERTEX
  5
148D
  8
SAPA_FOGBAND
 10
23.57222729774232
 20
52.039818976665963
 30
0.0
 42
-0.1353185728426623
  0
VERTEX
  5
148E
  8
SAPA_FOGBAND
 10
23.57222729774232
 20
52.039818976665963
 30
0.0
  0
VERTEX
  5
148F
  8
SAPA_FOGBAND
 10
23.984263990142509
 20
52.277708469494762
 30
0.0
 42
0.5773502691896196
  0
VERTEX
  5
1490
  8
SAPA_FOGBAND
 10
23.984263990142509
 20
52.624118631008621
 30
0.0
  0
VERTEX
  5
1491
  8
SAPA_FOGBAND
 10
23.571953427580649
 20
52.86216624773953
 30
0.0
  0
VERTEX
  5
1492
  8
SAPA_FOGBAND
 10
23.571953427580649
 20
53.63966085765616
 30
0.0
  0
VERTEX
  5
1493
  8
SAPA_FOGBAND
 10
23.984263990142509
 20
53.877708469494891
 30
0.0
 42
0.5773502691896196
  0
VERTEX
  5
1494
  8
SAPA_FOGBAND
 10
23.984263990142509
 20
54.22411863100853
 30
0.0
  0
VERTEX
  5
1495
  8
SAPA_FOGBAND
 10
23.571953427580649
 20
54.462166247739439
 30
0.0
  0
VERTEX
  5
1496
  8
SAPA_FOGBAND
 10
23.571953427580649
 20
55.239660857656069
 30
0.0
  0
VERTEX
  5
1497
  8
SAPA_FOGBAND
 10
23.984263990142509
 20
55.477708469494807
 30
0.0
 42
0.5773502691896196
  0
VERTEX
  5
1498
  8
SAPA_FOGBAND
 10
23.984263990142509
 20
55.824118631008659
 30
0.0
  0
VERTEX
  5
1499
  8
SAPA_FOGBAND
 10
23.571953427580659
 20
56.062166247739349
 30
0.0
  0
VERTEX
  5
149A
  8
SAPA_FOGBAND
 10
23.571953427580659
 20
56.839660857656213
 30
0.0
  0
VERTEX
  5
149B
  8
SAPA_FOGBAND
 10
23.984263990142509
 20
57.077708469494723
 30
0.0
 42
0.5773502691896196
  0
VERTEX
  5
149C
  8
SAPA_FOGBAND
 10
23.984263990142509
 20
57.424118631008582
 30
0.0
  0
VERTEX
  5
149D
  8
SAPA_FOGBAND
 10
23.571953427580659
 20
57.662166247739492
 30
0.0
  0
VERTEX
  5
149E
  8
SAPA_FOGBAND
 10
23.571953427580659
 20
58.439660857656108
 30
0.0
  0
VERTEX
  5
149F
  8
SAPA_FOGBAND
 10
23.984263990142509
 20
58.677708469494853
 30
0.0
 42
0.5773502691896196
  0
VERTEX
  5
14A0
  8
SAPA_FOGBAND
 10
23.984263990142509
 20
59.024118631008712
 30
0.0
  0
VERTEX
  5
14A1
  8
SAPA_FOGBAND
 10
23.571953427580659
 20
59.262166247739387
 30
0.0
  0
VERTEX
  5
14A2
  8
SAPA_FOGBAND
 10
23.571953427580659
 20
60.039660861821062
 30
0.0
  0
VERTEX
  5
14A3
  8
SAPA_FOGBAND
 10
23.984263990142509
 20
60.277708473659793
 30
0.0
 42
0.5773502691896196
  0
VERTEX
  5
14A4
  8
SAPA_FOGBAND
 10
23.984263990142509
 20
60.624118635173652
 30
0.0
  0
VERTEX
  5
14A5
  8
SAPA_FOGBAND
 10
22.598623359096241
 20
61.424118634728629
 30
0.0
 42
0.1316524987190407
  0
SEQEND
  5
14A6
  8
SAPA_FOGBAND
  0
INSERT
  5
CC3
  8
SAPA_FOGBAND
  6
CONTINUOUS
  2
*U36
 10
0.0
 20
0.0
 30
0.0
1001
ACAD
1002
{
1000
R14_HATCH_DATA
1000
CC3
1011
1.0
1021
0.0
1031
0.0
1021
0.0
1031
0.0
1011
0.0
1021
0.0
1031
0.0
1021
1.0
1031
0.0
1011
0.0
1021
0.0
1031
0.0
1021
0.0
1031
1.0
1040
0.0
1010
0.0
1020
0.0
1030
1.0
1000
SOLID
1070
     1
1070
     1
1071
        1
1071
        1
1071
        1
1070
     2
1040
21.6343852068252
1040
57.200913554416609
1040
0.2549509756796394
1040
-1.5707963267948959
1040
4.7123889803846888
1070
     0
1071
        1
1005
CC0
1070
     0
1070
     1
1071
        1
1040
21.716236704154099
1040
56.964174652846502
1040
0.0
1002
}
  0
VIEWPORT
  5
C4
 67
     1
  8
0
 10
160.5543545598442
 20
116.00969601843509
 30
0.0
 40
404.96977709277462
 41
256.8421457311839
 68
     1
 69
     1
1001
ACAD
1000
MVIEW
1002
{
1070
    16
1010
0.0
1020
0.0
1030
0.0
1010
0.0
1020
0.0
1030
1.0
1040
-1.5707963267948959
1040
256.8421457311839
1040
102.1562485694885
1040
-121.90624046325679
1040
50.0
1040
0.0
1040
0.0
1070
     0
1070
     0
1070
     1
1070
     1
1070
     0
1070
     0
1070
     0
1070
     0
1040
0.0
1040
0.0
1040
0.0
1040
10.0
1040
10.0
1040
10.0
1040
10.0
1070
     0
1002
{
1002
}
1002
}
  0
ENDSEC
  0
EOF
