  0
SECTION
  2
HEADER
  9
$ACADVER
  1
AC1021
  9
$ACADMAINTVER
 70
    50
  9
$DWGCODEPAGE
  3
ANSI_1252
  9
$INSBASE
 10
0.0
 20
0.0
 30
0.0
  9
$EXTMIN
 10
-177.4930815902735
 20
-2152.704055854573
 30
-0.3
  9
$EXTMAX
 10
8641.0
 20
4910.591557373398
 30
0.1
  9
$LIMMIN
 10
0.0
 20
0.0
  9
$LIMMAX
 10
790.0
 20
790.0
  9
$ORTHOMODE
 70
     0
  9
$REGENMODE
 70
     1
  9
$FILLMODE
 70
     1
  9
$QTEXTMODE
 70
     0
  9
$MIRRTEXT
 70
     1
  9
$LTSCALE
 40
4.0
  9
$ATTMODE
 70
     1
  9
$TEXTSIZE
 40
3.5
  9
$TRACEWID
 40
0.05
  9
$TEXTSTYLE
  7
ISO
  9
$CLAYER
  8
sapa_elevation
  9
$CELTYPE
  6
BYLAYER
  9
$CECOLOR
 62
   256
  9
$CELTSCALE
 40
1.0
  9
$DISPSILH
 70
     1
  9
$DIMSCALE
 40
0.0
  9
$DIMASZ
 40
3.0
  9
$DIMEXO
 40
1.5
  9
$DIMDLI
 40
10.0
  9
$DIMRND
 40
0.0
  9
$DIMDLE
 40
0.0
  9
$DIMEXE
 40
1.5
  9
$DIMTP
 40
0.0
  9
$DIMTM
 40
0.0
  9
$DIMTXT
 40
3.0
  9
$DIMCEN
 40
-5.0
  9
$DIMTSZ
 40
0.0
  9
$DIMTOL
 70
     0
  9
$DIMLIM
 70
     0
  9
$DIMTIH
 70
     0
  9
$DIMTOH
 70
     0
  9
$DIMSE1
 70
     0
  9
$DIMSE2
 70
     0
  9
$DIMTAD
 70
     1
  9
$DIMZIN
 70
     8
  9
$DIMBLK
  1

  9
$DIMASO
 70
     1
  9
$DIMSHO
 70
     1
  9
$DIMPOST
  1

  9
$DIMAPOST
  1

  9
$DIMALT
 70
     0
  9
$DIMALTD
 70
     0
  9
$DIMALTF
 40
25.4
  9
$DIMLFAC
 40
-1.0
  9
$DIMTOFL
 70
     1
  9
$DIMTVP
 40
0.0
  9
$DIMTIX
 70
     0
  9
$DIMSOXD
 70
     0
  9
$DIMSAH
 70
     0
  9
$DIMBLK1
  1

  9
$DIMBLK2
  1

  9
$DIMSTYLE
  2
MASKIN
  9
$DIMCLRD
 70
   256
  9
$DIMCLRE
 70
   256
  9
$DIMCLRT
 70
   256
  9
$DIMTFAC
 40
1.0
  9
$DIMGAP
 40
1.0
  9
$DIMJUST
 70
     0
  9
$DIMSD1
 70
     0
  9
$DIMSD2
 70
     0
  9
$DIMTOLJ
 70
     1
  9
$DIMTZIN
 70
     8
  9
$DIMALTZ
 70
     8
  9
$DIMALTTZ
 70
     8
  9
$DIMUPT
 70
     0
  9
$DIMDEC
 70
     8
  9
$DIMTDEC
 70
     8
  9
$DIMALTU
 70
     2
  9
$DIMALTTD
 70
     0
  9
$DIMTXSTY
  7
ISO
  9
$DIMAUNIT
 70
     0
  9
$DIMADEC
 70
     0
  9
$DIMALTRND
 40
0.0
  9
$DIMAZIN
 70
     0
  9
$DIMDSEP
 70
    46
  9
$DIMATFIT
 70
     3
  9
$DIMFRAC
 70
     0
  9
$DIMLDRBLK
  1

  9
$DIMLUNIT
 70
     2
  9
$DIMLWD
 70
    -2
  9
$DIMLWE
 70
    -2
  9
$DIMTMOVE
 70
     2
  9
$DIMFXL
 40
1.0
  9
$DIMFXLON
 70
     0
  9
$DIMJOGANG
 40
0.7853981633974483
  9
$DIMTFILL
 70
     0
  9
$DIMTFILLCLR
 70
     0
  9
$DIMARCSYM
 70
     0
  9
$DIMLTYPE
  6

  9
$DIMLTEX1
  6

  9
$DIMLTEX2
  6

  9
$LUNITS
 70
     2
  9
$LUPREC
 70
     8
  9
$SKETCHINC
 40
0.1
  9
$FILLETRAD
 40
0.0
  9
$AUNITS
 70
     0
  9
$AUPREC
 70
     8
  9
$MENU
  1
ACAD
  9
$ELEVATION
 40
0.0
  9
$PELEVATION
 40
0.0
  9
$THICKNESS
 40
0.0
  9
$LIMCHECK
 70
     0
  9
$CHAMFERA
 40
0.0
  9
$CHAMFERB
 40
0.0
  9
$CHAMFERC
 40
0.0
  9
$CHAMFERD
 40
0.0
  9
$SKPOLY
 70
     0
  9
$TDCREATE
 40
2451935.427219387
  9
$TDUCREATE
 40
2451935.343886054
  9
$TDUPDATE
 40
2457612.395220579
  9
$TDUUPDATE
 40
2457612.311887245
  9
$TDINDWG
 40
0.3176514931
  9
$TDUSRTIMER
 40
0.3176514931
  9
$USRTIMER
 70
     1
  9
$ANGBASE
 50
0.0
  9
$ANGDIR
 70
     0
  9
$PDMODE
 70
     0
  9
$PDSIZE
 40
0.0
  9
$PLINEWID
 40
0.0
  9
$SPLFRAME
 70
     0
  9
$SPLINETYPE
 70
     6
  9
$SPLINESEGS
 70
     8
  9
$HANDSEED
  5
10B
  9
$SURFTAB1
 70
     6
  9
$SURFTAB2
 70
     6
  9
$SURFTYPE
 70
     6
  9
$SURFU
 70
     6
  9
$SURFV
 70
     6
  9
$UCSBASE
  2

  9
$UCSNAME
  2

  9
$UCSORG
 10
0.0
 20
0.0
 30
0.0
  9
$UCSXDIR
 10
1.0
 20
0.0
 30
0.0
  9
$UCSYDIR
 10
0.0
 20
1.0
 30
0.0
  9
$UCSORTHOREF
  2

  9
$UCSORTHOVIEW
 70
     0
  9
$UCSORGTOP
 10
0.0
 20
0.0
 30
0.0
  9
$UCSORGBOTTOM
 10
0.0
 20
0.0
 30
0.0
  9
$UCSORGLEFT
 10
0.0
 20
0.0
 30
0.0
  9
$UCSORGRIGHT
 10
0.0
 20
0.0
 30
0.0
  9
$UCSORGFRONT
 10
0.0
 20
0.0
 30
0.0
  9
$UCSORGBACK
 10
0.0
 20
0.0
 30
0.0
  9
$PUCSBASE
  2

  9
$PUCSNAME
  2

  9
$PUCSORG
 10
0.0
 20
0.0
 30
0.0
  9
$PUCSXDIR
 10
1.0
 20
0.0
 30
0.0
  9
$PUCSYDIR
 10
0.0
 20
1.0
 30
0.0
  9
$PUCSORTHOREF
  2

  9
$PUCSORTHOVIEW
 70
     0
  9
$PUCSORGTOP
 10
0.0
 20
0.0
 30
0.0
  9
$PUCSORGBOTTOM
 10
0.0
 20
0.0
 30
0.0
  9
$PUCSORGLEFT
 10
0.0
 20
0.0
 30
0.0
  9
$PUCSORGRIGHT
 10
0.0
 20
0.0
 30
0.0
  9
$PUCSORGFRONT
 10
0.0
 20
0.0
 30
0.0
  9
$PUCSORGBACK
 10
0.0
 20
0.0
 30
0.0
  9
$USERI1
 70
     0
  9
$USERI2
 70
     0
  9
$USERI3
 70
     0
  9
$USERI4
 70
     0
  9
$USERI5
 70
     0
  9
$USERR1
 40
0.0
  9
$USERR2
 40
0.0
  9
$USERR3
 40
0.0
  9
$USERR4
 40
0.0
  9
$USERR5
 40
0.0
  9
$WORLDVIEW
 70
     1
  9
$SHADEDGE
 70
     3
  9
$SHADEDIF
 70
    70
  9
$TILEMODE
 70
     1
  9
$MAXACTVP
 70
    16
  9
$PINSBASE
 10
0.0
 20
0.0
 30
0.0
  9
$PLIMCHECK
 70
     0
  9
$PEXTMIN
 10
5.869999703752308
 20
-0.0000001723469722
 30
0.0
  9
$PEXTMAX
 10
185.8683605469043
 20
282.999999827653
 30
0.0
  9
$PLIMMIN
 10
-14.40651499994891
 20
-4.253669647431024
  9
$PLIMMAX
 10
195.5668126367698
 20
292.6723252256159
  9
$UNITMODE
 70
     0
  9
$VISRETAIN
 70
     0
  9
$PLINEGEN
 70
     0
  9
$PSLTSCALE
 70
     1
  9
$TREEDEPTH
 70
  3020
  9
$CMLSTYLE
  2
STANDARD
  9
$CMLJUST
 70
     0
  9
$CMLSCALE
 40
1.0
  9
$PROXYGRAPHICS
 70
     1
  9
$MEASUREMENT
 70
     1
  9
$CELWEIGHT
370
    -1
  9
$ENDCAPS
280
     0
  9
$JOINSTYLE
280
     0
  9
$LWDISPLAY
290
     0
  9
$INSUNITS
 70
     0
  9
$HYPERLINKBASE
  1

  9
$STYLESHEET
  1

  9
$XEDIT
290
     1
  9
$CEPSNTYPE
380
     0
  9
$PSTYLEMODE
290
     1
  9
$FINGERPRINTGUID
  2
{BA4B83A7-9DBB-4D0F-8D94-66248A8014E4}
  9
$VERSIONGUID
  2
{86F4C9EA-88C1-423F-BA69-1C3D9EEAD86C}
  9
$EXTNAMES
290
     1
  9
$PSVPSCALE
 40
0.0
  9
$OLESTARTUP
290
     0
  9
$SORTENTS
280
   127
  9
$INDEXCTL
280
     0
  9
$HIDETEXT
280
     1
  9
$XCLIPFRAME
290
     0
  9
$HALOGAP
280
     0
  9
$OBSCOLOR
 70
   257
  9
$OBSLTYPE
280
     0
  9
$INTERSECTIONDISPLAY
280
     0
  9
$INTERSECTIONCOLOR
 70
   257
  9
$DIMASSOC
280
     1
  9
$PROJECTNAME
  1

  9
$CAMERADISPLAY
290
     0
  9
$LENSLENGTH
 40
50.0
  9
$CAMERAHEIGHT
 40
0.0
  9
$STEPSPERSEC
 40
2.0
  9
$STEPSIZE
 40
6.0
  9
$3DDWFPREC
 40
2.0
  9
$PSOLWIDTH
 40
0.25
  9
$PSOLHEIGHT
 40
4.0
  9
$LOFTANG1
 40
1.570796326794896
  9
$LOFTANG2
 40
1.570796326794896
  9
$LOFTMAG1
 40
0.0
  9
$LOFTMAG2
 40
0.0
  9
$LOFTPARAM
 70
     7
  9
$LOFTNORMALS
280
     1
  9
$LATITUDE
 40
37.795
  9
$LONGITUDE
 40
-122.394
  9
$NORTHDIRECTION
 40
0.0
  9
$TIMEZONE
 70
 -8000
  9
$LIGHTGLYPHDISPLAY
280
     1
  9
$TILEMODELIGHTSYNCH
280
     1
  9
$CMATERIAL
347
33
  9
$SOLIDHIST
280
     1
  9
$SHOWHIST
280
     1
  9
$DWFFRAME
280
     2
  9
$DGNFRAME
280
     0
  9
$REALWORLDSCALE
290
     1
  9
$INTERFERECOLOR
 62
     1
  9
$INTERFEREOBJVS
345
3F
  9
$INTERFEREVPVS
346
40
  9
$CSHADOW
280
     0
  9
$SHADOWPLANELOCATION
 40
0.0
  0
ENDSEC
  0
SECTION
  2
CLASSES
  0
CLASS
  1
DICTIONARYVAR
  2
AcDbDictionaryVar
  3
ObjectDBX Classes
 90
        0
 91
        9
280
     0
281
     0
  0
CLASS
  1
ACDBDICTIONARYWDFLT
  2
AcDbDictionaryWithDefault
  3
ObjectDBX Classes
 90
        0
 91
        1
280
     0
281
     0
  0
CLASS
  1
PLOTSETTINGS
  2
AcDbPlotSettings
  3
ObjectDBX Classes
 90
        0
 91
        0
280
     0
281
     0
  0
CLASS
  1
IMAGE
  2
AcDbRasterImage
  3
ISM
 90
     2175
 91
        0
280
     0
281
     1
  0
CLASS
  1
IMAGEDEF_REACTOR
  2
AcDbRasterImageDefReactor
  3
ISM
 90
        1
 91
        0
280
     0
281
     0
  0
CLASS
  1
IMAGEDEF
  2
AcDbRasterImageDef
  3
ISM
 90
        0
 91
        0
280
     0
281
     0
  0
CLASS
  1
RASTERVARIABLES
  2
AcDbRasterVariables
  3
ISM
 90
        0
 91
        0
280
     0
281
     0
  0
CLASS
  1
TABLESTYLE
  2
AcDbTableStyle
  3
ObjectDBX Classes
 90
     4095
 91
        1
280
     0
281
     0
  0
CLASS
  1
MATERIAL
  2
AcDbMaterial
  3
ObjectDBX Classes
 90
     1153
 91
        3
280
     0
281
     0
  0
CLASS
  1
VISUALSTYLE
  2
AcDbVisualStyle
  3
ObjectDBX Classes
 90
     4095
 91
        3
280
     0
281
     0
  0
CLASS
  1
SOLID_BACKGROUND
  2
AcDbSolidBackground
  3
SCENEOE
 90
     4095
 91
        0
280
     1
281
     0
  0
CLASS
  1
NPOCOLLECTION
  2
AcDbImpNonPersistentObjectsCollection
  3
ObjectDBX Classes
 90
     1153
 91
        0
280
     0
281
     0
  0
CLASS
  1
SCALE
  2
AcDbScale
  3
ObjectDBX Classes
 90
     1153
 91
       35
280
     0
281
     0
  0
CLASS
  1
MLEADERSTYLE
  2
AcDbMLeaderStyle
  3
ACDB_MLEADERSTYLE_CLASS
 90
     4095
 91
        1
280
     0
281
     0
  0
CLASS
  1
EXACTERMXREFMAP
  2
ExAcTermXrefMap
  3
EXAC_SERVICE
 90
     1025
 91
        0
280
     0
281
     0
  0
CLASS
  1
EXACXREFPANELOBJECT
  2
ExAcXREFPanelObject
  3
EXAC_ESW
 90
     1025
 91
        0
280
     0
281
     0
  0
CLASS
  1
AEC_REFEDIT_STATUS_TRACKER
  2
AecDbRefEditStatusTracker
  3
AecArchBase70|Product Desc: Autodesk Architectural Desktop 2007 |Company: Autodesk,Inc. |WEB Address: www.autodesk.com
 90
      129
 91
        0
280
     1
281
     0
  0
CLASS
  1
MULTILEADER
  2
AcDbMLeader
  3
ACDB_MLEADER_CLASS
 90
     1025
 91
        2
280
     0
281
     1
  0
CLASS
  1
SORTENTSTABLE
  2
AcDbSortentsTable
  3
ObjectDBX Classes
 90
        0
 91
        2
280
     0
281
     0
  0
CLASS
  1
CELLSTYLEMAP
  2
AcDbCellStyleMap
  3
ObjectDBX Classes
 90
     1152
 91
        1
280
     0
281
     0
  0
CLASS
  1
ACDBSECTIONVIEWSTYLE
  2
AcDbSectionViewStyle
  3
ObjectDBX Classes
 90
     1025
 91
        0
280
     0
281
     0
  0
CLASS
  1
ACDBDETAILVIEWSTYLE
  2
AcDbDetailViewStyle
  3
ObjectDBX Classes
 90
     1025
 91
        0
280
     0
281
     0
  0
ENDSEC
  0
SECTION
  2
TABLES
  0
TABLE
  2
VPORT
  5
24
102
{ACAD_XDICTIONARY
360
29
102
}
330
0
100
AcDbSymbolTable
 70
     1
  0
VPORT
  5
25
330
24
100
AcDbSymbolTableRecord
100
AcDbViewportTableRecord
  2
*Active
 70
     0
 10
0.0
 20
0.0
 11
1.0
 21
1.0
 12
5720.290632548767
 22
8869.237451384897
 13
0.0
 23
0.0
 14
1.0
 24
1.0
 15
0.0
 25
0.0
 16
0.0
 26
0.0
 36
1.0
 17
0.0
 27
0.0
 37
0.0
 40
9134.584264815073
 41
1.607076350093109
 42
50.0
 43
0.0
 44
0.0
 50
0.0
 51
0.0
 71
     0
 72
   100
 73
     1
 74
     1
 75
     0
 76
     0
 77
     0
 78
     0
281
     0
 65
     1
110
0.0
120
0.0
130
0.0
111
1.0
121
0.0
131
0.0
112
0.0
122
1.0
132
0.0
 79
     0
146
0.0
348
26
 60
     3
 61
     5
292
     1
282
     1
141
0.0
142
0.0
 63
   250
421
  3355443
1001
ACAD_NAV_VCDISPLAY
1070
     3
  0
ENDTAB
  0
TABLE
  2
LTYPE
  5
1F
330
0
100
AcDbSymbolTable
 70
     2
  0
LTYPE
  5
20
330
1F
100
AcDbSymbolTableRecord
100
AcDbLinetypeTableRecord
  2
BYBLOCK
 70
     0
  3

 72
    65
 73
     0
 40
0.0
  0
LTYPE
  5
21
330
1F
100
AcDbSymbolTableRecord
100
AcDbLinetypeTableRecord
  2
BYLAYER
 70
     0
  3

 72
    65
 73
     0
 40
0.0
  0
LTYPE
  5
E
330
1F
100
AcDbSymbolTableRecord
100
AcDbLinetypeTableRecord
  2
CONTINUOUS
 70
     0
  3
Solid line
 72
    65
 73
     0
 40
0.0
  0
LTYPE
  5
A5
330
1F
100
AcDbSymbolTableRecord
100
AcDbLinetypeTableRecord
  2
DASHED
 70
     0
  3
__ __ __ __ __ __ __ __ __ __ __ __ __ __ __
 72
    65
 73
     2
 40
0.75
 49
0.5
 74
     0
 49
-0.25
 74
     0
  0
ENDTAB
  0
TABLE
  2
LAYER
  5
19
102
{ACAD_XDICTIONARY
360
1A
102
}
330
0
100
AcDbSymbolTable
 70
     2
  0
LAYER
  5
6
102
{ACAD_XDICTIONARY
360
7
102
}
330
19
100
AcDbSymbolTableRecord
100
AcDbLayerTableRecord
  2
0
 70
     1
 62
    -7
  6
CONTINUOUS
370
    -3
390
9
347
C
  0
LAYER
  5
39
102
{ACAD_XDICTIONARY
360
3A
102
}
330
19
100
AcDbSymbolTableRecord
100
AcDbLayerTableRecord
  2
sapa_elevation
 70
     0
 62
     7
  6
CONTINUOUS
370
    -3
390
9
347
C
  0
ENDTAB
  0
TABLE
  2
STYLE
  5
1C
330
0
100
AcDbSymbolTable
 70
     2
  0
STYLE
  5
1D
330
1C
100
AcDbSymbolTableRecord
100
AcDbTextStyleTableRecord
  2
STANDARD
 70
     0
 40
0.0
 41
1.0
 50
0.0
 71
     0
 42
0.2
  3
txt
  4

  0
STYLE
  5
2E
330
1C
100
AcDbSymbolTableRecord
100
AcDbTextStyleTableRecord
  2
ISO
 70
     0
 40
0.0
 41
1.0
 50
0.0
 71
     0
 42
3.5
  3
isocp3.shx
  4

  0
ENDTAB
  0
TABLE
  2
VIEW
  5
22
330
0
100
AcDbSymbolTable
 70
     0
  0
ENDTAB
  0
TABLE
  2
UCS
  5
23
330
0
100
AcDbSymbolTable
 70
     0
  0
ENDTAB
  0
TABLE
  2
APPID
  5
2A
330
0
100
AcDbSymbolTable
 70
     4
  0
APPID
  5
2B
330
2A
100
AcDbSymbolTableRecord
100
AcDbRegAppTableRecord
  2
ACAD
 70
     0
  0
APPID
  5
13
330
2A
100
AcDbSymbolTableRecord
100
AcDbRegAppTableRecord
  2
ACAD_PSEXT
 70
     0
  0
APPID
  5
28
330
2A
100
AcDbSymbolTableRecord
100
AcDbRegAppTableRecord
  2
ACAD_NAV_VCDISPLAY
 70
     0
  0
APPID
  5
10A
330
2A
100
AcDbSymbolTableRecord
100
AcDbRegAppTableRecord
  2
ACAD_MLEADERVER
 70
     0
  0
ENDTAB
  0
TABLE
  2
DIMSTYLE
  5
2C
330
0
100
AcDbSymbolTable
 70
     1
100
AcDbDimStyleTable
 71
     1
340
2D
  0
DIMSTYLE
105
2D
330
2C
100
AcDbSymbolTableRecord
100
AcDbDimStyleTableRecord
  2
MASKIN
 70
     0
 40
0.0
 41
3.0
 42
1.5
 43
10.0
 44
1.5
 73
     0
 74
     0
 77
     1
 78
     8
140
3.0
141
-5.0
144
-1.0
147
1.0
171
     0
172
     1
176
   256
177
   256
178
   256
271
     8
272
     8
274
     0
279
     2
284
     8
285
     8
286
     8
340
2E
  0
ENDTAB
  0
TABLE
  2
BLOCK_RECORD
  5
1
330
0
100
AcDbSymbolTable
 70
     0
  0
BLOCK_RECORD
  5
2
102
{ACAD_XDICTIONARY
360
3
102
}
330
1
100
AcDbSymbolTableRecord
100
AcDbBlockTableRecord
  2
*MODEL_SPACE
340
10
 70
     0
280
     1
281
     0
  0
BLOCK_RECORD
  5
14
330
1
100
AcDbSymbolTableRecord
100
AcDbBlockTableRecord
  2
*Paper_Space
340
17
 70
     0
280
     1
281
     0
  0
ENDTAB
  0
ENDSEC
  0
SECTION
  2
BLOCKS
  0
BLOCK
  5
5
330
2
100
AcDbEntity
  8
0
100
AcDbBlockBegin
  2
*MODEL_SPACE
 70
     0
 10
0.0
 20
0.0
 30
0.0
  3
*MODEL_SPACE
  1

  0
ENDBLK
  5
F
330
2
100
AcDbEntity
  8
0
100
AcDbBlockEnd
  0
BLOCK
  5
15
330
14
100
AcDbEntity
 67
     1
  8
0
100
AcDbBlockBegin
  2
*Paper_Space
 70
     0
 10
0.0
 20
0.0
 30
0.0
  3
*Paper_Space
  1

  0
ENDBLK
  5
16
330
14
100
AcDbEntity
 67
     1
  8
0
100
AcDbBlockEnd
  0
ENDSEC
  0
SECTION
  2
ENTITIES
  0
LINE
  5
64
330
2
100
AcDbEntity
  8
sapa_elevation
100
AcDbLine
 10
6000.0
 20
85.5
 30
0.0
 11
4850.0
 21
85.49999999999272
 31
0.0
  0
LINE
  5
65
330
2
100
AcDbEntity
  8
sapa_elevation
100
AcDbLine
 10
6000.0
 20
1253.663255355124
 30
0.0
 11
4850.0
 21
1253.663255355128
 31
0.0
  0
HATCH
  5
66
330
2
100
AcDbEntity
  8
sapa_elevation
100
AcDbHatch
 10
0.0
 20
0.0
 30
0.0
210
0.0
220
0.0
230
1.0
  2
ANSI31
 70
     0
 71
     1
 91
        1
 92
        7
 72
     0
 73
     1
 93
        4
 10
8035.5
 20
3843.663255355128
 10
7950.0
 20
3843.663255355128
 10
7950.0
 20
3503.663255355128
 10
8035.5
 20
3503.663255355128
 97
        4
330
C5
330
C9
330
C8
330
67
 75
     0
 76
     1
 52
0.0
 41
10.0
 77
     0
 78
     1
 53
45.0
 43
0.0
 44
0.0
 45
-22.45064030267288
 46
22.45064030267288
 79
     0
 47
2.265992890930161
 98
        1
 10
8005.81212057343
 20
3719.239762402685
1001
ACAD
1010
0.0
1020
0.0
1030
0.0
  0
LINE
  5
67
102
{ACAD_REACTORS
330
66
102
}
330
2
100
AcDbEntity
  8
sapa_elevation
100
AcDbLine
 10
8035.5
 20
3843.663255355128
 30
0.0
 11
8035.5
 21
3503.663255355128
 31
0.0
  0
HATCH
  5
68
330
2
100
AcDbEntity
  8
sapa_elevation
100
AcDbHatch
 10
0.0
 20
0.0
 30
0.0
210
0.0
220
0.0
230
1.0
  2
ANSI31
 70
     0
 71
     0
 91
        1
 92
        7
 72
     0
 73
     1
 93
        3
 10
7900.0
 20
4063.663255355128
 10
7900.0
 20
3913.663255355121
 10
8641.0
 20
3913.663255355128
 97
        0
 75
     0
 76
     1
 52
0.0
 41
10.0
 77
     0
 78
     1
 53
45.0
 43
5887.998020344821
 44
-2606.429176929593
 45
-22.45064030267288
 46
22.45064030267288
 79
     0
 47
4.303415458446361
 98
        1
 10
7949.289392746898
 20
3985.656734562221
1001
ACAD
1010
0.0
1020
0.0
1030
0.0
  0
HATCH
  5
69
330
2
100
AcDbEntity
  8
sapa_elevation
100
AcDbHatch
 10
0.0
 20
0.0
 30
0.0
210
0.0
220
0.0
230
1.0
  2
ANSI31
 70
     0
 71
     0
 91
        1
 92
        7
 72
     0
 73
     1
 93
        3
 10
8641.0
 20
1183.663255355128
 10
7900.0
 20
1183.663255355128
 10
7900.0
 20
1033.663255355128
 97
        0
 75
     0
 76
     1
 52
0.0
 41
10.0
 77
     0
 78
     1
 53
45.0
 43
5887.998020344821
 44
3403.570823070408
 45
-22.45064030267288
 46
22.45064030267288
 79
     0
 47
1.079362698434344
 98
        1
 10
7984.505710938771
 20
1122.047256182111
1001
ACAD
1010
0.0
1020
0.0
1030
0.0
  0
MULTILEADER
  5
6A
330
2
100
AcDbEntity
  8
sapa_elevation
 92
      440
310
B8010000160000000C00000016000000000000C00C00000033000000000000000C00000013000000993A00000C00000033000000000000000C00000010000000010000000C00000016000000000000C00C00000012000000FF7F00000C00000013000000010000000C00000014000000010000005400000007000000030000
310
0090189F44D834B440570CC965A1B3B140000000000000000090189F44D86CB340AC611EBBF6D4B140000000000000000090189F44D834B44001B773104CF6B14000000000000000000C00000013000000891300003C000000060000000200000090189F44D834B440AC611EBBF6D4B14000000000000000006061319B8600
310
B540AC611EBBF6D4B14000000000000000000C00000013000000112700003C00000006000000020000006061319B8600B540AC611EBBF6D4B14000000000000000006061319B8609B540AC611EBBF6D4B14000000000000000000C00000016000000000000C00C00000012000000FF7F00000C00000017000000000000000C
310
000000130000009A3A00000C00000016000000000000C00C00000012000000FF7F00000C00000017000000FFFFFFFF0C0000003300000000000000
100
AcDbMLeader
300
CONTEXT_DATA{
 40
50.0
 10
5385.525805555604
 20
4564.963792704435
 30
0.0
 41
200.0
140
200.0
145
100.0
174
     1
175
     6
176
     0
177
     0
290
     1
304

 11
0.0
 21
0.0
 31
1.0
340
1D
 12
5485.525805555604
 22
4664.963792704435
 32
0.0
 13
1.0
 23
0.0
 33
0.0
 42
0.0
 43
0.0
 44
0.0
 45
1.0
170
     1
 90
-1073741824
171
     1
172
     5
 91
-1073741824
141
0.0
 92
        0
291
     0
292
     0
173
     0
293
     0
142
0.0
143
0.0
294
     0
295
     0
296
     0
110
5014.782302350955
120
4564.963792704435
130
0.0
111
1.0
121
0.0
131
0.0
112
0.0
122
1.0
132
0.0
297
     0
302
LEADER{
290
     1
291
     1
 10
5376.525805555605
 20
4564.963792704435
 30
0.0
 11
1.0
 21
0.0
 31
0.0
 90
        0
 40
9.0
304
LEADER_LINE{
 10
4972.844797080513
 20
4564.963792704435
 30
0.0
 91
        0
305
}
303
}
301
}
340
6B
 90
 17056896
170
     1
 91
-1056964608
341
20
171
    -2
290
     1
291
     1
 41
0.36
 42
4.0
172
     2
343
1D
173
     1
 95
        6
174
     1
175
     0
 92
-1056964608
292
     0
 93
-1056964608
 10
1.0
 20
1.0
 30
1.0
 43
0.0
176
     0
293
     0
294
     0
178
     0
179
     1
 45
50.0
1001
ACAD_MLEADERVER
1070
     2
  0
LINE
  5
6C
330
2
100
AcDbEntity
  8
sapa_elevation
100
AcDbLine
 10
5385.525805555604
 20
4564.963792704435
 30
0.0
 11
5385.525805555604
 21
4364.963792704435
 31
0.0
  0
MULTILEADER
  5
6D
330
2
100
AcDbEntity
  8
sapa_elevation
 92
      440
310
B8010000160000000C00000016000000000000C00C00000033000000000000000C00000013000000993A00000C00000033000000000000000C00000010000000010000000C00000016000000000000C00C00000012000000FF7F00000C00000013000000010000000C00000014000000010000005400000007000000030000
310
0090189F44D834B440B51CB49015C68240000000000000000090189F44D86CB34060C75E3BC0D08340000000000000000090189F44D834B4400B7209E66ADB844000000000000000000C00000013000000891300003C000000060000000200000090189F44D834B44060C75E3BC0D0834000000000000000006061319B8600
310
B54060C75E3BC0D0834000000000000000000C00000013000000112700003C00000006000000020000006061319B8600B54060C75E3BC0D0834000000000000000006061319B8609B54060C75E3BC0D0834000000000000000000C00000016000000000000C00C00000012000000FF7F00000C00000017000000000000000C
310
000000130000009A3A00000C00000016000000000000C00C00000012000000FF7F00000C00000017000000FFFFFFFF0C0000003300000000000000
100
AcDbMLeader
300
CONTEXT_DATA{
 40
50.0
 10
5385.525805555604
 20
634.0938632397264
 30
0.0
 41
200.0
140
200.0
145
100.0
174
     1
175
     6
176
     0
177
     0
290
     1
304

 11
0.0
 21
0.0
 31
-1.0
340
1D
 12
5485.525805555604
 22
534.0938632397264
 32
0.0
 13
1.0
 23
0.0
 33
0.0
 42
3.141592653589793
 43
0.0
 44
0.0
 45
1.0
170
     1
 90
-1073741824
171
     1
172
     5
 91
-1073741824
141
0.0
 92
        0
291
     0
292
     0
173
     0
293
     0
142
0.0
143
0.0
294
     0
295
     0
296
     0
110
5014.782302350955
120
634.0938632397264
130
0.0
111
1.0
121
0.0
131
0.0
112
0.0
122
1.0
132
0.0
297
     0
302
LEADER{
290
     1
291
     1
 10
5376.525805555605
 20
634.0938632397264
 30
0.0
 11
1.0
 21
0.0
 31
0.0
 90
        0
 40
9.0
304
LEADER_LINE{
 10
4972.844797080513
 20
634.0938632397264
 30
0.0
 91
        0
305
}
303
}
301
}
340
6B
 90
 17056896
170
     1
 91
-1056964608
341
20
171
    -2
290
     1
291
     1
 41
0.36
 42
4.0
172
     2
343
1D
173
     1
 95
        6
174
     1
175
     0
 92
-1056964608
292
     0
 93
-1056964608
 10
1.0
 20
1.0
 30
1.0
 43
0.0
176
     0
293
     0
294
     0
178
     0
179
     1
 45
50.0
1001
ACAD_MLEADERVER
1070
     2
  0
LINE
  5
6E
330
2
100
AcDbEntity
  8
sapa_elevation
100
AcDbLine
 10
5385.525805555604
 20
634.0938632397264
 30
0.0
 11
5385.525805555604
 21
834.0938632397264
 31
0.0
  0
LINE
  5
6F
330
2
100
AcDbEntity
  8
sapa_elevation
100
AcDbLine
 10
4203.620129840245
 20
285.0654045783485
 30
0.0
 11
4203.620129840245
 21
264.7105103643335
 31
0.0
  0
LINE
  5
70
330
2
100
AcDbEntity
  8
sapa_elevation
100
AcDbLine
 10
4203.620129840245
 20
335.4211884829856
 30
0.0
 11
4203.620129840245
 21
315.0658494236595
 31
0.0
  0
LINE
  5
71
330
2
100
AcDbEntity
  8
sapa_elevation
100
AcDbLine
 10
4238.975468899574
 20
300.0658494236595
 30
0.0
 11
4203.620129840245
 21
264.7105103643335
 31
0.0
  0
LINE
  5
72
330
2
100
AcDbEntity
  8
sapa_elevation
100
AcDbLine
 10
4238.975468899574
 20
300.0658494236595
 30
0.0
 11
4203.620129840245
 21
335.4211884829856
 31
0.0
  0
LINE
  5
73
330
2
100
AcDbEntity
  8
sapa_elevation
100
AcDbLine
 10
3834.054871521294
 20
315.0658494236595
 30
0.0
 11
4203.620129840245
 21
315.0658494236595
 31
0.0
  0
LINE
  5
74
330
2
100
AcDbEntity
  8
sapa_elevation
100
AcDbLine
 10
3833.988176279934
 20
285.0654045783485
 30
0.0
 11
4203.553434598886
 21
285.0654045783485
 31
0.0
  0
LINE
  5
75
330
2
100
AcDbEntity
  8
sapa_elevation
100
AcDbLine
 10
3046.379870159756
 20
285.0654045783485
 30
0.0
 11
3046.379870159756
 21
264.7105103643335
 31
0.0
  0
LINE
  5
76
330
2
100
AcDbEntity
  8
sapa_elevation
100
AcDbLine
 10
3046.379870159756
 20
335.4211884829856
 30
0.0
 11
3046.379870159756
 21
315.0658494236595
 31
0.0
  0
LINE
  5
77
330
2
100
AcDbEntity
  8
sapa_elevation
100
AcDbLine
 10
3011.024531100426
 20
300.0658494236595
 30
0.0
 11
3046.379870159756
 21
264.7105103643335
 31
0.0
  0
LINE
  5
78
330
2
100
AcDbEntity
  8
sapa_elevation
100
AcDbLine
 10
3011.024531100426
 20
300.0658494236595
 30
0.0
 11
3046.379870159756
 21
335.4211884829856
 31
0.0
  0
LINE
  5
79
330
2
100
AcDbEntity
  8
sapa_elevation
100
AcDbLine
 10
3415.945128478707
 20
315.0658494236595
 30
0.0
 11
3046.379870159756
 21
315.0658494236595
 31
0.0
  0
LINE
  5
7A
330
2
100
AcDbEntity
  8
sapa_elevation
100
AcDbLine
 10
3416.011823720066
 20
285.0654045783485
 30
0.0
 11
3046.446565401115
 21
285.0654045783485
 31
0.0
  0
LINE
  5
7B
330
2
100
AcDbEntity
  8
sapa_elevation
100
AcDbLine
 10
3706.0
 20
231.0000000000036
 30
0.0
 11
3706.0
 21
181.0000000000036
 31
0.0
  0
LINE
  5
7C
330
2
100
AcDbEntity
  8
sapa_elevation
100
AcDbLine
 10
3628.0
 20
231.0000000000036
 30
0.0
 11
3628.0
 21
181.0000000000036
 31
0.0
  0
LINE
  5
7D
330
2
100
AcDbEntity
  8
sapa_elevation
100
AcDbLine
 10
4777.0
 20
230.9999999999964
 30
0.0
 11
4777.0
 21
181.0
 31
0.0
  0
LINE
  5
7E
330
2
100
AcDbEntity
  8
sapa_elevation
100
AcDbLine
 10
4866.0
 20
230.9999999999964
 30
0.0
 11
4866.0
 21
181.0
 31
0.0
  0
LINE
  5
7F
330
2
100
AcDbEntity
  8
sapa_elevation
100
AcDbLine
 10
3628.0
 20
231.0
 30
0.0
 11
4866.0
 21
230.9999999999964
 31
0.0
  0
LINE
  5
80
330
2
100
AcDbEntity
  8
sapa_elevation
100
AcDbLine
 10
3628.0
 20
181.0
 30
0.0
 11
4866.0
 21
180.9999999999963
 31
0.0
  0
LINE
  5
81
330
2
100
AcDbEntity
  8
sapa_elevation
100
AcDbLine
 10
3544.0
 20
231.0000000000036
 30
0.0
 11
3544.0
 21
181.0000000000036
 31
0.0
  0
LINE
  5
82
330
2
100
AcDbEntity
  8
sapa_elevation
100
AcDbLine
 10
3622.0
 20
231.0000000000036
 30
0.0
 11
3622.0
 21
181.0000000000036
 31
0.0
  0
LINE
  5
83
330
2
100
AcDbEntity
  8
sapa_elevation
100
AcDbLine
 10
2473.0
 20
230.9999999999964
 30
0.0
 11
2473.0
 21
181.0
 31
0.0
  0
LINE
  5
84
330
2
100
AcDbEntity
  8
sapa_elevation
100
AcDbLine
 10
2384.0
 20
230.9999999999964
 30
0.0
 11
2384.0
 21
181.0
 31
0.0
  0
LINE
  5
85
330
2
100
AcDbEntity
  8
sapa_elevation
100
AcDbLine
 10
1144.0
 20
-175.0
 30
0.0
 11
106.0
 21
25.0
 31
0.0
  0
LINE
  5
86
330
2
100
AcDbEntity
  8
sapa_elevation
100
AcDbLine
 10
195.0
 20
25.0
 30
0.0
 11
1055.0
 21
25.0
 31
0.0
  0
LINE
  5
87
330
2
100
AcDbEntity
  8
sapa_elevation
100
AcDbLine
 10
195.0
 20
99.0
 30
0.0
 11
1055.0
 21
99.0
 31
0.0
  0
LINE
  5
88
330
2
100
AcDbEntity
  8
sapa_elevation
100
AcDbLine
 10
1144.0
 20
25.0
 30
0.0
 11
1144.0
 21
99.0
 31
0.0
  0
LWPOLYLINE
  5
89
330
2
100
AcDbEntity
  8
sapa_elevation
100
AcDbPolyline
 90
        4
 70
     1
 43
0.0
 10
1200.0
 20
99.0
 10
1055.0
 20
99.0
 10
1055.0
 20
25.0
 10
1200.0
 20
25.0
  0
LINE
  5
8A
330
2
100
AcDbEntity
  8
sapa_elevation
100
AcDbLine
 10
50.0
 20
0.0
 30
0.0
 11
0.0
 21
0.0
 31
0.0
  0
LINE
  5
8B
330
2
100
AcDbEntity
  8
sapa_elevation
100
AcDbLine
 10
106.0
 20
25.0
 30
0.0
 11
106.0
 21
99.0
 31
0.0
  0
LWPOLYLINE
  5
8C
330
2
100
AcDbEntity
  8
sapa_elevation
100
AcDbPolyline
 90
        4
 70
     1
 43
0.0
 10
50.0
 20
99.0
 10
195.0
 20
99.0
 10
195.0
 20
25.0
 10
50.0
 20
25.0
  0
LINE
  5
8D
330
2
100
AcDbEntity
  8
sapa_elevation
100
AcDbLine
 10
6050.0
 20
170.9999999999927
 30
0.0
 11
6050.0
 21
-0.000000000003638
 31
0.0
  0
LINE
  5
8E
330
2
100
AcDbEntity
  8
sapa_elevation
100
AcDbLine
 10
6000.0
 20
170.9999999999927
 30
0.0
 11
6000.0
 21
-0.000000000003638
 31
0.0
  0
LINE
  5
8F
330
2
100
AcDbEntity
  8
sapa_elevation
100
AcDbLine
 10
1250.0
 20
171.0000000000218
 30
0.0
 11
1250.0
 21
0.0000000000254659
 31
0.0
  0
LINE
  5
90
330
2
100
AcDbEntity
  8
sapa_elevation
100
AcDbLine
 10
1200.0
 20
171.0000000000218
 30
0.0
 11
1200.0
 21
0.0000000000254659
 31
0.0
  0
LINE
  5
91
330
2
100
AcDbEntity
  8
sapa_elevation
100
AcDbLine
 10
4850.0
 20
170.9999999999963
 30
0.0
 11
4850.0
 21
0.0
 31
0.0
  0
LINE
  5
92
330
2
100
AcDbEntity
  8
sapa_elevation
100
AcDbLine
 10
4800.0
 20
170.9999999999963
 30
0.0
 11
4800.0
 21
0.0
 31
0.0
  0
LINE
  5
93
330
2
100
AcDbEntity
  8
sapa_elevation
100
AcDbLine
 10
2450.0
 20
171.0000000000218
 30
0.0
 11
2450.0
 21
0.0000000000254659
 31
0.0
  0
LINE
  5
94
330
2
100
AcDbEntity
  8
sapa_elevation
100
AcDbLine
 10
2400.0
 20
171.0000000000218
 30
0.0
 11
2400.0
 21
0.0000000000254659
 31
0.0
  0
LINE
  5
95
330
2
100
AcDbEntity
  8
sapa_elevation
100
AcDbLine
 10
50.0
 20
170.9999999999963
 30
0.0
 11
50.0
 21
0.0
 31
0.0
  0
LINE
  5
96
330
2
100
AcDbEntity
  8
sapa_elevation
100
AcDbLine
 10
0.0
 20
170.9999999999963
 30
0.0
 11
0.0
 21
0.0
 31
0.0
  0
LINE
  5
97
330
2
100
AcDbEntity
  8
sapa_elevation
100
AcDbLine
 10
2450.0
 20
0.000000000003638
 30
0.0
 11
1200.0
 21
0.000000000003638
 31
0.0
  0
LINE
  5
98
330
2
100
AcDbEntity
  8
sapa_elevation
100
AcDbLine
 10
7200.0
 20
0.0
 30
0.0
 11
4800.0
 21
0.0
 31
0.0
  0
LINE
  5
99
330
2
100
AcDbEntity
  8
sapa_elevation
100
AcDbLine
 10
7250.0
 20
0.0
 30
0.0
 11
7200.0
 21
0.0
 31
0.0
  0
LINE
  5
9A
330
2
100
AcDbEntity
  8
sapa_elevation
100
AcDbLine
 10
2400.0
 20
85.5
 30
0.0
 11
1250.0
 21
85.49999999999272
 31
0.0
  0
LINE
  5
9B
330
2
100
AcDbEntity
  8
sapa_elevation
100
AcDbLine
 10
7199.999999999999
 20
85.50000000000759
 30
0.0
 11
6050.0
 21
85.5000000000003
 31
0.0
  0
LINE
  5
9C
330
2
100
AcDbEntity
  8
sapa_elevation
100
AcDbLine
 10
50.0
 20
171.0000000000036
 30
0.0
 11
0.0
 21
171.0000000000036
 31
0.0
  0
LINE
  5
9D
330
2
100
AcDbEntity
  8
sapa_elevation
100
AcDbLine
 10
3622.0
 20
231.0
 30
0.0
 11
2384.0
 21
230.9999999999964
 31
0.0
  0
LINE
  5
9E
330
2
100
AcDbEntity
  8
sapa_elevation
100
AcDbLine
 10
3622.0
 20
181.0
 30
0.0
 11
2384.0
 21
180.9999999999963
 31
0.0
  0
LINE
  5
9F
330
2
100
AcDbEntity
  8
sapa_elevation
100
AcDbLine
 10
2450.0
 20
171.0000000000036
 30
0.0
 11
1200.0
 21
171.0000000000036
 31
0.0
  0
LINE
  5
A0
330
2
100
AcDbEntity
  8
sapa_elevation
100
AcDbLine
 10
7200.0
 20
171.0
 30
0.0
 11
4800.0
 21
171.0
 31
0.0
  0
LINE
  5
A1
330
2
100
AcDbEntity
  8
sapa_elevation
100
AcDbLine
 10
7250.0
 20
171.0
 30
0.0
 11
7200.0
 21
171.0
 31
0.0
  0
LINE
  5
A2
330
2
100
AcDbEntity
  8
sapa_elevation
100
AcDbLine
 10
7200.0
 20
170.9999999999963
 30
0.0
 11
7200.0
 21
-0.000000000007276
 31
0.0
  0
LINE
  5
A3
330
2
100
AcDbEntity
  8
sapa_elevation
100
AcDbLine
 10
7250.0
 20
170.9999999999963
 30
0.0
 11
7250.0
 21
-0.000000000007276
 31
0.0
  0
LINE
  5
A4
330
2
100
AcDbEntity
  8
sapa_elevation
  6
DASHED
100
AcDbLine
 10
2384.0
 20
1253.663255355128
 30
0.0
 11
2384.0
 21
3453.663255355128
 31
0.0
  0
LINE
  5
A6
330
2
100
AcDbEntity
  8
sapa_elevation
100
AcDbLine
 10
3544.0
 20
1293.663255355124
 30
0.0
 11
2473.0
 21
1293.663255355132
 31
0.0
  0
LINE
  5
A7
330
2
100
AcDbEntity
  8
sapa_elevation
100
AcDbLine
 10
4777.0
 20
1293.663255355128
 30
0.0
 11
3706.0
 21
1293.663255355124
 31
0.0
  0
LINE
  5
A8
330
2
100
AcDbEntity
  8
sapa_elevation
100
AcDbLine
 10
3622.0
 20
1193.663255355128
 30
0.0
 11
2473.0
 21
1193.663255355124
 31
0.0
  0
LINE
  5
A9
330
2
100
AcDbEntity
  8
sapa_elevation
100
AcDbLine
 10
4788.0
 20
1193.663255355124
 30
0.0
 11
3628.0
 21
1193.663255355128
 31
0.0
  0
LINE
  5
AA
330
2
100
AcDbEntity
  8
sapa_elevation
100
AcDbLine
 10
4800.0
 20
1183.663255355128
 30
0.0
 11
2450.0
 21
1183.663255355128
 31
0.0
  0
LINE
  5
AB
330
2
100
AcDbEntity
  8
sapa_elevation
100
AcDbLine
 10
3544.0
 20
3400.663255355121
 30
0.0
 11
3544.0
 21
1293.663255355124
 31
0.0
  0
LINE
  5
AC
330
2
100
AcDbEntity
  8
sapa_elevation
100
AcDbLine
 10
3622.0
 20
3441.663255355128
 30
0.0
 11
3622.0
 21
1193.663255355128
 31
0.0
  0
LINE
  5
AD
330
2
100
AcDbEntity
  8
sapa_elevation
100
AcDbLine
 10
3706.0
 20
3400.663255355124
 30
0.0
 11
3706.0
 21
1293.663255355121
 31
0.0
  0
LINE
  5
AE
330
2
100
AcDbEntity
  8
sapa_elevation
100
AcDbLine
 10
3628.0
 20
3441.663255355128
 30
0.0
 11
3628.0
 21
1193.663255355124
 31
0.0
  0
LINE
  5
AF
330
2
100
AcDbEntity
  8
sapa_elevation
100
AcDbLine
 10
195.0
 20
1286.663255355128
 30
0.0
 11
1055.0
 21
1286.663255355128
 31
0.0
  0
LINE
  5
B0
330
2
100
AcDbEntity
  8
sapa_elevation
100
AcDbLine
 10
101.0
 20
1197.663255355128
 30
0.0
 11
1149.0
 21
1197.663255355128
 31
0.0
  0
LINE
  5
B1
330
2
100
AcDbEntity
  8
sapa_elevation
100
AcDbLine
 10
195.0
 20
1286.663255355128
 30
0.0
 11
195.0
 21
3308.663255355128
 31
0.0
  0
LINE
  5
B2
330
2
100
AcDbEntity
  8
sapa_elevation
100
AcDbLine
 10
106.0
 20
1197.663255355128
 30
0.0
 11
106.0
 21
3397.663255355129
 31
0.0
  0
LINE
  5
B3
330
2
100
AcDbEntity
  8
sapa_elevation
100
AcDbLine
 10
101.0
 20
1183.663255355128
 30
0.0
 11
101.0
 21
3402.663255355128
 31
0.0
  0
LINE
  5
B4
330
2
100
AcDbEntity
  8
sapa_elevation
100
AcDbLine
 10
1055.0
 20
3308.663255355128
 30
0.0
 11
195.0
 21
3308.663255355128
 31
0.0
  0
LINE
  5
B5
330
2
100
AcDbEntity
  8
sapa_elevation
100
AcDbLine
 10
1144.0
 20
3397.663255355129
 30
0.0
 11
106.0
 21
3397.663255355129
 31
0.0
  0
LINE
  5
B6
330
2
100
AcDbEntity
  8
sapa_elevation
100
AcDbLine
 10
1149.0
 20
3402.663255355128
 30
0.0
 11
101.0
 21
3402.663255355128
 31
0.0
  0
LINE
  5
B7
330
2
100
AcDbEntity
  8
sapa_elevation
100
AcDbLine
 10
1055.0
 20
1286.663255355128
 30
0.0
 11
1055.0
 21
3308.663255355128
 31
0.0
  0
LINE
  5
B8
330
2
100
AcDbEntity
  8
sapa_elevation
100
AcDbLine
 10
1144.0
 20
1197.663255355128
 30
0.0
 11
1144.0
 21
3397.663255355129
 31
0.0
  0
LINE
  5
B9
330
2
100
AcDbEntity
  8
sapa_elevation
100
AcDbLine
 10
1149.0
 20
1183.663255355128
 30
0.0
 11
1149.0
 21
3402.663255355128
 31
0.0
  0
LINE
  5
BA
330
2
100
AcDbEntity
  8
sapa_elevation
100
AcDbLine
 10
50.0
 20
1183.663255355128
 30
0.0
 11
1200.0
 21
1183.663255355128
 31
0.0
  0
LINE
  5
BB
102
{ACAD_REACTORS
330
E8
102
}
330
2
100
AcDbEntity
  8
sapa_elevation
100
AcDbLine
 10
7200.0
 20
1203.663255355128
 30
0.0
 11
7200.000000000014
 21
3893.663255355129
 31
0.0
  0
LINE
  5
BC
330
2
100
AcDbEntity
  8
sapa_elevation
100
AcDbLine
 10
7250.0
 20
1203.663255355128
 30
0.0
 11
7250.0
 21
3893.663255355129
 31
0.0
  0
LINE
  5
BD
330
2
100
AcDbEntity
  8
sapa_elevation
100
AcDbLine
 10
7900.0
 20
3913.663255355128
 30
0.0
 11
7900.0
 21
4063.663255355128
 31
0.0
  0
LINE
  5
BE
330
2
100
AcDbEntity
  8
sapa_elevation
100
AcDbLine
 10
7900.0
 20
3913.663255355128
 30
0.0
 11
8641.0
 21
3913.663255355128
 31
0.0
  0
LINE
  5
BF
330
2
100
AcDbEntity
  8
sapa_elevation
100
AcDbLine
 10
7250.0
 20
3893.663255355129
 30
0.0
 11
0.0
 21
3893.663255355124
 31
0.0
  0
LINE
  5
C0
102
{ACAD_REACTORS
330
E8
102
}
330
2
100
AcDbEntity
  8
sapa_elevation
100
AcDbLine
 10
1200.0
 20
3843.663255355128
 30
0.0
 11
50.0
 21
3843.663255355128
 31
0.0
  0
LINE
  5
C1
102
{ACAD_REACTORS
330
E8
102
}
330
2
100
AcDbEntity
  8
sapa_elevation
100
AcDbLine
 10
2400.0
 20
3843.663255355128
 30
0.0
 11
1250.0
 21
3843.663255355128
 31
0.0
  0
LINE
  5
C2
102
{ACAD_REACTORS
330
E8
102
}
330
2
100
AcDbEntity
  8
sapa_elevation
100
AcDbLine
 10
4800.0
 20
3843.663255355124
 30
0.0
 11
2450.0
 21
3843.663255355128
 31
0.0
  0
LINE
  5
C3
102
{ACAD_REACTORS
330
E8
102
}
330
2
100
AcDbEntity
  8
sapa_elevation
100
AcDbLine
 10
6000.0
 20
3843.663255355128
 30
0.0
 11
4850.0
 21
3843.663255355128
 31
0.0
  0
LINE
  5
C4
102
{ACAD_REACTORS
330
E8
102
}
330
2
100
AcDbEntity
  8
sapa_elevation
100
AcDbLine
 10
7200.0
 20
3843.663255355128
 30
0.0
 11
6050.0
 21
3843.663255355128
 31
0.0
  0
LWPOLYLINE
  5
C5
102
{ACAD_REACTORS
330
66
102
}
330
2
100
AcDbEntity
  8
sapa_elevation
100
AcDbPolyline
 90
        4
 70
     1
 43
0.0
 10
7950.0
 20
3893.663255355129
 10
8121.0
 20
3893.663255355129
 10
8121.0
 20
3843.663255355128
 10
7950.0
 20
3843.663255355128
  0
LINE
  5
C6
330
2
100
AcDbEntity
  8
sapa_elevation
100
AcDbLine
 10
8035.5
 20
3453.663255355128
 30
0.0
 11
8035.5
 21
1253.663255355128
 31
0.0
  0
LINE
  5
C7
330
2
100
AcDbEntity
  8
sapa_elevation
100
AcDbLine
 10
7900.0
 20
1183.663255355128
 30
0.0
 11
7900.0
 21
1033.663255355128
 31
0.0
  0
LWPOLYLINE
  5
C8
102
{ACAD_REACTORS
330
66
102
}
330
2
100
AcDbEntity
  8
sapa_elevation
100
AcDbPolyline
 90
        4
 70
     1
 43
0.0
 10
7950.0
 20
3503.663255355128
 10
8121.0
 20
3503.663255355128
 10
8121.0
 20
3453.663255355128
 10
7950.0
 20
3453.663255355128
  0
LINE
  5
C9
102
{ACAD_REACTORS
330
66
102
}
330
2
100
AcDbEntity
  8
sapa_elevation
100
AcDbLine
 10
7950.0
 20
1253.663255355128
 30
0.0
 11
7950.0
 21
3893.663255355129
 31
0.0
  0
LWPOLYLINE
  5
CA
330
2
100
AcDbEntity
  8
sapa_elevation
100
AcDbPolyline
 90
        4
 70
     1
 43
0.0
 10
7950.0
 20
1253.663255355128
 10
8121.0
 20
1253.663255355128
 10
8121.0
 20
1203.663255355128
 10
7950.0
 20
1203.663255355128
  0
LINE
  5
CB
330
2
100
AcDbEntity
  8
sapa_elevation
100
AcDbLine
 10
8121.0
 20
3893.663255355129
 30
0.0
 11
8121.0
 21
1253.663255355128
 31
0.0
  0
LINE
  5
CC
330
2
100
AcDbEntity
  8
sapa_elevation
  6
DASHED
100
AcDbLine
 10
4866.0
 20
1253.663255355128
 30
0.0
 11
4866.0
 21
3453.663255355128
 31
0.0
  0
LINE
  5
CD
102
{ACAD_REACTORS
330
E8
102
}
330
2
100
AcDbEntity
  8
sapa_elevation
100
AcDbLine
 10
4850.0
 20
1203.663255355128
 30
0.0
 11
4850.0
 21
3893.663255355129
 31
0.0
  0
LINE
  5
CE
330
2
100
AcDbEntity
  8
sapa_elevation
100
AcDbLine
 10
2473.0
 20
1293.663255355124
 30
0.0
 11
2473.0
 21
3400.663255355121
 31
0.0
  0
LINE
  5
CF
330
2
100
AcDbEntity
  8
sapa_elevation
100
AcDbLine
 10
2462.0
 20
1183.663255355131
 30
0.0
 11
2462.0
 21
3441.663255355128
 31
0.0
  0
LINE
  5
D0
102
{ACAD_REACTORS
330
E8
102
}
330
2
100
AcDbEntity
  8
sapa_elevation
100
AcDbLine
 10
2450.0
 20
1183.663255355131
 30
0.0
 11
2450.000000000015
 21
3893.663255355124
 31
0.0
  0
LINE
  5
D1
102
{ACAD_REACTORS
330
E8
102
}
330
2
100
AcDbEntity
  8
sapa_elevation
100
AcDbLine
 10
1250.0
 20
1203.663255355128
 30
0.0
 11
1250.0
 21
3893.663255355127
 31
0.0
  0
LINE
  5
D2
102
{ACAD_REACTORS
330
E8
102
}
330
2
100
AcDbEntity
  8
sapa_elevation
100
AcDbLine
 10
50.0
 20
1183.663255355128
 30
0.0
 11
50.0
 21
3893.663255355124
 31
0.0
  0
LINE
  5
D3
102
{ACAD_REACTORS
330
E8
102
}
330
2
100
AcDbEntity
  8
sapa_elevation
100
AcDbLine
 10
6050.0
 20
1203.663255355132
 30
0.0
 11
6050.000000000014
 21
3893.663255355127
 31
0.0
  0
LINE
  5
D4
102
{ACAD_REACTORS
330
E8
102
}
330
2
100
AcDbEntity
  8
sapa_elevation
100
AcDbLine
 10
1200.0
 20
3503.663255355128
 30
0.0
 11
50.0
 21
3503.663255355128
 31
0.0
  0
LINE
  5
D5
102
{ACAD_REACTORS
330
E8
102
}
330
2
100
AcDbEntity
  8
sapa_elevation
100
AcDbLine
 10
2400.0
 20
3503.663255355128
 30
0.0
 11
1250.0
 21
3503.663255355128
 31
0.0
  0
LINE
  5
D6
102
{ACAD_REACTORS
330
E8
102
}
330
2
100
AcDbEntity
  8
sapa_elevation
100
AcDbLine
 10
4800.0
 20
3503.663255355128
 30
0.0
 11
2450.0
 21
3503.663255355128
 31
0.0
  0
LINE
  5
D7
102
{ACAD_REACTORS
330
E8
102
}
330
2
100
AcDbEntity
  8
sapa_elevation
100
AcDbLine
 10
6000.0
 20
3503.663255355128
 30
0.0
 11
4850.0
 21
3503.663255355128
 31
0.0
  0
LINE
  5
D8
102
{ACAD_REACTORS
330
E8
102
}
330
2
100
AcDbEntity
  8
sapa_elevation
100
AcDbLine
 10
7200.0
 20
3503.663255355128
 30
0.0
 11
6050.0
 21
3503.663255355128
 31
0.0
  0
LINE
  5
D9
330
2
100
AcDbEntity
  8
sapa_elevation
100
AcDbLine
 10
1200.0
 20
3453.663255355128
 30
0.0
 11
50.0
 21
3453.663255355128
 31
0.0
  0
LINE
  5
DA
330
2
100
AcDbEntity
  8
sapa_elevation
100
AcDbLine
 10
2400.0
 20
3453.663255355128
 30
0.0
 11
1250.0
 21
3453.663255355128
 31
0.0
  0
LINE
  5
DB
330
2
100
AcDbEntity
  8
sapa_elevation
100
AcDbLine
 10
3544.0
 20
3400.663255355124
 30
0.0
 11
2473.0
 21
3400.663255355124
 31
0.0
  0
LINE
  5
DC
330
2
100
AcDbEntity
  8
sapa_elevation
100
AcDbLine
 10
4777.0
 20
3400.663255355132
 30
0.0
 11
3706.0
 21
3400.663255355124
 31
0.0
  0
LINE
  5
DD
330
2
100
AcDbEntity
  8
sapa_elevation
100
AcDbLine
 10
4788.0
 20
3441.663255355128
 30
0.0
 11
2462.0
 21
3441.663255355128
 31
0.0
  0
LINE
  5
DE
330
2
100
AcDbEntity
  8
sapa_elevation
100
AcDbLine
 10
4800.0
 20
3453.663255355128
 30
0.0
 11
2450.0
 21
3453.663255355128
 31
0.0
  0
LINE
  5
DF
330
2
100
AcDbEntity
  8
sapa_elevation
100
AcDbLine
 10
6000.0
 20
3453.663255355124
 30
0.0
 11
4850.0
 21
3453.663255355128
 31
0.0
  0
LINE
  5
E0
330
2
100
AcDbEntity
  8
sapa_elevation
100
AcDbLine
 10
7200.0
 20
3453.663255355128
 30
0.0
 11
6050.0
 21
3453.663255355124
 31
0.0
  0
LINE
  5
E1
330
2
100
AcDbEntity
  8
sapa_elevation
100
AcDbLine
 10
4777.0
 20
1293.663255355124
 30
0.0
 11
4777.0
 21
3400.663255355129
 31
0.0
  0
LINE
  5
E2
330
2
100
AcDbEntity
  8
sapa_elevation
100
AcDbLine
 10
4788.0
 20
1183.663255355128
 30
0.0
 11
4788.0
 21
3441.663255355128
 31
0.0
  0
LINE
  5
E3
102
{ACAD_REACTORS
330
E8
102
}
330
2
100
AcDbEntity
  8
sapa_elevation
100
AcDbLine
 10
4800.0
 20
1183.663255355128
 30
0.0
 11
4800.000000000014
 21
3893.663255355127
 31
0.0
  0
LINE
  5
E4
102
{ACAD_REACTORS
330
E8
102
}
330
2
100
AcDbEntity
  8
sapa_elevation
100
AcDbLine
 10
2400.0
 20
1203.663255355128
 30
0.0
 11
2400.0
 21
3893.663255355127
 31
0.0
  0
LINE
  5
E5
102
{ACAD_REACTORS
330
E8
102
}
330
2
100
AcDbEntity
  8
sapa_elevation
100
AcDbLine
 10
1200.0
 20
1183.663255355128
 30
0.0
 11
1200.000000000014
 21
3893.663255355124
 31
0.0
  0
LINE
  5
E6
330
2
100
AcDbEntity
  8
sapa_elevation
100
AcDbLine
 10
0.0
 20
1203.663255355128
 30
0.0
 11
0.0
 21
3893.663255355124
 31
0.0
  0
LINE
  5
E7
102
{ACAD_REACTORS
330
E8
102
}
330
2
100
AcDbEntity
  8
sapa_elevation
100
AcDbLine
 10
6000.0
 20
1203.663255355128
 30
0.0
 11
6000.0
 21
3893.663255355127
 31
0.0
  0
HATCH
  5
E8
330
2
100
AcDbEntity
  8
sapa_elevation
100
AcDbHatch
 10
0.0
 20
0.0
 30
0.0
210
0.0
220
0.0
230
1.0
  2
ANSI32
 70
     0
 71
     1
 91
        5
 92
        7
 72
     0
 73
     1
 93
        4
 10
1200.000000000012
 20
3503.663255355128
 10
1200.000000000014
 20
3843.663255355128
 10
50.0
 20
3843.663255355128
 10
50.0
 20
3503.663255355128
 97
        4
330
C0
330
D2
330
D4
330
E5
 92
        7
 72
     0
 73
     1
 93
        4
 10
2400.0
 20
3503.663255355128
 10
2400.0
 20
3843.663255355128
 10
1250.0
 20
3843.663255355128
 10
1250.0
 20
3503.663255355128
 97
        4
330
C1
330
D1
330
D5
330
E4
 92
        7
 72
     0
 73
     1
 93
        4
 10
4800.000000000012
 20
3503.663255355128
 10
4800.000000000014
 20
3843.663255355124
 10
2450.000000000015
 20
3843.663255355128
 10
2450.000000000013
 20
3503.663255355128
 97
        4
330
C2
330
D0
330
D6
330
E3
 92
        7
 72
     0
 73
     1
 93
        4
 10
6000.0
 20
3503.663255355129
 10
6000.0
 20
3843.663255355128
 10
4850.0
 20
3843.663255355128
 10
4850.0
 20
3503.663255355128
 97
        4
330
C3
330
CD
330
D7
330
E7
 92
        7
 72
     0
 73
     1
 93
        4
 10
7200.000000000011
 20
3503.663255355128
 10
7200.000000000014
 20
3843.663255355128
 10
6050.000000000014
 20
3843.663255355128
 10
6050.000000000013
 20
3503.663255355128
 97
        4
330
C4
330
D3
330
D8
330
BB
 75
     0
 76
     1
 52
0.0
 41
20.0
 77
     0
 78
     2
 53
45.0
 43
-122841.3408957454
 44
16844.75869058744
 45
-134.7038418160373
 46
134.7038418160373
 79
     0
 53
45.0
 43
-122751.5382957454
 44
16844.75869058744
 45
-134.7038418160373
 46
134.7038418160373
 79
     0
 47
16.24528575352881
 98
        5
 10
657.0973035007773
 20
3663.307285668834
 10
1585.217794231343
 20
3656.953326002327
 10
3129.966555539897
 20
3574.351620774727
 10
5310.414509379101
 20
3593.413614555753
 10
6384.745834807429
 20
3612.475493555274
1001
ACAD
1010
0.0
1020
0.0
1030
0.0
  0
LINE
  5
E9
330
2
100
AcDbEntity
  8
sapa_elevation
100
AcDbLine
 10
2400.0
 20
1253.663255355128
 30
0.0
 11
1250.0
 21
1253.663255355128
 31
0.0
  0
LINE
  5
EA
330
2
100
AcDbEntity
  8
sapa_elevation
100
AcDbLine
 10
7199.999999999999
 20
1253.663255355121
 30
0.0
 11
6050.0
 21
1253.663255355124
 31
0.0
  0
LINE
  5
EB
330
2
100
AcDbEntity
  8
sapa_elevation
100
AcDbLine
 10
50.0
 20
1203.663255355128
 30
0.0
 11
0.0
 21
1203.663255355128
 31
0.0
  0
LINE
  5
EC
330
2
100
AcDbEntity
  8
sapa_elevation
100
AcDbLine
 10
2450.0
 20
1203.663255355128
 30
0.0
 11
1200.0
 21
1203.663255355128
 31
0.0
  0
LINE
  5
ED
330
2
100
AcDbEntity
  8
sapa_elevation
100
AcDbLine
 10
7250.0
 20
1203.663255355128
 30
0.0
 11
4800.0
 21
1203.663255355135
 31
0.0
  0
LINE
  5
EE
330
2
100
AcDbEntity
  8
sapa_elevation
100
AcDbLine
 10
8641.0
 20
1183.663255355128
 30
0.0
 11
7900.0
 21
1183.663255355128
 31
0.0
  0
ENDSEC
  0
SECTION
  2
OBJECTS
  0
DICTIONARY
  5
B
330
0
100
AcDbDictionary
281
     1
  3
ACAD_COLOR
350
35
  3
ACAD_GROUP
350
30
  3
ACAD_LAYOUT
350
11
  3
ACAD_MATERIAL
350
D
  3
ACAD_MLEADERSTYLE
350
38
  3
ACAD_MLINESTYLE
350
31
  3
ACAD_PLOTSETTINGS
350
32
  3
ACAD_PLOTSTYLENAME
350
A
  3
ACAD_SCALELIST
350
36
  3
ACAD_TABLESTYLE
350
37
  3
ACAD_VISUALSTYLE
350
27
  3
ACDB_RECOMPOSE_DATA
350
FB
  3
AcDbVariableDictionary
350
F0
  3
AcDsDecomposeData
350
101
  0
DICTIONARY
  5
29
330
24
100
AcDbDictionary
280
     1
281
     1
  0
DICTIONARY
  5
1A
330
19
100
AcDbDictionary
280
     1
281
     1
  3
ACAD_LAYERSTATES
360
1B
  0
DICTIONARY
  5
7
330
6
100
AcDbDictionary
280
     1
281
     1
  3
ADSK_XREC_LAYER_RECONCILED
360
8
  0
DICTIONARY
  5
3A
330
39
100
AcDbDictionary
280
     1
281
     1
  3
ADSK_XREC_LAYER_RECONCILED
360
3B
  0
DICTIONARY
  5
3
330
2
100
AcDbDictionary
280
     1
281
     1
  3
ACAD_SORTENTS
360
EF
  0
DICTIONARY
  5
35
102
{ACAD_REACTORS
330
B
102
}
330
B
100
AcDbDictionary
281
     1
  0
DICTIONARY
  5
30
102
{ACAD_REACTORS
330
B
102
}
330
B
100
AcDbDictionary
281
     1
  0
DICTIONARY
  5
11
102
{ACAD_REACTORS
330
B
102
}
330
B
100
AcDbDictionary
281
     1
  3
Model
350
10
  3
Web
350
17
  0
DICTIONARY
  5
D
102
{ACAD_REACTORS
330
B
102
}
330
B
100
AcDbDictionary
281
     1
  3
ByBlock
350
34
  3
ByLayer
350
33
  3
Global
350
C
  0
DICTIONARY
  5
38
102
{ACAD_REACTORS
330
B
102
}
330
B
100
AcDbDictionary
281
     1
  3
Standard
350
6B
  0
DICTIONARY
  5
31
102
{ACAD_REACTORS
330
B
102
}
330
B
100
AcDbDictionary
281
     1
  3
STANDARD
350
3C
  0
DICTIONARY
  5
32
102
{ACAD_REACTORS
330
B
102
}
330
B
100
AcDbDictionary
281
     1
  0
ACDBDICTIONARYWDFLT
  5
A
102
{ACAD_REACTORS
330
B
102
}
330
B
100
AcDbDictionary
281
     1
  3
Normal
350
9
100
AcDbDictionaryWithDefault
340
9
  0
DICTIONARY
  5
36
102
{ACAD_REACTORS
330
B
102
}
330
B
100
AcDbDictionary
281
     1
  3
*A1
350
41
  3
*A10
350
42
  3
*A11
350
43
  3
*A12
350
44
  3
*A13
350
45
  3
*A14
350
46
  3
*A15
350
47
  3
*A16
350
48
  3
*A17
350
49
  3
*A18
350
4A
  3
*A2
350
4B
  3
*A3
350
4C
  3
*A4
350
4D
  3
*A5
350
4E
  3
*A6
350
4F
  3
*A7
350
50
  3
*A8
350
51
  3
*A9
350
52
  3
A0
350
53
  3
A1
350
54
  3
A2
350
55
  3
A3
350
56
  3
A4
350
57
  3
A5
350
58
  3
A6
350
59
  3
A7
350
5A
  3
A8
350
5B
  3
A9
350
5C
  3
B0
350
5D
  3
B1
350
5E
  3
B2
350
5F
  3
B3
350
60
  3
B4
350
61
  3
B5
350
62
  3
B6
350
63
  0
DICTIONARY
  5
37
102
{ACAD_REACTORS
330
B
102
}
330
B
100
AcDbDictionary
281
     1
  3
Standard
350
3D
  0
DICTIONARY
  5
27
102
{ACAD_REACTORS
330
B
102
}
330
B
100
AcDbDictionary
281
     1
  3
2dWireframe
350
26
  3
3dWireframe
350
40
  3
Realistic
350
3F
  0
XRECORD
  5
FB
102
{ACAD_REACTORS
330
B
102
}
330
B
100
AcDbXrecord
280
     1
 90
        1
330
3D
  0
DICTIONARY
  5
F0
102
{ACAD_REACTORS
330
B
102
}
330
B
100
AcDbDictionary
281
     1
  3
CANNOSCALE
350
F6
  3
CMLEADERSTYLE
350
F2
  3
CTABLESTYLE
350
F1
  3
CVIEWDETAILSTYLE
350
F3
  3
CVIEWSECTIONSTYLE
350
F4
  3
LAYEREVAL
350
F8
  3
LAYERNOTIFY
350
F9
  3
LIGHTINGUNITS
350
F7
  3
MSLTSCALE
350
F5
  0
DICTIONARY
  5
101
102
{ACAD_REACTORS
330
B
102
}
330
B
100
AcDbDictionary
281
     1
  3
AcDsRecords
350
103
  3
AcDsSchemas
350
102
1001
ACAD
1070
     2
  0
DICTIONARY
  5
1B
102
{ACAD_REACTORS
330
1A
102
}
330
1A
100
AcDbDictionary
281
     1
  0
XRECORD
  5
8
102
{ACAD_REACTORS
330
7
102
}
330
7
100
AcDbXrecord
280
     1
290
     1
  0
XRECORD
  5
3B
102
{ACAD_REACTORS
330
3A
102
}
330
3A
100
AcDbXrecord
280
     1
290
     1
  0
SORTENTSTABLE
  5
EF
102
{ACAD_REACTORS
330
3
102
}
330
3
100
AcDbSortentsTable
330
2
331
B4
  5
A1
331
73
  5
E3
331
7D
  5
D9
331
BC
  5
99
331
85
  5
D1
331
C4
  5
91
331
CC
  5
88
331
8D
  5
C9
331
95
  5
C1
331
D4
  5
80
331
9D
  5
B8
331
DC
  5
78
331
E4
  5
70
331
EC
  5
66
331
64
  5
BB
331
AD
  5
A9
331
B5
  5
A0
331
6C
  5
EA
331
74
  5
E2
331
BD
  5
98
331
7E
  5
D8
331
86
  5
D0
331
C5
  5
90
331
8E
  5
C8
331
CD
  5
87
331
96
  5
C0
331
D5
  5
7F
331
DD
  5
77
331
9E
  5
B7
331
A6
  5
B0
331
E5
  5
6F
331
AE
  5
A8
331
ED
  5
65
331
65
  5
69
331
6D
  5
E9
331
B6
  5
9F
331
75
  5
E1
331
7F
  5
D7
331
BE
  5
97
331
C6
  5
8F
331
87
  5
CF
331
CE
  5
86
331
8F
  5
C7
331
97
  5
BF
331
D6
  5
7E
331
9F
  5
B6
331
DE
  5
76
331
A7
  5
AF
331
E6
  5
6E
331
EE
  5
64
331
66
  5
8B
331
AF
  5
A7
331
B7
  5
9E
331
6E
  5
E8
331
76
  5
E0
331
78
  5
DE
331
BF
  5
96
331
80
  5
D6
331
88
  5
CE
331
C7
  5
8E
331
90
  5
C6
331
CF
  5
85
331
D7
  5
7D
331
98
  5
BE
331
DF
  5
75
331
A0
  5
B5
331
A8
  5
AE
331
E7
  5
6D
331
B0
  5
A6
331
67
  5
EE
331
6F
  5
E7
331
77
  5
DF
331
79
  5
DD
331
B8
  5
9D
331
81
  5
D5
331
C0
  5
95
331
C8
  5
8D
331
89
  5
CD
331
D0
  5
84
331
91
  5
C5
331
99
  5
BD
331
D8
  5
7C
331
A1
  5
B4
331
E0
  5
74
331
E8
  5
6C
331
A9
  5
AD
331
68
  5
ED
331
B1
  5
A4
331
70
  5
E6
331
B9
  5
9C
331
7A
  5
DC
331
82
  5
D4
331
C1
  5
94
331
8A
  5
CC
331
C9
  5
8C
331
92
  5
C4
331
D1
  5
83
331
D9
  5
7B
331
9A
  5
BC
331
E1
  5
73
331
A2
  5
B3
331
AA
  5
AC
331
E9
  5
6A
331
B2
  5
A3
331
69
  5
EC
331
71
  5
E5
331
7B
  5
DB
331
BA
  5
9B
331
83
  5
D3
331
C2
  5
93
331
CA
  5
8A
331
8B
  5
CB
331
93
  5
C3
331
D2
  5
82
331
9B
  5
BA
331
DA
  5
7A
331
A3
  5
B2
331
E2
  5
72
331
EA
  5
68
331
6A
  5
EB
331
B3
  5
A2
331
72
  5
E4
331
BB
  5
9A
331
7C
  5
DA
331
84
  5
D2
331
C3
  5
92
331
8C
  5
CA
331
CB
  5
89
331
94
  5
C2
331
D3
  5
81
331
DB
  5
79
331
9C
  5
B9
331
A4
  5
B1
331
E3
  5
71
331
AC
  5
AA
331
EB
  5
67
  0
LAYOUT
  5
10
102
{ACAD_XDICTIONARY
360
12
102
}
102
{ACAD_REACTORS
330
11
102
}
330
11
100
AcDbPlotSettings
  1

  2
none_device
  4
ISO_A4_(210.00_x_297.00_MM)
  6

 40
7.5
 41
20.0
 42
7.5
 43
20.0
 44
210.0
 45
297.0
 46
0.0
 47
0.0
 48
0.0
 49
0.0
140
0.0
141
0.0
142
1.0
143
15.38684806789611
 70
 11952
 72
     1
 73
     1
 74
     0
  7
sapa1.ctb
 75
     0
147
0.0649905682819115
 76
     0
 77
     2
 78
   300
148
572.1309273425195
149
-409.9570265140382
100
AcDbLayout
  1
Model
 70
     1
 71
     0
 10
0.0
 20
0.0
 11
12.0
 21
9.0
 12
0.0
 22
0.0
 32
0.0
 14
0.0
 24
0.0
 34
0.0
 15
0.0
 25
0.0
 35
0.0
146
0.0
 13
0.0
 23
0.0
 33
0.0
 16
1.0
 26
0.0
 36
0.0
 17
0.0
 27
1.0
 37
0.0
 76
     0
330
2
331
25
1001
ACAD_PSEXT
1000
None
1000
None
1000
Not applicable
1000
The layout will not be plotted unless a new plotter configuration name is selected.
1070
     0
  0
LAYOUT
  5
17
102
{ACAD_XDICTIONARY
360
18
102
}
102
{ACAD_REACTORS
330
11
102
}
330
11
100
AcDbPlotSettings
  1

  2
frontp04.pc3
  4
A4
  6

 40
4.233333110809326
 41
4.233341693878173
 42
4.233322143554687
 43
4.23333740234375
 44
209.9733276367187
 45
296.9259948730469
 46
12.0
 47
0.0
 48
0.0
 49
0.0
140
0.0
141
0.0
142
1.0
143
1.0
 70
   688
 72
     1
 73
     0
 74
     1
  7
sapa2.ctb
 75
    16
147
1.0
 76
     1
 77
     2
 78
   300
148
-1.826818110860415
149
0.0203279535528509
100
AcDbLayout
  1
Web
 70
     1
 71
     1
 10
-14.40651499994891
 20
-4.253669647431024
 11
195.5668126367698
 21
292.6723252256159
 12
0.0
 22
0.0
 32
0.0
 14
5.869999703752308
 24
-0.0000001723469722
 34
0.0
 15
185.8683605469043
 25
282.999999827653
 35
0.0
146
0.0
 13
0.0
 23
0.0
 33
0.0
 16
1.0
 26
0.0
 36
0.0
 17
0.0
 27
1.0
 37
0.0
 76
     0
330
14
1001
ACAD_PSEXT
1000
frontp04.pc3
1000
HP LaserJet 4200 PCL6
1000
Sapa Building System
1000
HP Laserjet 4200n, pcl 6
1070
     0
  0
MATERIAL
  5
34
102
{ACAD_REACTORS
330
D
102
}
330
D
100
AcDbMaterial
  1
ByBlock
 73
     1
 78
     1
172
     1
176
     1
270
     1
274
     1
 94
       63
  0
MATERIAL
  5
33
102
{ACAD_REACTORS
330
D
102
}
330
D
100
AcDbMaterial
  1
ByLayer
 73
     1
 78
     1
172
     1
176
     1
270
     1
274
     1
 94
       63
  0
MATERIAL
  5
C
102
{ACAD_REACTORS
330
D
102
}
330
D
100
AcDbMaterial
  1
Global
 73
     1
 78
     1
172
     1
176
     1
270
     1
274
     1
 94
       63
  0
MLEADERSTYLE
  5
6B
102
{ACAD_REACTORS
330
38
330
6D
330
6A
102
}
330
38
100
AcDbMLeaderStyle
170
     2
171
     1
172
     0
 90
        2
 40
0.0
 41
0.0
173
     1
 91
-1056964608
340
20
 92
       -2
290
     1
 42
2.0
291
     1
 43
0.36
  3
Standard
 44
4.0
300

342
1D
174
     1
178
     6
175
     1
176
     0
 93
-1056964608
 45
4.0
292
     0
297
     0
 46
4.0
 94
-1056964608
 47
1.0
 49
1.0
140
1.0
293
     1
141
0.0
294
     1
177
     0
142
1.0
295
     0
296
     0
143
0.125
1001
ACAD_MLEADERVER
1070
     2
  0
MLINESTYLE
  5
3C
102
{ACAD_REACTORS
330
31
102
}
330
31
100
AcDbMlineStyle
  2
STANDARD
 70
     0
  3

 62
   256
 51
90.0
 52
90.0
 71
     2
 49
0.5
 62
   256
  6
BYLAYER
 49
-0.5
 62
   256
  6
BYLAYER
  0
ACDBPLACEHOLDER
  5
9
102
{ACAD_REACTORS
330
A
102
}
330
A
  0
SCALE
  5
41
102
{ACAD_REACTORS
330
36
102
}
330
36
100
AcDbScale
 70
     0
300
1/128" = 1'-0"_XREF
140
0.0078125
141
12.0
290
     0
  0
SCALE
  5
42
102
{ACAD_REACTORS
330
36
102
}
330
36
100
AcDbScale
 70
     0
300
3/32" = 1'-0"_XREF
140
0.09375
141
12.0
290
     0
  0
SCALE
  5
43
102
{ACAD_REACTORS
330
36
102
}
330
36
100
AcDbScale
 70
     0
300
1/8" = 1'-0"_XREF
140
0.125
141
12.0
290
     0
  0
SCALE
  5
44
102
{ACAD_REACTORS
330
36
102
}
330
36
100
AcDbScale
 70
     0
300
3/16" = 1'-0"_XREF
140
0.1875
141
12.0
290
     0
  0
SCALE
  5
45
102
{ACAD_REACTORS
330
36
102
}
330
36
100
AcDbScale
 70
     0
300
1/4" = 1'-0"_XREF
140
0.25
141
12.0
290
     0
  0
SCALE
  5
46
102
{ACAD_REACTORS
330
36
102
}
330
36
100
AcDbScale
 70
     0
300
3/8" = 1'-0"_XREF
140
0.375
141
12.0
290
     0
  0
SCALE
  5
47
102
{ACAD_REACTORS
330
36
102
}
330
36
100
AcDbScale
 70
     0
300
1/2" = 1'-0"_XREF
140
0.5
141
12.0
290
     0
  0
SCALE
  5
48
102
{ACAD_REACTORS
330
36
102
}
330
36
100
AcDbScale
 70
     0
300
3/4" = 1'-0"_XREF
140
0.75
141
12.0
290
     0
  0
SCALE
  5
49
102
{ACAD_REACTORS
330
36
102
}
330
36
100
AcDbScale
 70
     0
300
1" = 1'-0"_XREF
140
1.0
141
12.0
290
     0
  0
SCALE
  5
4A
102
{ACAD_REACTORS
330
36
102
}
330
36
100
AcDbScale
 70
     0
300
1-1/2" = 1'-0"_XREF
140
1.5
141
12.0
290
     0
  0
SCALE
  5
4B
102
{ACAD_REACTORS
330
36
102
}
330
36
100
AcDbScale
 70
     0
300
3" = 1'-0"_XREF
140
3.0
141
12.0
290
     0
  0
SCALE
  5
4C
102
{ACAD_REACTORS
330
36
102
}
330
36
100
AcDbScale
 70
     0
300
6" = 1'-0"_XREF
140
6.0
141
12.0
290
     0
  0
SCALE
  5
4D
102
{ACAD_REACTORS
330
36
102
}
330
36
100
AcDbScale
 70
     0
300
1:2.5_XREF
140
1.0
141
2.5
290
     0
  0
SCALE
  5
4E
102
{ACAD_REACTORS
330
36
102
}
330
36
100
AcDbScale
 70
     0
300
5:1_XREF
140
5.0
141
1.0
290
     0
  0
SCALE
  5
4F
102
{ACAD_REACTORS
330
36
102
}
330
36
100
AcDbScale
 70
     0
300
1'-0" = 1'-0"_XREF
140
12.0
141
12.0
290
     0
  0
SCALE
  5
50
102
{ACAD_REACTORS
330
36
102
}
330
36
100
AcDbScale
 70
     0
300
1/64" = 1'-0"_XREF
140
0.015625
141
12.0
290
     0
  0
SCALE
  5
51
102
{ACAD_REACTORS
330
36
102
}
330
36
100
AcDbScale
 70
     0
300
1/32" = 1'-0"_XREF
140
0.03125
141
12.0
290
     0
  0
SCALE
  5
52
102
{ACAD_REACTORS
330
36
102
}
330
36
100
AcDbScale
 70
     0
300
1/16" = 1'-0"_XREF
140
0.0625
141
12.0
290
     0
  0
SCALE
  5
53
102
{ACAD_REACTORS
330
36
102
}
330
36
100
AcDbScale
 70
     0
300
1:1
140
1.0
141
1.0
290
     1
  0
SCALE
  5
54
102
{ACAD_REACTORS
330
36
102
}
330
36
100
AcDbScale
 70
     0
300
1:2
140
1.0
141
2.0
290
     0
  0
SCALE
  5
55
102
{ACAD_REACTORS
330
36
102
}
330
36
100
AcDbScale
 70
     0
300
1:4
140
1.0
141
4.0
290
     0
  0
SCALE
  5
56
102
{ACAD_REACTORS
330
36
102
}
330
36
100
AcDbScale
 70
     0
300
1:5
140
1.0
141
5.0
290
     0
  0
SCALE
  5
57
102
{ACAD_REACTORS
330
36
102
}
330
36
100
AcDbScale
 70
     0
300
1:8
140
1.0
141
8.0
290
     0
  0
SCALE
  5
58
102
{ACAD_REACTORS
330
36
102
}
330
36
100
AcDbScale
 70
     0
300
1:10
140
1.0
141
10.0
290
     0
  0
SCALE
  5
59
102
{ACAD_REACTORS
330
36
102
}
330
36
100
AcDbScale
 70
     0
300
1:16
140
1.0
141
16.0
290
     0
  0
SCALE
  5
5A
102
{ACAD_REACTORS
330
36
102
}
330
36
100
AcDbScale
 70
     0
300
1:20
140
1.0
141
20.0
290
     0
  0
SCALE
  5
5B
102
{ACAD_REACTORS
330
36
102
}
330
36
100
AcDbScale
 70
     0
300
1:30
140
1.0
141
30.0
290
     0
  0
SCALE
  5
5C
102
{ACAD_REACTORS
330
36
102
}
330
36
100
AcDbScale
 70
     0
300
1:40
140
1.0
141
40.0
290
     0
  0
SCALE
  5
5D
102
{ACAD_REACTORS
330
36
102
}
330
36
100
AcDbScale
 70
     0
300
1:50
140
1.0
141
50.0
290
     0
  0
SCALE
  5
5E
102
{ACAD_REACTORS
330
36
102
}
330
36
100
AcDbScale
 70
     0
300
1:100
140
1.0
141
100.0
290
     0
  0
SCALE
  5
5F
102
{ACAD_REACTORS
330
36
102
}
330
36
100
AcDbScale
 70
     0
300
2:1
140
2.0
141
1.0
290
     0
  0
SCALE
  5
60
102
{ACAD_REACTORS
330
36
102
}
330
36
100
AcDbScale
 70
     0
300
4:1
140
4.0
141
1.0
290
     0
  0
SCALE
  5
61
102
{ACAD_REACTORS
330
36
102
}
330
36
100
AcDbScale
 70
     0
300
8:1
140
8.0
141
1.0
290
     0
  0
SCALE
  5
62
102
{ACAD_REACTORS
330
36
102
}
330
36
100
AcDbScale
 70
     0
300
10:1
140
10.0
141
1.0
290
     0
  0
SCALE
  5
63
102
{ACAD_REACTORS
330
36
102
}
330
36
100
AcDbScale
 70
     0
300
100:1
140
100.0
141
1.0
290
     0
  0
TABLESTYLE
  5
3D
102
{ACAD_XDICTIONARY
360
3E
102
}
102
{ACAD_REACTORS
330
37
102
}
330
37
100
AcDbTableStyle
  3
Standard
 70
     0
 71
     0
 40
1.5
 41
1.5
280
     0
281
     0
  7
STANDARD
140
4.5
170
     2
 62
     0
 63
     7
283
     0
 90
        4
 91
        0
  1

274
    -2
284
     1
 64
     0
275
    -2
285
     1
 65
     0
276
    -2
286
     1
 66
     0
277
    -2
287
     1
 67
     0
278
    -2
288
     1
 68
     0
279
    -2
289
     1
 69
     0
  7
STANDARD
140
6.0
170
     5
 62
     0
 63
     7
283
     0
 90
        4
 91
        0
  1

274
    -2
284
     1
 64
     0
275
    -2
285
     1
 65
     0
276
    -2
286
     1
 66
     0
277
    -2
287
     1
 67
     0
278
    -2
288
     1
 68
     0
279
    -2
289
     1
 69
     0
  7
STANDARD
140
4.5
170
     5
 62
     0
 63
     7
283
     0
 90
        4
 91
        0
  1

274
    -2
284
     1
 64
     0
275
    -2
285
     1
 65
     0
276
    -2
286
     1
 66
     0
277
    -2
287
     1
 67
     0
278
    -2
288
     1
 68
     0
279
    -2
289
     1
 69
     0
  0
VISUALSTYLE
  5
26
102
{ACAD_XDICTIONARY
360
104
102
}
102
{ACAD_REACTORS
330
27
102
}
330
27
100
AcDbVisualStyle
  2
2dWireframe
 70
     4
 71
     0
 72
     2
 73
     0
 90
        0
 40
-0.6
 41
-30.0
 62
     5
 63
     7
421
 16777215
 74
     1
 91
        4
 64
     7
 65
   257
 75
     1
175
     1
 42
1.0
 92
        0
 66
   257
 43
1.0
 76
     1
 77
     6
 78
     2
 67
     7
 79
     5
170
     0
171
     0
290
     0
174
     0
 93
        1
 44
0.0
173
     0
291
     0
 45
0.0
1001
ACAD
1000
AcDbSavedByObjectVersion
1070
     0
  0
VISUALSTYLE
  5
40
102
{ACAD_XDICTIONARY
360
108
102
}
102
{ACAD_REACTORS
330
27
102
}
330
27
100
AcDbVisualStyle
  2
3dWireframe
 70
     5
 71
     0
 72
     2
 73
     0
 90
        0
 40
-0.6
 41
-30.0
 62
     5
 63
     7
421
 16777215
 74
     1
 91
        4
 64
     7
 65
   257
 75
     1
175
     1
 42
1.0
 92
        0
 66
   257
 43
1.0
 76
     1
 77
     6
 78
     2
 67
     7
 79
     5
170
     0
171
     0
290
     0
174
     0
 93
        1
 44
0.0
173
     0
291
     0
 45
0.0
1001
ACAD
1000
AcDbSavedByObjectVersion
1070
     0
  0
VISUALSTYLE
  5
3F
102
{ACAD_XDICTIONARY
360
106
102
}
102
{ACAD_REACTORS
330
27
102
}
330
27
100
AcDbVisualStyle
  2
Realistic
 70
     8
 71
     2
 72
     2
 73
     0
 90
        0
 40
-0.6
 41
-30.0
 62
     5
 63
     7
421
 16777215
 74
     1
 91
        0
 64
     7
 65
   257
 75
     1
175
     1
 42
1.0
 92
        8
 66
     8
424
  7895160
 43
1.0
 76
     1
 77
     6
 78
     2
 67
     7
 79
     5
170
     0
171
     0
290
     0
174
     0
 93
       13
 44
0.0
173
     0
291
     0
 45
0.0
1001
ACAD
1000
AcDbSavedByObjectVersion
1070
     0
  0
DICTIONARYVAR
  5
F6
102
{ACAD_REACTORS
330
F0
102
}
330
F0
100
DictionaryVariables
280
     0
  1
1:1
  0
DICTIONARYVAR
  5
F2
102
{ACAD_REACTORS
330
F0
102
}
330
F0
100
DictionaryVariables
280
     0
  1
STANDARD
  0
DICTIONARYVAR
  5
F1
102
{ACAD_REACTORS
330
F0
102
}
330
F0
100
DictionaryVariables
280
     0
  1
STANDARD
  0
DICTIONARYVAR
  5
F3
102
{ACAD_REACTORS
330
F0
102
}
330
F0
100
DictionaryVariables
280
     0
  1

  0
DICTIONARYVAR
  5
F4
102
{ACAD_REACTORS
330
F0
102
}
330
F0
100
DictionaryVariables
280
     0
  1

  0
DICTIONARYVAR
  5
F8
102
{ACAD_REACTORS
330
F0
102
}
330
F0
100
DictionaryVariables
280
     0
  1
1
  0
DICTIONARYVAR
  5
F9
102
{ACAD_REACTORS
330
F0
102
}
330
F0
100
DictionaryVariables
280
     0
  1
15
  0
DICTIONARYVAR
  5
F7
102
{ACAD_REACTORS
330
F0
102
}
330
F0
100
DictionaryVariables
280
     0
  1
0
  0
DICTIONARYVAR
  5
F5
102
{ACAD_REACTORS
330
F0
102
}
330
F0
100
DictionaryVariables
280
     0
  1
0
  0
DICTIONARY
  5
103
102
{ACAD_REACTORS
330
101
102
}
330
101
100
AcDbDictionary
281
     1
  0
DICTIONARY
  5
102
102
{ACAD_REACTORS
330
101
102
}
330
101
100
AcDbDictionary
281
     1
  3
2113733728
350
FC
  3
2113733736
350
FD
  3
2113733744
350
FE
  3
2113733752
350
FF
  3
2113733760
350
100
  0
DICTIONARY
  5
12
330
10
100
AcDbDictionary
280
     1
281
     1
  0
DICTIONARY
  5
18
330
17
100
AcDbDictionary
280
     1
281
     1
  0
DICTIONARY
  5
3E
330
3D
100
AcDbDictionary
280
     1
281
     1
  3
ACAD_ROUNDTRIP_2008_TABLESTYLE_CELLSTYLEMAP
360
FA
  0
DICTIONARY
  5
104
330
26
100
AcDbDictionary
280
     1
281
     1
  3
ACAD_XREC_ROUNDTRIP
360
105
  0
DICTIONARY
  5
108
330
40
100
AcDbDictionary
280
     1
281
     1
  3
ACAD_XREC_ROUNDTRIP
360
109
  0
DICTIONARY
  5
106
330
3F
100
AcDbDictionary
280
     1
281
     1
  3
ACAD_XREC_ROUNDTRIP
360
107
  0
XRECORD
  5
FC
102
{ACAD_REACTORS
330
102
102
}
330
102
100
AcDbXrecord
280
     1
  1
AcDb_Thumbnail_Schema
102
{ATTRRECORD
341
FD
  2
AcDbDs::TreatedAsObjectData
280
     1
291
     1
102
ATTRRECORD}
102
{ATTRRECORD
341
FE
  2
AcDbDs::Legacy
280
     1
291
     1
102
ATTRRECORD}
  2
AcDbDs::ID
280
    10
 91
        8
102
{ATTRRECORD
341
FF
  2
AcDs:Indexable
280
     1
291
     1
102
ATTRRECORD}
102
{ATTRRECORD
341
100
  2
AcDbDs::HandleAttribute
280
     7
282
     1
102
ATTRRECORD}
  2
Thumbnail_Data
280
    15
 91
        0
  0
XRECORD
  5
FD
102
{ACAD_REACTORS
330
102
102
}
330
102
100
AcDbXrecord
280
     1
  1
AcDbDs::TreatedAsObjectDataSchema
  2
AcDbDs::TreatedAsObjectData
280
     1
 91
        0
  0
XRECORD
  5
FE
102
{ACAD_REACTORS
330
102
102
}
330
102
100
AcDbXrecord
280
     1
  1
AcDbDs::LegacySchema
  2
AcDbDs::Legacy
280
     1
 91
        0
  0
XRECORD
  5
FF
102
{ACAD_REACTORS
330
102
102
}
330
102
100
AcDbXrecord
280
     1
  1
AcDbDs::IndexedPropertySchema
  2
AcDs:Indexable
280
     1
 91
        0
  0
XRECORD
  5
100
102
{ACAD_REACTORS
330
102
102
}
330
102
100
AcDbXrecord
280
     1
  1
AcDbDs::HandleAttributeSchema
  2
AcDbDs::HandleAttribute
280
     7
 91
        1
284
     1
  0
CELLSTYLEMAP
  5
FA
102
{ACAD_REACTORS
330
3E
102
}
330
3E
100
AcDbCellStyleMap
 90
        3
300
CELLSTYLE
  1
TABLEFORMAT_BEGIN
 90
        5
170
     1
 91
        0
 92
    32768
 62
   257
 93
        1
300
CONTENTFORMAT
  1
CONTENTFORMAT_BEGIN
 90
        0
 91
        0
 92
        4
 93
        0
300

 40
0.0
140
1.0
 94
        5
 62
     0
340
1D
144
6.0
309
CONTENTFORMAT_END
171
     1
301
MARGIN
  1
CELLMARGIN_BEGIN
 40
1.5
 40
1.5
 40
1.5
 40
1.5
 40
0.18
 40
0.18
309
CELLMARGIN_END
 94
        6
 95
        1
302
GRIDFORMAT
  1
GRIDFORMAT_BEGIN
 90
        0
 91
        1
 62
     0
 92
       -2
340
0
 93
        0
 40
0.045
309
GRIDFORMAT_END
 95
        2
302
GRIDFORMAT
  1
GRIDFORMAT_BEGIN
 90
        0
 91
        1
 62
     0
 92
       -2
340
0
 93
        0
 40
0.045
309
GRIDFORMAT_END
 95
        4
302
GRIDFORMAT
  1
GRIDFORMAT_BEGIN
 90
        0
 91
        1
 62
     0
 92
       -2
340
0
 93
        0
 40
0.045
309
GRIDFORMAT_END
 95
        8
302
GRIDFORMAT
  1
GRIDFORMAT_BEGIN
 90
        0
 91
        1
 62
     0
 92
       -2
340
0
 93
        0
 40
0.045
309
GRIDFORMAT_END
 95
       16
302
GRIDFORMAT
  1
GRIDFORMAT_BEGIN
 90
        0
 91
        1
 62
     0
 92
       -2
340
0
 93
        0
 40
0.045
309
GRIDFORMAT_END
 95
       32
302
GRIDFORMAT
  1
GRIDFORMAT_BEGIN
 90
        0
 91
        1
 62
     0
 92
       -2
340
0
 93
        0
 40
0.045
309
GRIDFORMAT_END
309
TABLEFORMAT_END
  1
CELLSTYLE_BEGIN
 90
        1
 91
        1
300
_TITLE
309
CELLSTYLE_END
300
CELLSTYLE
  1
TABLEFORMAT_BEGIN
 90
        5
170
     1
 91
        0
 92
        0
 62
   257
 93
        1
300
CONTENTFORMAT
  1
CONTENTFORMAT_BEGIN
 90
        0
 91
        0
 92
        4
 93
        0
300

 40
0.0
140
1.0
 94
        5
 62
     0
340
1D
144
4.5
309
CONTENTFORMAT_END
171
     1
301
MARGIN
  1
CELLMARGIN_BEGIN
 40
1.5
 40
1.5
 40
1.5
 40
1.5
 40
0.18
 40
0.18
309
CELLMARGIN_END
 94
        6
 95
        1
302
GRIDFORMAT
  1
GRIDFORMAT_BEGIN
 90
        0
 91
        1
 62
     0
 92
       -2
340
0
 93
        0
 40
0.045
309
GRIDFORMAT_END
 95
        2
302
GRIDFORMAT
  1
GRIDFORMAT_BEGIN
 90
        0
 91
        1
 62
     0
 92
       -2
340
0
 93
        0
 40
0.045
309
GRIDFORMAT_END
 95
        4
302
GRIDFORMAT
  1
GRIDFORMAT_BEGIN
 90
        0
 91
        1
 62
     0
 92
       -2
340
0
 93
        0
 40
0.045
309
GRIDFORMAT_END
 95
        8
302
GRIDFORMAT
  1
GRIDFORMAT_BEGIN
 90
        0
 91
        1
 62
     0
 92
       -2
340
0
 93
        0
 40
0.045
309
GRIDFORMAT_END
 95
       16
302
GRIDFORMAT
  1
GRIDFORMAT_BEGIN
 90
        0
 91
        1
 62
     0
 92
       -2
340
0
 93
        0
 40
0.045
309
GRIDFORMAT_END
 95
       32
302
GRIDFORMAT
  1
GRIDFORMAT_BEGIN
 90
        0
 91
        1
 62
     0
 92
       -2
340
0
 93
        0
 40
0.045
309
GRIDFORMAT_END
309
TABLEFORMAT_END
  1
CELLSTYLE_BEGIN
 90
        2
 91
        1
300
_HEADER
309
CELLSTYLE_END
300
CELLSTYLE
  1
TABLEFORMAT_BEGIN
 90
        5
170
     1
 91
        0
 92
        0
 62
   257
 93
        1
300
CONTENTFORMAT
  1
CONTENTFORMAT_BEGIN
 90
        0
 91
        0
 92
        4
 93
        0
300

 40
0.0
140
1.0
 94
        2
 62
     0
340
1D
144
4.5
309
CONTENTFORMAT_END
171
     1
301
MARGIN
  1
CELLMARGIN_BEGIN
 40
1.5
 40
1.5
 40
1.5
 40
1.5
 40
0.18
 40
0.18
309
CELLMARGIN_END
 94
        6
 95
        1
302
GRIDFORMAT
  1
GRIDFORMAT_BEGIN
 90
        0
 91
        1
 62
     0
 92
       -2
340
0
 93
        0
 40
0.045
309
GRIDFORMAT_END
 95
        2
302
GRIDFORMAT
  1
GRIDFORMAT_BEGIN
 90
        0
 91
        1
 62
     0
 92
       -2
340
0
 93
        0
 40
0.045
309
GRIDFORMAT_END
 95
        4
302
GRIDFORMAT
  1
GRIDFORMAT_BEGIN
 90
        0
 91
        1
 62
     0
 92
       -2
340
0
 93
        0
 40
0.045
309
GRIDFORMAT_END
 95
        8
302
GRIDFORMAT
  1
GRIDFORMAT_BEGIN
 90
        0
 91
        1
 62
     0
 92
       -2
340
0
 93
        0
 40
0.045
309
GRIDFORMAT_END
 95
       16
302
GRIDFORMAT
  1
GRIDFORMAT_BEGIN
 90
        0
 91
        1
 62
     0
 92
       -2
340
0
 93
        0
 40
0.045
309
GRIDFORMAT_END
 95
       32
302
GRIDFORMAT
  1
GRIDFORMAT_BEGIN
 90
        0
 91
        1
 62
     0
 92
       -2
340
0
 93
        0
 40
0.045
309
GRIDFORMAT_END
309
TABLEFORMAT_END
  1
CELLSTYLE_BEGIN
 90
        3
 91
        2
300
_DATA
309
CELLSTYLE_END
  0
XRECORD
  5
105
102
{ACAD_REACTORS
330
104
102
}
330
104
100
AcDbXrecord
280
     1
102
RTVSPost2010Prop28
280
     1
102
RTVSPost2010PropOp28
 70
     1
102
RTVSPost2010Prop29
280
     1
102
RTVSPost2010PropOp29
 70
     1
102
RTVSPost2010Prop30
280
     0
102
RTVSPost2010PropOp30
 70
     1
102
RTVSPost2010Prop31
280
     0
102
RTVSPost2010PropOp31
 70
     1
102
RTVSPost2010Prop32
280
     0
102
RTVSPost2010PropOp32
 70
     1
102
RTVSPost2010Prop33
280
     0
102
RTVSPost2010PropOp33
 70
     1
102
RTVSPost2010Prop34
280
     0
102
RTVSPost2010PropOp34
 70
     1
102
RTVSPost2010Prop35
280
     0
102
RTVSPost2010PropOp35
 70
     1
102
RTVSPost2010Prop36
280
     0
102
RTVSPost2010PropOp36
 70
     1
102
RTVSPost2010Prop37
 90
       50
102
RTVSPost2010PropOp37
 70
     1
102
RTVSPost2010Prop38
140
0.0
102
RTVSPost2010PropOp38
 70
     1
102
RTVSPost2010Prop39
140
1.0
102
RTVSPost2010PropOp39
 70
     1
102
RTVSPost2010Prop40
 90
        0
102
RTVSPost2010PropOp40
 70
     1
102
RTVSPost2010Prop41ColorIndex
 90
       18
102
RTVSPost2010Prop41ColorRGB
 90
        0
102
RTVSPost2010PropOp41
 70
     1
102
RTVSPost2010Prop42
 90
       50
102
RTVSPost2010PropOp42
 70
     1
102
RTVSPost2010Prop43
 90
        3
102
RTVSPost2010PropOp43
 70
     1
102
RTVSPost2010Prop44ColorIndex
 90
        5
102
RTVSPost2010Prop44ColorRGB
 90
      255
102
RTVSPost2010PropOp44
 70
     1
102
RTVSPost2010Prop45
280
     0
102
RTVSPost2010PropOp45
 70
     1
102
RTVSPost2010Prop46
 90
       50
102
RTVSPost2010PropOp46
 70
     1
102
RTVSPost2010Prop47
 90
       50
102
RTVSPost2010PropOp47
 70
     1
102
RTVSPost2010Prop48
 90
       50
102
RTVSPost2010PropOp48
 70
     1
102
RTVSPost2010Prop49
280
     0
102
RTVSPost2010PropOp49
 70
     1
102
RTVSPost2010Prop50
 90
       50
102
RTVSPost2010PropOp50
 70
     1
102
RTVSPost2010Prop51ColorIndex
 90
      256
102
RTVSPost2010Prop51ColorRGB
 90
-16777216
102
RTVSPost2010PropOp51
 70
     0
102
RTVSPost2010Prop52
140
1.0
102
RTVSPost2010PropOp52
 70
     0
102
RTVSPost2010Prop53
 90
        2
102
RTVSPost2010PropOp53
 70
     1
102
RTVSPost2010Prop54
  1
strokes_ogs.tif
102
RTVSPost2010PropOp54
 70
     1
102
RTVSPost2010Prop55
280
     0
102
RTVSPost2010PropOp55
 70
     1
102
RTVSPost2010Prop56
140
1.0
102
RTVSPost2010PropOp56
 70
     1
102
RTVSPost2010Prop57
140
1.0
102
RTVSPost2010PropOp57
 70
     1
102
RTVSPropertyOp0
 70
     1
102
RTVSPropertyOp1
 70
     1
102
RTVSPropertyOp2
 70
     1
102
RTVSPropertyOp3
 70
     1
102
RTVSPropertyOp4
 70
     1
102
RTVSPropertyOp5
 70
     1
102
RTVSPropertyOp6
 70
     1
102
RTVSPropertyOp7
 70
     1
102
RTVSPropertyOp8
 70
     1
102
RTVSPropertyOp9
 70
     1
102
RTVSPropertyOp10
 70
     1
102
RTVSPropertyOp11
 70
     1
102
RTVSPropertyOp12
 70
     1
102
RTVSPropertyOp13
 70
     1
102
RTVSPropertyOp14
 70
     1
102
RTVSPropertyOp15
 70
     1
102
RTVSPropertyOp16
 70
     1
102
RTVSPropertyOp17
 70
     1
102
RTVSPropertyOp18
 70
     1
102
RTVSPropertyOp19
 70
     1
102
RTVSPropertyOp20
 70
     1
102
RTVSPropertyOp21
 70
     1
102
RTVSPropertyOp22
 70
     1
102
RTVSPropertyOp23
 70
     1
102
RTVSPropertyOp24
 70
     1
102
RTVSPropertyOp25
 70
     1
102
RTVSPropertyOp26
 70
     1
102
RTVSPropertyOp27
 70
     1
102
RTVSPropertyOp28
 70
     1
102
RTVSPropertyOp29
 70
     1
102
RTVSPropertyOp30
 70
     1
102
RTVSPropertyOp31
 70
     1
102
RTVSPropertyOp32
 70
     1
102
RTVSPropertyOp33
 70
     1
102
RTVSPropertyOp34
 70
     1
102
RTVSPropertyOp35
 70
     1
102
RTVSPropertyOp36
 70
     1
102
RTVSPropertyOp37
 70
     1
102
RTVSPropertyOp38
 70
     1
102
RTVSPropertyOp39
 70
     1
102
RTVSPropertyOp40
 70
     1
102
RTVSPropertyOp41
 70
     1
102
RTVSPropertyOp42
 70
     1
102
RTVSPropertyOp43
 70
     1
102
RTVSPropertyOp44
 70
     1
102
RTVSPropertyOp45
 70
     1
102
RTVSPropertyOp46
 70
     1
102
RTVSPropertyOp47
 70
     1
102
RTVSPropertyOp48
 70
     1
102
RTVSPropertyOp49
 70
     1
102
RTVSPropertyOp50
 70
     1
102
RTVSPropertyOp51
 70
     0
102
RTVSPropertyOp52
 70
     0
102
RTVSPropertyOp53
 70
     1
102
RTVSPropertyOp54
 70
     1
102
RTVSPropertyOp55
 70
     1
102
RTVSPropertyOp56
 70
     1
102
RTVSPropertyOp57
 70
     1
102
RTVSPropertyOp58
 70
     1
102
RTVSPropertyOp59
 70
     1
102
RTVSPropertyOp60
 70
     1
102
RTVSPropertyOp61
 70
     1
102
RTVSPropertyOp62
 70
     1
  0
XRECORD
  5
109
102
{ACAD_REACTORS
330
108
102
}
330
108
100
AcDbXrecord
280
     1
102
RTVSPost2010Prop28
280
     0
102
RTVSPost2010PropOp28
 70
     1
102
RTVSPost2010Prop29
280
     1
102
RTVSPost2010PropOp29
 70
     1
102
RTVSPost2010Prop30
280
     1
102
RTVSPost2010PropOp30
 70
     1
102
RTVSPost2010Prop31
280
     0
102
RTVSPost2010PropOp31
 70
     1
102
RTVSPost2010Prop32
280
     0
102
RTVSPost2010PropOp32
 70
     1
102
RTVSPost2010Prop33
280
     0
102
RTVSPost2010PropOp33
 70
     1
102
RTVSPost2010Prop34
280
     0
102
RTVSPost2010PropOp34
 70
     1
102
RTVSPost2010Prop35
280
     0
102
RTVSPost2010PropOp35
 70
     1
102
RTVSPost2010Prop36
280
     0
102
RTVSPost2010PropOp36
 70
     1
102
RTVSPost2010Prop37
 90
       50
102
RTVSPost2010PropOp37
 70
     1
102
RTVSPost2010Prop38
140
0.0
102
RTVSPost2010PropOp38
 70
     1
102
RTVSPost2010Prop39
140
1.0
102
RTVSPost2010PropOp39
 70
     1
102
RTVSPost2010Prop40
 90
        0
102
RTVSPost2010PropOp40
 70
     1
102
RTVSPost2010Prop41ColorIndex
 90
       18
102
RTVSPost2010Prop41ColorRGB
 90
        0
102
RTVSPost2010PropOp41
 70
     1
102
RTVSPost2010Prop42
 90
       50
102
RTVSPost2010PropOp42
 70
     1
102
RTVSPost2010Prop43
 90
        3
102
RTVSPost2010PropOp43
 70
     1
102
RTVSPost2010Prop44ColorIndex
 90
        5
102
RTVSPost2010Prop44ColorRGB
 90
      255
102
RTVSPost2010PropOp44
 70
     1
102
RTVSPost2010Prop45
280
     0
102
RTVSPost2010PropOp45
 70
     1
102
RTVSPost2010Prop46
 90
       50
102
RTVSPost2010PropOp46
 70
     1
102
RTVSPost2010Prop47
 90
       50
102
RTVSPost2010PropOp47
 70
     1
102
RTVSPost2010Prop48
 90
       50
102
RTVSPost2010PropOp48
 70
     1
102
RTVSPost2010Prop49
280
     0
102
RTVSPost2010PropOp49
 70
     1
102
RTVSPost2010Prop50
 90
       50
102
RTVSPost2010PropOp50
 70
     1
102
RTVSPost2010Prop51ColorIndex
 90
      256
102
RTVSPost2010Prop51ColorRGB
 90
-16777216
102
RTVSPost2010PropOp51
 70
     0
102
RTVSPost2010Prop52
140
1.0
102
RTVSPost2010PropOp52
 70
     0
102
RTVSPost2010Prop53
 90
        2
102
RTVSPost2010PropOp53
 70
     1
102
RTVSPost2010Prop54
  1
strokes_ogs.tif
102
RTVSPost2010PropOp54
 70
     1
102
RTVSPost2010Prop55
280
     0
102
RTVSPost2010PropOp55
 70
     1
102
RTVSPost2010Prop56
140
1.0
102
RTVSPost2010PropOp56
 70
     1
102
RTVSPost2010Prop57
140
1.0
102
RTVSPost2010PropOp57
 70
     1
102
RTVSPropertyOp0
 70
     1
102
RTVSPropertyOp1
 70
     1
102
RTVSPropertyOp2
 70
     1
102
RTVSPropertyOp3
 70
     1
102
RTVSPropertyOp4
 70
     1
102
RTVSPropertyOp5
 70
     1
102
RTVSPropertyOp6
 70
     1
102
RTVSPropertyOp7
 70
     1
102
RTVSPropertyOp8
 70
     1
102
RTVSPropertyOp9
 70
     1
102
RTVSPropertyOp10
 70
     1
102
RTVSPropertyOp11
 70
     1
102
RTVSPropertyOp12
 70
     1
102
RTVSPropertyOp13
 70
     1
102
RTVSPropertyOp14
 70
     1
102
RTVSPropertyOp15
 70
     1
102
RTVSPropertyOp16
 70
     1
102
RTVSPropertyOp17
 70
     1
102
RTVSPropertyOp18
 70
     1
102
RTVSPropertyOp19
 70
     1
102
RTVSPropertyOp20
 70
     1
102
RTVSPropertyOp21
 70
     1
102
RTVSPropertyOp22
 70
     1
102
RTVSPropertyOp23
 70
     1
102
RTVSPropertyOp24
 70
     1
102
RTVSPropertyOp25
 70
     1
102
RTVSPropertyOp26
 70
     1
102
RTVSPropertyOp27
 70
     1
102
RTVSPropertyOp28
 70
     1
102
RTVSPropertyOp29
 70
     1
102
RTVSPropertyOp30
 70
     1
102
RTVSPropertyOp31
 70
     1
102
RTVSPropertyOp32
 70
     1
102
RTVSPropertyOp33
 70
     1
102
RTVSPropertyOp34
 70
     1
102
RTVSPropertyOp35
 70
     1
102
RTVSPropertyOp36
 70
     1
102
RTVSPropertyOp37
 70
     1
102
RTVSPropertyOp38
 70
     1
102
RTVSPropertyOp39
 70
     1
102
RTVSPropertyOp40
 70
     1
102
RTVSPropertyOp41
 70
     1
102
RTVSPropertyOp42
 70
     1
102
RTVSPropertyOp43
 70
     1
102
RTVSPropertyOp44
 70
     1
102
RTVSPropertyOp45
 70
     1
102
RTVSPropertyOp46
 70
     1
102
RTVSPropertyOp47
 70
     1
102
RTVSPropertyOp48
 70
     1
102
RTVSPropertyOp49
 70
     1
102
RTVSPropertyOp50
 70
     1
102
RTVSPropertyOp51
 70
     0
102
RTVSPropertyOp52
 70
     0
102
RTVSPropertyOp53
 70
     1
102
RTVSPropertyOp54
 70
     1
102
RTVSPropertyOp55
 70
     1
102
RTVSPropertyOp56
 70
     1
102
RTVSPropertyOp57
 70
     1
102
RTVSPropertyOp58
 70
     1
102
RTVSPropertyOp59
 70
     1
102
RTVSPropertyOp60
 70
     1
102
RTVSPropertyOp61
 70
     1
102
RTVSPropertyOp62
 70
     1
  0
XRECORD
  5
107
102
{ACAD_REACTORS
330
106
102
}
330
106
100
AcDbXrecord
280
     1
102
RTVSPost2010Prop28
280
     0
102
RTVSPost2010PropOp28
 70
     1
102
RTVSPost2010Prop29
280
     1
102
RTVSPost2010PropOp29
 70
     1
102
RTVSPost2010Prop30
280
     1
102
RTVSPost2010PropOp30
 70
     1
102
RTVSPost2010Prop31
280
     0
102
RTVSPost2010PropOp31
 70
     1
102
RTVSPost2010Prop32
280
     0
102
RTVSPost2010PropOp32
 70
     1
102
RTVSPost2010Prop33
280
     0
102
RTVSPost2010PropOp33
 70
     1
102
RTVSPost2010Prop34
280
     0
102
RTVSPost2010PropOp34
 70
     1
102
RTVSPost2010Prop35
280
     0
102
RTVSPost2010PropOp35
 70
     1
102
RTVSPost2010Prop36
280
     0
102
RTVSPost2010PropOp36
 70
     1
102
RTVSPost2010Prop37
 90
       50
102
RTVSPost2010PropOp37
 70
     1
102
RTVSPost2010Prop38
140
0.0
102
RTVSPost2010PropOp38
 70
     1
102
RTVSPost2010Prop39
140
1.0
102
RTVSPost2010PropOp39
 70
     1
102
RTVSPost2010Prop40
 90
        0
102
RTVSPost2010PropOp40
 70
     1
102
RTVSPost2010Prop41ColorIndex
 90
       18
102
RTVSPost2010Prop41ColorRGB
 90
        0
102
RTVSPost2010PropOp41
 70
     1
102
RTVSPost2010Prop42
 90
       50
102
RTVSPost2010PropOp42
 70
     1
102
RTVSPost2010Prop43
 90
        3
102
RTVSPost2010PropOp43
 70
     1
102
RTVSPost2010Prop44ColorIndex
 90
        5
102
RTVSPost2010Prop44ColorRGB
 90
      255
102
RTVSPost2010PropOp44
 70
     1
102
RTVSPost2010Prop45
280
     0
102
RTVSPost2010PropOp45
 70
     1
102
RTVSPost2010Prop46
 90
       50
102
RTVSPost2010PropOp46
 70
     1
102
RTVSPost2010Prop47
 90
       50
102
RTVSPost2010PropOp47
 70
     1
102
RTVSPost2010Prop48
 90
       50
102
RTVSPost2010PropOp48
 70
     1
102
RTVSPost2010Prop49
280
     0
102
RTVSPost2010PropOp49
 70
     1
102
RTVSPost2010Prop50
 90
       50
102
RTVSPost2010PropOp50
 70
     1
102
RTVSPost2010Prop51ColorIndex
 90
      256
102
RTVSPost2010Prop51ColorRGB
 90
-16777216
102
RTVSPost2010PropOp51
 70
     0
102
RTVSPost2010Prop52
140
1.0
102
RTVSPost2010PropOp52
 70
     0
102
RTVSPost2010Prop53
 90
        2
102
RTVSPost2010PropOp53
 70
     1
102
RTVSPost2010Prop54
  1
strokes_ogs.tif
102
RTVSPost2010PropOp54
 70
     1
102
RTVSPost2010Prop55
280
     0
102
RTVSPost2010PropOp55
 70
     1
102
RTVSPost2010Prop56
140
1.0
102
RTVSPost2010PropOp56
 70
     1
102
RTVSPost2010Prop57
140
1.0
102
RTVSPost2010PropOp57
 70
     1
102
RTVSPropertyOp0
 70
     1
102
RTVSPropertyOp1
 70
     1
102
RTVSPropertyOp2
 70
     1
102
RTVSPropertyOp3
 70
     1
102
RTVSPropertyOp4
 70
     1
102
RTVSPropertyOp5
 70
     1
102
RTVSPropertyOp6
 70
     1
102
RTVSPropertyOp7
 70
     1
102
RTVSPropertyOp8
 70
     1
102
RTVSPropertyOp9
 70
     1
102
RTVSPropertyOp10
 70
     1
102
RTVSPropertyOp11
 70
     1
102
RTVSPropertyOp12
 70
     1
102
RTVSPropertyOp13
 70
     1
102
RTVSPropertyOp14
 70
     1
102
RTVSPropertyOp15
 70
     1
102
RTVSPropertyOp16
 70
     1
102
RTVSPropertyOp17
 70
     1
102
RTVSPropertyOp18
 70
     1
102
RTVSPropertyOp19
 70
     1
102
RTVSPropertyOp20
 70
     1
102
RTVSPropertyOp21
 70
     1
102
RTVSPropertyOp22
 70
     1
102
RTVSPropertyOp23
 70
     1
102
RTVSPropertyOp24
 70
     1
102
RTVSPropertyOp25
 70
     1
102
RTVSPropertyOp26
 70
     1
102
RTVSPropertyOp27
 70
     1
102
RTVSPropertyOp28
 70
     1
102
RTVSPropertyOp29
 70
     1
102
RTVSPropertyOp30
 70
     1
102
RTVSPropertyOp31
 70
     1
102
RTVSPropertyOp32
 70
     1
102
RTVSPropertyOp33
 70
     1
102
RTVSPropertyOp34
 70
     1
102
RTVSPropertyOp35
 70
     1
102
RTVSPropertyOp36
 70
     1
102
RTVSPropertyOp37
 70
     1
102
RTVSPropertyOp38
 70
     1
102
RTVSPropertyOp39
 70
     1
102
RTVSPropertyOp40
 70
     1
102
RTVSPropertyOp41
 70
     1
102
RTVSPropertyOp42
 70
     1
102
RTVSPropertyOp43
 70
     1
102
RTVSPropertyOp44
 70
     1
102
RTVSPropertyOp45
 70
     1
102
RTVSPropertyOp46
 70
     1
102
RTVSPropertyOp47
 70
     1
102
RTVSPropertyOp48
 70
     1
102
RTVSPropertyOp49
 70
     1
102
RTVSPropertyOp50
 70
     1
102
RTVSPropertyOp51
 70
     0
102
RTVSPropertyOp52
 70
     0
102
RTVSPropertyOp53
 70
     1
102
RTVSPropertyOp54
 70
     1
102
RTVSPropertyOp55
 70
     1
102
RTVSPropertyOp56
 70
     1
102
RTVSPropertyOp57
 70
     1
102
RTVSPropertyOp58
 70
     1
102
RTVSPropertyOp59
 70
     1
102
RTVSPropertyOp60
 70
     1
102
RTVSPropertyOp61
 70
     1
102
RTVSPropertyOp62
 70
     1
  0
ENDSEC
  0
EOF
